0
SECTION
2
HEADER
9
$MEASUREMENT
70
1
0
ENDSEC
0
SECTION
2
TABLES
0
TABLE
2
LTYPE
0
LTYPE
72
65
70
64
2
CONTINUOUS
3
______
73
0
40
0
0
ENDTAB
0
TABLE
2
LAYER
0
LAYER
2
DEFAULT_255_2_778
70
0
62
255
6
CONTINUOUS
0
ENDTAB
0
ENDSEC
0
SECTION
2
ENTITIES
0
ARC
8
DEFAULT_255_2_778
10
12.5906059
20
5.7489901
40
2.0341528
50
306.3176759
51
324.0585771
0
ARC
8
DEFAULT_255_2_778
10
12.6332302
20
5.6913825
40
1.9624911
50
270.0023492
51
306.3110911
0
ARC
8
DEFAULT_255_2_778
10
12.6335204
20
5.7070269
40
1.9781356
50
262.608499
51
269.9939247
0
ARC
8
DEFAULT_255_2_778
10
12.6402208
20
5.7509129
40
2.0225191
50
250.2702183
51
262.5802023
0
ARC
8
DEFAULT_255_2_778
10
12.6737375
20
5.8444177
40
2.1218496
50
240.6022177
51
250.2706673
0
ARC
8
DEFAULT_255_2_778
10
12.7233594
20
5.9353176
40
2.2254029
50
236.3026164
51
240.6379483
0
ARC
8
DEFAULT_255_2_778
10
2.8689885
20
8.1426578
40
2.3116568
50
269.302967
51
309.59349
0
LINE
8
DEFAULT_255_2_778
10
2.8408667
20
5.8311719
11
2.840433
21
5.8311719
0
ARC
8
DEFAULT_255_2_778
10
2.8391479
20
8.3213655
40
2.490194
50
257.5075498
51
270.0295697
0
ARC
8
DEFAULT_255_2_778
10
2.9075744
20
8.2663274
40
2.4525237
50
235.1025212
51
255.6683711
0
ARC
8
DEFAULT_255_2_778
10
2.9143633
20
8.2724215
40
2.4614068
50
180.0833775
51
235.054065
0
ARC
8
DEFAULT_255_2_778
10
2.9126655
20
8.2685755
40
2.4597064
50
172.9731899
51
179.9938467
0
ARC
8
DEFAULT_255_2_778
10
2.9421088
20
8.2651572
40
2.4893468
50
169.5322182
51
172.9780058
0
ARC
8
DEFAULT_255_2_778
10
2.8703764
20
8.1102954
40
2.452522
50
145.1016932
51
165.6671558
0
ARC
8
DEFAULT_255_2_778
10
2.8764945
20
8.1035078
40
2.4614241
50
90.0839485
51
145.0535876
0
ARC
8
DEFAULT_255_2_778
10
2.8726292
20
8.1054724
40
2.459457
50
82.9754982
51
89.9939689
0
ARC
8
DEFAULT_255_2_778
10
2.8692056
20
8.0759485
40
2.4891779
50
79.5358301
51
82.9803934
0
ARC
8
DEFAULT_255_2_778
10
2.7141342
20
8.14742
40
2.4526477
50
55.1030376
51
75.6673103
0
ARC
8
DEFAULT_255_2_778
10
2.7074756
20
8.1414923
40
2.4613197
50
0.0830332
51
55.0548516
0
ARC
8
DEFAULT_255_2_778
10
2.7090308
20
8.14532
40
2.4597621
50
352.9759357
51
359.9939271
0
ARC
8
DEFAULT_255_2_778
10
2.6793965
20
8.1487558
40
2.4895941
50
349.5366238
51
352.9808562
0
ARC
8
DEFAULT_255_2_778
10
8.0494617
20
14.73465
40
2.2678234
50
228.9514625
51
247.1738736
0
ARC
8
DEFAULT_255_2_778
10
8.0003444
20
14.6489585
40
2.1710289
50
204.923922
51
228.4439179
0
ARC
8
DEFAULT_255_2_778
10
8.3288042
20
14.8233787
40
2.5424786
50
203.1868015
51
205.3691889
0
ARC
8
DEFAULT_255_2_778
10
7.7707348
20
14.5066872
40
1.9061327
50
191.4313462
51
201.0406456
0
ARC
8
DEFAULT_255_2_778
10
7.7787952
20
14.508091
40
1.9143115
50
185.0028627
51
191.4247126
0
ARC
8
DEFAULT_255_2_778
10
7.8022068
20
14.5101635
40
1.9378146
50
179.994251
51
185.0035421
0
ARC
8
DEFAULT_255_2_778
10
7.9302673
20
14.4958608
40
2.065926
50
122.1520783
51
179.5979374
0
ARC
8
DEFAULT_255_2_778
10
7.8841043
20
14.5570882
40
1.9895327
50
111.0440552
51
121.9648851
0
ARC
8
DEFAULT_255_2_778
10
7.9132363
20
14.3331529
40
2.2096345
50
104.2887706
51
109.6638522
0
ARC
8
DEFAULT_255_2_778
10
7.9051869
20
14.3636043
40
2.1781385
50
101.4715959
51
104.2812822
0
ARC
8
DEFAULT_255_2_778
10
7.9003297
20
14.3889052
40
2.1523769
50
93.9277164
51
101.4788282
0
ARC
8
DEFAULT_255_2_778
10
7.8990139
20
14.4045488
40
2.13668
50
90.0010593
51
93.9212501
0
ARC
8
DEFAULT_255_2_778
10
7.8997742
20
14.4171929
40
2.124036
50
60.322715
51
90.0215742
0
ARC
8
DEFAULT_255_2_778
10
7.9568977
20
14.503865
40
2.0204614
50
23.1422751
51
60.5132194
0
ARC
8
DEFAULT_255_2_778
10
7.9864969
20
14.5231934
40
1.9856572
50
21.0382951
51
22.9651032
0
ARC
8
DEFAULT_255_2_778
10
7.9195741
20
14.4967151
40
2.0576246
50
11.657662
51
21.0574674
0
ARC
8
DEFAULT_255_2_778
10
7.9424855
20
14.5018042
40
2.0341575
50
6.0472545
51
11.6476743
0
ARC
8
DEFAULT_255_2_778
10
7.9541681
20
14.5030438
40
2.0224093
50
0.002647
51
6.0472004
0
ARC
8
DEFAULT_255_2_778
10
8.0171742
20
14.4942018
40
1.9594236
50
309.6441355
51
0.261282
0
ARC
8
DEFAULT_255_2_778
10
8.0002372
20
14.5296864
40
1.9975768
50
292.5937705
51
309.3688419
0
ARC
8
DEFAULT_255_2_778
10
7.9486875
20
14.6423431
40
2.1213968
50
289.6452544
51
292.710211
0
ARC
8
DEFAULT_255_2_778
10
12.4622587
20
11.3318303
40
2.0542749
50
179.8658253
51
193.9059682
0
ARC
8
DEFAULT_255_2_778
10
12.6195091
20
11.3362509
40
2.2115196
50
176.1541714
51
179.9898941
0
ARC
8
DEFAULT_255_2_778
10
12.8323339
20
11.3090772
40
2.4257218
50
146.8465839
51
175.8509358
0
ARC
8
DEFAULT_255_2_778
10
12.8364223
20
11.3112692
40
2.4279493
50
144.4553009
51
146.9426539
0
ARC
8
DEFAULT_255_2_778
10
12.7287341
20
11.2893132
40
2.3544668
50
129.4480547
51
142.4967362
0
ARC
8
DEFAULT_255_2_778
10
12.6848059
20
11.3409831
40
2.2866565
50
111.5881566
51
129.4207084
0
ARC
8
DEFAULT_255_2_778
10
12.6850798
20
11.3395706
40
2.2880706
50
91.6878891
51
111.5815201
0
ARC
8
DEFAULT_255_2_778
10
12.6842821
20
11.3526691
40
2.2749542
50
90.0004582
51
91.6775252
0
ARC
8
DEFAULT_255_2_778
10
12.6910854
20
11.4247614
40
2.2028724
50
58.1312456
51
90.1774225
0
ARC
8
DEFAULT_255_2_778
10
12.7198705
20
11.4836045
40
2.1377116
50
53.1369996
51
57.9537709
0
ARC
8
DEFAULT_255_2_778
10
12.6734994
20
11.4423469
40
2.1985736
50
17.8563405
51
52.8151599
0
ARC
8
DEFAULT_255_2_778
10
12.5137497
20
11.3771235
40
2.3706636
50
359.9863034
51
18.1728833
0
ARC
8
DEFAULT_255_2_778
10
12.5128256
20
11.3765235
40
2.3715875
50
356.8564415
51
0.0008047
0
ARC
8
DEFAULT_255_2_778
10
12.5491364
20
11.372813
40
2.3351286
50
339.0255008
51
356.8984888
0
ARC
8
DEFAULT_255_2_778
10
12.5835529
20
11.3613954
40
2.2989061
50
326.1684361
51
338.984169
0
ARC
8
DEFAULT_255_2_778
10
12.5713871
20
11.3691116
40
2.313308
50
325.3101026
51
326.1774432
0
ARC
8
DEFAULT_255_2_778
10
12.8118756
20
11.2026292
40
2.0208167
50
306.9095794
51
325.3106394
0
ARC
8
DEFAULT_255_2_778
10
12.6894866
20
11.3993251
40
2.2516841
50
269.8265764
51
306.3938844
0
ARC
8
DEFAULT_255_2_778
10
12.6733449
20
11.5371473
40
2.3895144
50
270.0012396
51
270.2236265
0
ARC
8
DEFAULT_255_2_778
10
12.6564903
20
11.3863462
40
2.238777
50
233.7313286
51
270.4326774
0
ARC
8
DEFAULT_255_2_778
10
12.3231656
20
5.6710585
40
1.5610372
50
179.8283226
51
189.2873849
0
ARC
8
DEFAULT_255_2_778
10
12.669769
20
5.6722362
40
1.9076368
50
172.9004038
51
179.8948864
0
ARC
8
DEFAULT_255_2_778
10
13.1823213
20
5.5941987
40
2.4259453
50
153.4901674
51
172.5676113
0
ARC
8
DEFAULT_255_2_778
10
13.0373552
20
5.6710492
40
2.2619227
50
149.0944383
51
153.5931237
0
ARC
8
DEFAULT_255_2_778
10
12.7433565
20
5.638808
40
2.0340891
50
126.3143463
51
144.055251
0
ARC
8
DEFAULT_255_2_778
10
12.700892
20
5.6961908
40
1.9627032
50
90.0021614
51
126.3075137
0
ARC
8
DEFAULT_255_2_778
10
12.7006089
20
5.6805164
40
1.9783776
50
82.6107519
51
89.993945
0
ARC
8
DEFAULT_255_2_778
10
12.6939177
20
5.6366867
40
2.0227041
50
70.2737608
51
82.582464
0
ARC
8
DEFAULT_255_2_778
10
12.6604465
20
5.543293
40
2.1219145
50
60.606331
51
70.2741896
0
ARC
8
DEFAULT_255_2_778
10
12.6108024
20
5.4523539
40
2.225513
50
56.3069388
51
60.6418636
0
ARC
8
DEFAULT_255_2_778
10
12.8403357
20
5.7893737
40
1.8177777
50
42.6371927
51
56.4335543
0
ARC
8
DEFAULT_255_2_778
10
12.8939374
20
5.8426206
40
1.7422805
50
20.5371039
51
42.5430031
0
ARC
8
DEFAULT_255_2_778
10
12.7580459
20
5.7956301
40
1.8860239
50
359.8133233
51
20.425654
0
ARC
8
DEFAULT_255_2_778
10
12.63562
20
5.7896582
40
2.0084399
50
356.5390687
51
359.995066
0
ARC
8
DEFAULT_255_2_778
10
12.5464733
20
5.7988548
40
2.0979825
50
336.1511916
51
356.4353408
0
ARC
8
DEFAULT_255_2_778
10
12.5105565
20
5.8118434
40
2.1360857
50
323.968313
51
336.2220681
0
LINE
8
DEFAULT_255_2_778
10
11.4886916
20
4.0838282
11
8.9756916
21
2.5132282
0
LINE
8
DEFAULT_255_2_778
10
8.9756916
20
2.5132282
11
9.0542916
21
-0.3924718
0
LINE
8
DEFAULT_255_2_778
10
9.0542916
20
-0.3924718
11
6.7767916
21
-0.3924718
0
LINE
8
DEFAULT_255_2_778
10
6.7767916
20
-0.3924718
11
6.7767916
21
0.3143282
0
LINE
8
DEFAULT_255_2_778
10
6.7767916
20
0.3143282
11
6.9338916
21
4.7121282
0
LINE
8
DEFAULT_255_2_778
10
6.9338916
20
4.7121282
11
4.3422916
21
6.3613282
0
LINE
8
DEFAULT_255_2_778
10
5.1275916
20
7.6966282
11
7.0124916
21
6.5187282
0
LINE
8
DEFAULT_255_2_778
10
7.0124916
20
6.5187282
11
7.1696916
21
12.6444282
0
LINE
8
DEFAULT_255_2_778
10
8.6618916
20
12.6444282
11
8.7404916
21
9.7387282
0
LINE
8
DEFAULT_255_2_778
10
8.7404916
20
9.7387282
11
10.4681916
21
10.8381282
0
LINE
8
DEFAULT_255_2_778
10
11.3320916
20
9.5813282
11
8.8190916
21
8.0107282
0
LINE
8
DEFAULT_255_2_778
10
8.8190916
20
8.0107282
11
8.9761916
21
4.3198282
0
LINE
8
DEFAULT_255_2_778
10
8.9761916
20
4.3198282
11
10.7825916
21
5.4191282
0
LINE
8
DEFAULT_255_2_778
10
14.2379916
20
4.5553282
11
14.2374916
21
4.5550282
0
ARC
8
DEFAULT_255_2_778
10
7.8701384
20
14.5307765
40
1.2506102
50
145.9347871
51
180.0911297
0
ARC
8
DEFAULT_255_2_778
10
7.8756566
20
14.5293809
40
1.2559646
50
95.7172463
51
146.0230528
0
ARC
8
DEFAULT_255_2_778
10
7.8758326
20
14.5140082
40
1.2712791
50
89.9911141
51
95.656119
0
ARC
8
DEFAULT_255_2_778
10
7.8780491
20
14.5346343
40
1.2506547
50
55.9354083
51
90.092512
0
ARC
8
DEFAULT_255_2_778
10
7.8766716
20
14.5292213
40
1.2559117
50
5.7147014
51
56.0216691
0
ARC
8
DEFAULT_255_2_778
10
7.8610046
20
14.5289825
40
1.2715252
50
359.9912085
51
5.6551137
0
ARC
8
DEFAULT_255_2_778
10
7.8758185
20
14.5288414
40
1.2567113
50
300.0081943
51
359.9975348
0
ARC
8
DEFAULT_255_2_778
10
7.8762557
20
14.5283834
40
1.2560961
50
270.0067108
51
300.0013715
0
LINE
8
DEFAULT_255_2_778
10
7.8764028
20
13.2722874
11
7.8760423
21
13.2722874
0
ARC
8
DEFAULT_255_2_778
10
7.8757946
20
14.5279759
40
1.2556886
50
239.9936464
51
270.0112995
0
ARC
8
DEFAULT_255_2_778
10
7.8761239
20
14.5288315
40
1.2565941
50
180.0020126
51
240.0001543
0
ARC
8
DEFAULT_255_2_778
10
12.5847113
20
5.6573982
40
1.0960849
50
143.93954
51
180.141705
0
ARC
8
DEFAULT_255_2_778
10
12.5848674
20
5.6579445
40
1.0958897
50
94.7264244
51
143.9674307
0
ARC
8
DEFAULT_255_2_778
10
12.5878856
20
5.629808
40
1.1241795
50
89.9926526
51
94.7615708
0
ARC
8
DEFAULT_255_2_778
10
12.5907701
20
5.6578371
40
1.0961537
50
53.9412675
51
90.1432368
0
ARC
8
DEFAULT_255_2_778
10
12.591413
20
5.6578519
40
1.0957635
50
4.7260849
51
53.9679866
0
ARC
8
DEFAULT_255_2_778
10
12.5632575
20
5.654831
40
1.1240723
50
359.9926798
51
4.761301
0
ARC
8
DEFAULT_255_2_778
10
12.5909662
20
5.6519421
40
1.096367
50
323.9474397
51
0.1434653
0
ARC
8
DEFAULT_255_2_778
10
12.591219
20
5.6511224
40
1.0956804
50
274.7258831
51
323.974316
0
ARC
8
DEFAULT_255_2_778
10
12.5881743
20
5.6794382
40
1.1241509
50
269.9926322
51
274.7616324
0
ARC
8
DEFAULT_255_2_778
10
12.5852995
20
5.6515494
40
1.0962654
50
233.9426077
51
270.1426955
0
ARC
8
DEFAULT_255_2_778
10
12.5846327
20
5.6515202
40
1.0958495
50
184.726347
51
233.9698946
0
ARC
8
DEFAULT_255_2_778
10
12.6128092
20
5.6545432
40
1.1241795
50
179.9926526
51
184.7615709
0
ARC
8
DEFAULT_255_2_778
10
12.7525355
20
11.2492595
40
1.3503728
50
194.1150912
51
206.0098036
0
ARC
8
DEFAULT_255_2_778
10
12.7311809
20
11.243329
40
1.3282167
50
186.0499677
51
194.0916375
0
ARC
8
DEFAULT_255_2_778
10
12.7291975
20
11.2430506
40
1.3262151
50
179.9994041
51
186.0470371
0
ARC
8
DEFAULT_255_2_778
10
12.7347508
20
11.2431025
40
1.3317683
50
126.2887727
51
180.0016397
0
ARC
8
DEFAULT_255_2_778
10
12.7460936
20
11.2253151
40
1.3528197
50
115.9258886
51
126.2301255
0
ARC
8
DEFAULT_255_2_778
10
12.7470515
20
11.2275149
40
1.3512612
50
104.1412262
51
116.0031971
0
ARC
8
DEFAULT_255_2_778
10
12.7409845
20
11.2493488
40
1.3286068
50
96.0956435
51
104.1175594
0
ARC
8
DEFAULT_255_2_778
10
12.7406619
20
11.2516723
40
1.3262622
50
89.9993592
51
96.0924454
0
ARC
8
DEFAULT_255_2_778
10
12.7406953
20
11.2463052
40
1.3316295
50
36.285747
51
90.0007983
0
ARC
8
DEFAULT_255_2_778
10
12.722216
20
11.234333
40
1.3536111
50
25.9326909
51
36.2313213
0
ARC
8
DEFAULT_255_2_778
10
12.7252837
20
11.2341589
40
1.3509291
50
14.1338914
51
25.9962292
0
ARC
8
DEFAULT_255_2_778
10
12.7468865
20
11.240162
40
1.3285145
50
6.089413
51
14.1103351
0
ARC
8
DEFAULT_255_2_778
10
12.7490593
20
11.2404648
40
1.326322
50
359.9993913
51
6.0863618
0
ARC
8
DEFAULT_255_2_778
10
12.7434407
20
11.2404396
40
1.3319406
50
306.2946741
51
0.0004776
0
ARC
8
DEFAULT_255_2_778
10
12.7320609
20
11.2582259
40
1.3530127
50
295.9362787
51
306.2372299
0
ARC
8
DEFAULT_255_2_778
10
12.7319049
20
11.2545933
40
1.3498152
50
284.1102202
51
296.0096752
0
ARC
8
DEFAULT_255_2_778
10
12.7377824
20
11.2334443
40
1.3278716
50
276.0431189
51
284.0867353
0
ARC
8
DEFAULT_255_2_778
10
12.7380404
20
11.2316587
40
1.3260688
50
269.9993422
51
276.0401536
0
ARC
8
DEFAULT_255_2_778
10
12.7380483
20
11.2378692
40
1.3322793
50
216.0459502
51
269.9990088
0
ARC
8
DEFAULT_255_2_778
10
12.7555767
20
11.248939
40
1.3529664
50
205.9411288
51
215.9881912
0
ARC
8
DEFAULT_255_2_778
10
2.7935964
20
8.2496763
40
1.4355707
50
180.0000081
51
180.1352591
0
ARC
8
DEFAULT_255_2_778
10
2.7682656
20
8.2497429
40
1.4102399
50
135.0026238
51
180.0027106
0
ARC
8
DEFAULT_255_2_778
10
2.7683424
20
8.2492456
40
1.4106458
50
90.000057
51
134.9905461
0
ARC
8
DEFAULT_255_2_778
10
2.7683408
20
8.2243207
40
1.4355707
50
89.8647409
51
89.9999919
0
ARC
8
DEFAULT_255_2_778
10
2.7717393
20
8.2464006
40
1.4134867
50
30.0020285
51
90.0003864
0
ARC
8
DEFAULT_255_2_778
10
2.7723816
20
8.2466154
40
1.4128232
50
359.9907514
51
30.0075093
0
ARC
8
DEFAULT_255_2_778
10
2.7723816
20
8.2461593
40
1.4128232
50
329.9924907
51
0.0092486
0
ARC
8
DEFAULT_255_2_778
10
2.7717387
20
8.2463751
40
1.4134879
50
269.9996398
51
329.9979488
0
ARC
8
DEFAULT_255_2_778
10
2.7680414
20
8.1928192
40
1.3599368
50
269.9969675
51
270.1553956
0
ARC
8
DEFAULT_255_2_778
10
2.7681727
20
8.243116
40
1.4102336
50
225.002461
51
269.9917406
0
ARC
8
DEFAULT_255_2_778
10
2.7682656
20
8.2430319
40
1.4102399
50
179.9972894
51
224.9973762
0
ARC
8
DEFAULT_255_2_778
10
2.7935964
20
8.2430984
40
1.4355707
50
179.8647409
51
179.9999919
0
LINE
8
DEFAULT_255_2_778
10
6.6195298
20
14.5287874
11
6.6195298
21
14.5287874
0
LINE
8
DEFAULT_255_2_778
10
11.4886298
20
5.6546874
11
11.4886298
21
5.6546874
0
LINE
8
DEFAULT_255_2_778
10
11.5389298
20
10.6570874
11
11.5389298
21
10.6570874
0
LINE
8
DEFAULT_255_2_778
10
1.3580298
20
8.2464874
11
1.3580298
21
8.2462874
0
ENDSEC
0
EOF