0
SECTION
2
HEADER
9
$MEASUREMENT
70
1
0
ENDSEC
0
SECTION
2
TABLES
0
TABLE
2
LTYPE
0
LTYPE
72
65
70
64
2
CONTINUOUS
3
______
73
0
40
0
0
ENDTAB
0
TABLE
2
LAYER
0
LAYER
2
DEFAULT_255_2_778
70
0
62
255
6
CONTINUOUS
0
ENDTAB
0
ENDSEC
0
SECTION
2
ENTITIES
0
ARC
8
DEFAULT_255_2_778
10
10.7280221
20
6.597301
40
0.3929547
50
0.0079807
51
89.992009
0
ARC
8
DEFAULT_255_2_778
10
13.2770133
20
2.9490644
40
3.2329139
50
128.0494824
51
131.8283999
0
ARC
8
DEFAULT_255_2_778
10
12.7755375
20
3.591514
40
2.4179182
50
122.8753382
51
128.0747659
0
ARC
8
DEFAULT_255_2_778
10
12.5506779
20
3.9334419
40
2.0086947
50
119.894736
51
122.7827454
0
ARC
8
DEFAULT_255_2_778
10
12.3839803
20
4.2383591
40
1.6612825
50
92.8508613
51
120.1518836
0
ARC
8
DEFAULT_255_2_778
10
12.4406102
20
3.653875
40
2.2480277
50
91.1427482
51
93.5515111
0
ARC
8
DEFAULT_255_2_778
10
12.433345
20
4.07819
40
1.8236527
50
90.0001683
51
91.1804036
0
ARC
8
DEFAULT_255_2_778
10
12.4336978
20
4.0907475
40
1.8110953
50
58.9630411
51
90.0113313
0
ARC
8
DEFAULT_255_2_778
10
12.4862886
20
4.1543723
40
1.7295074
50
10.3066496
51
59.3691065
0
ARC
8
DEFAULT_255_2_778
10
12.5120707
20
4.169233
40
1.7015119
50
4.5683567
51
9.9696412
0
ARC
8
DEFAULT_255_2_778
10
12.1299357
20
4.1325827
40
2.0853608
50
1.4973634
51
4.7358849
0
ARC
8
DEFAULT_255_2_778
10
12.1830599
20
4.1342454
40
2.0322114
50
0.0021355
51
1.4896387
0
ARC
8
DEFAULT_255_2_778
10
12.3429735
20
4.1274408
40
1.8723102
50
342.2052263
51
0.2105508
0
ARC
8
DEFAULT_255_2_778
10
12.505212
20
4.0757651
40
1.7020413
50
285.2542657
51
342.1924997
0
ARC
8
DEFAULT_255_2_778
10
12.4510587
20
4.2430235
40
1.8776728
50
269.8693447
51
285.5056805
0
ARC
8
DEFAULT_255_2_778
10
12.4366797
20
4.8652095
40
2.4998742
50
256.9525075
51
270.2314228
0
ARC
8
DEFAULT_255_2_778
10
12.3209921
20
4.3835563
40
2.0045421
50
238.4483998
51
257.0657975
0
ARC
8
DEFAULT_255_2_778
10
12.1464772
20
4.1006723
40
1.6721596
50
195.1510066
51
238.4721332
0
ARC
8
DEFAULT_255_2_778
10
12.459833
20
4.1900987
40
1.998001
50
180.6558493
51
195.2777017
0
ARC
8
DEFAULT_255_2_778
10
12.7127766
20
4.2031111
40
2.2510998
50
179.9988649
51
180.9133309
0
ARC
8
DEFAULT_255_2_778
10
12.3463798
20
4.1760809
40
1.2507845
50
188.8172844
51
268.1397392
0
ARC
8
DEFAULT_255_2_778
10
12.3317807
20
4.6129803
40
1.6872251
50
269.1169121
51
269.9992459
0
ARC
8
DEFAULT_255_2_778
10
12.3413903
20
4.3873724
40
1.461649
50
269.6224354
51
286.8786206
0
ARC
8
DEFAULT_255_2_778
10
12.4423435
20
4.0744618
40
1.1329213
50
286.5877073
51
320.4465036
0
ARC
8
DEFAULT_255_2_778
10
12.4178358
20
4.0751193
40
1.1523352
50
321.1972949
51
349.4748704
0
ARC
8
DEFAULT_255_2_778
10
12.1607699
20
4.1326217
40
1.4156122
50
349.087226
51
0.1551787
0
ARC
8
DEFAULT_255_2_778
10
12.202985
20
4.1464812
40
1.3734284
50
359.5817604
51
17.6451862
0
ARC
8
DEFAULT_255_2_778
10
12.4646009
20
4.2301325
40
1.0987646
50
17.6235843
51
74.553907
0
ARC
8
DEFAULT_255_2_778
10
12.3474579
20
3.8775885
40
1.469897
50
73.8125611
51
90.3656701
0
ARC
8
DEFAULT_255_2_778
10
12.3293658
20
3.9137593
40
1.4337229
50
89.6518768
51
107.3303678
0
ARC
8
DEFAULT_255_2_778
10
12.2384403
20
4.1893789
40
1.1435402
50
107.0950824
51
139.669322
0
ARC
8
DEFAULT_255_2_778
10
12.2408508
20
4.2044589
40
1.1356931
50
140.3280068
51
170.1786753
0
ARC
8
DEFAULT_255_2_778
10
12.4464501
20
4.1601623
40
1.3458626
50
169.8135336
51
180.1144134
0
ARC
8
DEFAULT_255_2_778
10
12.5872341
20
4.1580256
40
1.4866439
50
180.0212293
51
184.0983064
0
ARC
8
DEFAULT_255_2_778
10
12.6669814
20
4.1633677
40
1.5665691
50
184.0847374
51
186.4658157
0
ARC
8
DEFAULT_255_2_778
10
18.5224872
20
2.4672789
40
4.3079322
50
135.8628838
51
138.2748876
0
ARC
8
DEFAULT_255_2_778
10
17.3508603
20
3.6066054
40
2.6736833
50
132.1969108
51
135.9008454
0
ARC
8
DEFAULT_255_2_778
10
16.7080407
20
4.3179018
40
1.7149571
50
126.5616344
51
132.2482638
0
ARC
8
DEFAULT_255_2_778
10
16.4456705
20
4.6667517
40
1.2784679
50
122.237287
51
126.4301135
0
ARC
8
DEFAULT_255_2_778
10
16.3278236
20
4.850624
40
1.0600787
50
93.9539635
51
122.1509201
0
ARC
8
DEFAULT_255_2_778
10
16.4445496
20
3.7672819
40
2.1492965
50
89.7353575
51
95.0669053
0
ARC
8
DEFAULT_255_2_778
10
16.4516763
20
3.2728632
40
2.643694
50
80.7467841
51
89.9393035
0
ARC
8
DEFAULT_255_2_778
10
16.4213321
20
3.5644264
40
1.7198307
50
74.6437685
51
90.0041757
0
ARC
8
DEFAULT_255_2_778
10
16.4206491
20
4.041335
40
1.2429222
50
89.9742933
51
90.0770844
0
ARC
8
DEFAULT_255_2_778
10
16.4069291
20
3.9335073
40
1.3508021
50
89.488971
51
108.5413182
0
ARC
8
DEFAULT_255_2_778
10
16.3338823
20
4.1668693
40
1.106336
50
108.7977343
51
134.8761882
0
ARC
8
DEFAULT_255_2_778
10
16.46131
20
4.0396817
40
1.2863756
50
134.9010774
51
139.4450297
0
ARC
8
DEFAULT_255_2_778
10
16.1786076
20
4.2838038
40
0.9128623
50
139.5500397
51
143.3135128
0
ARC
8
DEFAULT_255_2_778
10
15.9831377
20
4.4268629
40
0.6706462
50
143.1375767
51
176.4193525
0
ARC
8
DEFAULT_255_2_778
10
16.8950746
20
4.32469
40
1.5878223
50
174.7946146
51
180.3187826
0
ARC
8
DEFAULT_255_2_778
10
19.4375114
20
4.4778282
40
2.4116858
50
168.5991841
51
174.151964
0
ARC
8
DEFAULT_255_2_778
10
18.1639591
20
4.7418272
40
1.1111001
50
155.6765876
51
168.9624814
0
ARC
8
DEFAULT_255_2_778
10
17.9723067
20
4.8143785
40
0.9066675
50
140.0179255
51
154.8659212
0
ARC
8
DEFAULT_255_2_778
10
18.1815207
20
4.6507553
40
1.1721474
50
115.9955824
51
140.4605225
0
ARC
8
DEFAULT_255_2_778
10
18.4426074
20
4.138236
40
1.7472776
50
103.8600832
51
116.3246102
0
ARC
8
DEFAULT_255_2_778
10
18.6583904
20
3.2856299
40
2.6267553
50
95.3339575
51
103.9747492
0
ARC
8
DEFAULT_255_2_778
10
18.7742882
20
2.1311101
40
3.7870583
50
89.8519032
51
95.4560657
0
ARC
8
DEFAULT_255_2_778
10
18.7975213
20
1.483178
40
4.4349981
50
85.1632997
51
90.1736888
0
ARC
8
DEFAULT_255_2_778
10
18.9356078
20
3.067927
40
2.8442523
50
77.9360753
51
85.243371
0
ARC
8
DEFAULT_255_2_778
10
19.15805
20
4.0886043
40
1.7996304
50
66.7754082
51
78.0699561
0
ARC
8
DEFAULT_255_2_778
10
19.352421
20
4.5555312
40
1.2939047
50
56.9078218
51
66.5316019
0
ARC
8
DEFAULT_255_2_778
10
19.6889315
20
5.0601668
40
0.6874235
50
10.4178025
51
57.4413768
0
ARC
8
DEFAULT_255_2_778
10
18.9816912
20
4.8918777
40
1.413937
50
1.8928929
51
11.9427644
0
ARC
8
DEFAULT_255_2_778
10
18.1562092
20
4.8458214
40
2.2405685
50
359.9522887
51
2.372744
0
ARC
8
DEFAULT_255_2_778
10
21.5541094
20
3.3415497
40
1.157409
50
179.3412953
51
188.1710735
0
ARC
8
DEFAULT_255_2_778
10
20.8141942
20
3.2280997
40
0.408943
50
187.1713879
51
208.7796867
0
ARC
8
DEFAULT_255_2_778
10
20.6540601
20
3.1535418
40
0.2329901
50
211.6697189
51
271.1431593
0
ARC
8
DEFAULT_255_2_778
10
20.6945841
20
3.4524784
40
0.5330889
50
266.141201
51
270.0826619
0
ARC
8
DEFAULT_255_2_778
10
20.6951634
20
3.5646868
40
0.6452968
50
270.0168521
51
271.6440318
0
ARC
8
DEFAULT_255_2_778
10
20.662365
20
4.3498412
40
1.4311057
50
272.0547634
51
278.2806966
0
ARC
8
DEFAULT_255_2_778
10
20.5389481
20
3.4454313
40
1.015716
50
270.0060485
51
288.9310478
0
ARC
8
DEFAULT_255_2_778
10
20.5390506
20
3.443147
40
1.0134316
50
268.3108049
51
270.0002683
0
ARC
8
DEFAULT_255_2_778
10
20.4946399
20
3.857173
40
1.4270914
50
261.1419671
51
270.5836516
0
ARC
8
DEFAULT_255_2_778
10
20.3674546
20
3.0956787
40
0.6551485
50
238.3556828
51
261.8773329
0
ARC
8
DEFAULT_255_2_778
10
20.3543661
20
3.0325814
40
0.5949711
50
206.6130334
51
236.2403434
0
ARC
8
DEFAULT_255_2_778
10
20.888301
20
3.3288667
40
1.2053357
50
199.1806872
51
207.8353394
0
ARC
8
DEFAULT_255_2_778
10
18.2395808
20
4.5518896
40
2.2141059
50
300.2498661
51
313.0098894
0
ARC
8
DEFAULT_255_2_778
10
18.4251683
20
4.2691508
40
1.8764574
50
277.9226542
51
299.7038661
0
ARC
8
DEFAULT_255_2_778
10
18.2809545
20
5.2064335
40
2.8247046
50
269.7430031
51
278.1994448
0
ARC
8
DEFAULT_255_2_778
10
18.2656538
20
4.9443444
40
2.5625883
50
269.9803927
51
270.0588174
0
ARC
8
DEFAULT_255_2_778
10
18.2539115
20
4.7160191
40
2.3342888
50
260.5626168
51
270.2666946
0
ARC
8
DEFAULT_255_2_778
10
18.1330465
20
4.0104749
40
1.6184794
50
247.4619459
51
260.6879828
0
ARC
8
DEFAULT_255_2_778
10
17.9243149
20
3.5200764
40
1.0855395
50
226.6615399
51
247.7164306
0
ARC
8
DEFAULT_255_2_778
10
17.7801806
20
3.3538334
40
0.8657582
50
181.8199257
51
226.0484957
0
ARC
8
DEFAULT_255_2_778
10
17.9985867
20
3.3810947
40
1.0851099
50
179.9862203
51
182.8924663
0
ARC
8
DEFAULT_255_2_778
10
17.7988737
20
3.3906518
40
0.8854456
50
180.0002415
51
180.6015468
0
ARC
8
DEFAULT_255_2_778
10
17.7924845
20
3.3911626
40
0.8790565
50
113.541562
51
180.0335357
0
ARC
8
DEFAULT_255_2_778
10
18.5020084
20
1.7454399
40
2.6712093
50
111.4888722
51
113.3945395
0
ARC
8
DEFAULT_255_2_778
10
18.2166582
20
2.4620591
40
1.8998759
50
110.5369479
51
111.3983141
0
ARC
8
DEFAULT_255_2_778
10
18.1053267
20
2.7641427
40
1.5779354
50
103.4376202
51
110.5993439
0
ARC
8
DEFAULT_255_2_778
10
18.273613
20
2.0585626
40
2.3033068
50
100.1376334
51
103.4304541
0
ARC
8
DEFAULT_255_2_778
10
18.5570152
20
0.4961327
40
3.8912282
50
98.3811029
51
100.1960762
0
ARC
8
DEFAULT_255_2_778
10
18.9337595
20
-2.0343197
40
6.4495708
50
97.378118
51
98.4156632
0
ARC
8
DEFAULT_255_2_778
10
19.3874519
20
-5.5092455
40
9.9539878
50
96.8266384
51
97.3993976
0
ARC
8
DEFAULT_255_2_778
10
20.0064714
20
-10.6824927
40
15.1641385
50
96.3502297
51
96.8255417
0
ARC
8
DEFAULT_255_2_778
10
20.9156875
20
-18.8254339
40
23.3576822
50
96.0700184
51
96.3575449
0
ARC
8
DEFAULT_255_2_778
10
22.1977318
20
-30.8725436
40
35.472817
50
95.8623519
51
96.0715527
0
ARC
8
DEFAULT_255_2_778
10
19.3295653
20
5.04019
40
0.5172414
50
286.3853213
51
306.5631196
0
ARC
8
DEFAULT_255_2_778
10
19.4530694
20
4.8581776
40
0.2976196
50
308.3398412
51
3.6753073
0
ARC
8
DEFAULT_255_2_778
10
19.3167888
20
4.8936511
40
0.4335982
50
357.8329907
51
37.5128195
0
ARC
8
DEFAULT_255_2_778
10
19.2769269
20
4.8351736
40
0.5013146
50
40.0408298
51
68.1110669
0
ARC
8
DEFAULT_255_2_778
10
19.0666766
20
4.3518951
40
1.0282442
50
67.2795199
51
79.9670226
0
ARC
8
DEFAULT_255_2_778
10
18.8926019
20
3.4241286
40
1.9721737
50
79.6828373
51
87.1229649
0
ARC
8
DEFAULT_255_2_778
10
18.8183828
20
2.2335371
40
3.1650224
50
86.862888
51
90.0888107
0
ARC
8
DEFAULT_255_2_778
10
18.7998148
20
1.9789577
40
3.4196253
50
89.7710905
51
94.5283827
0
ARC
8
DEFAULT_255_2_778
10
18.6660832
20
3.5924003
40
1.8006705
50
94.3397574
51
102.7292537
0
ARC
8
DEFAULT_255_2_778
10
18.4641011
20
4.460152
40
0.9097593
50
102.3631057
51
118.1695069
0
ARC
8
DEFAULT_255_2_778
10
18.2949596
20
4.7775309
40
0.5501243
50
118.2446317
51
158.7680126
0
ARC
8
DEFAULT_255_2_778
10
17.4038596
20
5.1243391
40
0.4060847
50
270.143529
51
338.6889993
0
ARC
8
DEFAULT_255_2_778
10
17.8760976
20
10.5853737
40
6.7034613
50
274.6160254
51
286.2175632
0
ARC
8
DEFAULT_255_2_778
10
18.8107462
20
-0.1897471
40
4.112433
50
95.5141385
51
98.9637456
0
ARC
8
DEFAULT_255_2_778
10
18.4490257
20
2.0646506
40
1.8292184
50
98.7743568
51
105.410078
0
ARC
8
DEFAULT_255_2_778
10
18.1581426
20
3.0954001
40
0.7582586
50
104.9167374
51
118.9379186
0
ARC
8
DEFAULT_255_2_778
10
17.9525374
20
3.4604635
40
0.3393069
50
118.3816751
51
182.3803416
0
ARC
8
DEFAULT_255_2_778
10
18.3149638
20
3.4213406
40
0.7018871
50
177.9562997
51
180.0232595
0
ARC
8
DEFAULT_255_2_778
10
18.0424258
20
3.4035893
40
0.4297041
50
177.6704265
51
243.962159
0
ARC
8
DEFAULT_255_2_778
10
18.241342
20
3.7627905
40
0.8400289
50
242.5262276
51
258.2796817
0
ARC
8
DEFAULT_255_2_778
10
18.398893
20
4.4805535
40
1.5748539
50
257.9717537
51
267.5674416
0
ARC
8
DEFAULT_255_2_778
10
18.4480868
20
5.2563646
40
2.3521098
50
267.1722964
51
270.0509127
0
ARC
8
DEFAULT_255_2_778
10
18.4625766
20
5.1152708
40
2.2110499
50
269.6786787
51
279.492954
0
ARC
8
DEFAULT_255_2_778
10
18.5853369
20
4.4043822
40
1.4896547
50
279.3454523
51
294.6590322
0
ARC
8
DEFAULT_255_2_778
10
18.7160989
20
4.1079206
40
1.1656823
50
294.897498
51
312.1910595
0
ARC
8
DEFAULT_255_2_778
10
18.5986749
20
4.216431
40
1.3250164
50
312.8018338
51
316.8503538
0
ARC
8
DEFAULT_255_2_778
10
18.9412654
20
3.8939048
40
0.8544957
50
316.9177847
51
321.3576637
0
ARC
8
DEFAULT_255_2_778
10
19.157747
20
3.7238846
40
0.5792453
50
321.1214984
51
355.0637899
0
ARC
8
DEFAULT_255_2_778
10
18.1780995
20
3.8513249
40
1.5668064
50
353.5031328
51
359.8316051
0
ARC
8
DEFAULT_255_2_778
10
16.8569208
20
3.8787705
40
2.8881562
50
359.3641637
51
0.0096253
0
ARC
8
DEFAULT_255_2_778
10
22.3418938
20
2.9139119
40
0.4337584
50
270.0087291
51
270.1826895
0
ARC
8
DEFAULT_255_2_778
10
22.3421155
20
2.8857886
40
0.405635
50
206.2067035
51
269.9780305
0
ARC
8
DEFAULT_255_2_778
10
20.9111834
20
5.2189895
40
0.6097836
50
90.0026367
51
90.4328392
0
ARC
8
DEFAULT_255_2_778
10
20.9111976
20
5.2253311
40
0.6034419
50
24.2999541
51
90.0040116
0
ARC
8
DEFAULT_255_2_778
10
24.0093861
20
5.2261158
40
0.6031688
50
90.0106461
51
154.9444613
0
ARC
8
DEFAULT_255_2_778
10
24.0092718
20
5.2238648
40
0.6054196
50
89.4411408
51
89.9997877
0
ARC
8
DEFAULT_255_2_778
10
22.5182727
20
2.882894
40
0.4048425
50
269.9947521
51
333.1835245
0
ARC
8
DEFAULT_255_2_778
10
22.5181937
20
2.8708278
40
0.3927763
50
269.7349728
51
270.0061116
0
ARC
8
DEFAULT_255_2_778
10
26.0203709
20
4.0774877
40
1.1694751
50
185.6497837
51
209.126358
0
ARC
8
DEFAULT_255_2_778
10
25.9539479
20
4.0593799
40
1.1027612
50
209.9843243
51
247.5908189
0
ARC
8
DEFAULT_255_2_778
10
26.1278019
20
4.4453884
40
1.525957
50
247.0812254
51
263.495752
0
ARC
8
DEFAULT_255_2_778
10
26.1861102
20
4.8584445
40
1.9429915
50
263.1671512
51
270.0933804
0
ARC
8
DEFAULT_255_2_778
10
26.2019161
20
4.6423464
40
1.726937
50
269.5806567
51
281.325096
0
ARC
8
DEFAULT_255_2_778
10
26.3286162
20
4.0375315
40
1.1090312
50
281.0429039
51
301.5422533
0
ARC
8
DEFAULT_255_2_778
10
26.4313932
20
3.8539901
40
0.8988813
50
302.0791745
51
321.6653426
0
ARC
8
DEFAULT_255_2_778
10
27.6149222
20
2.9183266
40
0.6098291
50
90.0324458
51
141.6796685
0
ARC
8
DEFAULT_255_2_778
10
26.0267892
20
4.4182789
40
2.1751562
50
322.3847509
51
335.8439862
0
ARC
8
DEFAULT_255_2_778
10
26.3872928
20
4.1468189
40
1.7239116
50
284.0515836
51
322.2184177
0
ARC
8
DEFAULT_255_2_778
10
26.1878745
20
4.8368843
40
2.4418838
50
273.8592055
51
284.6594588
0
ARC
8
DEFAULT_255_2_778
10
26.1286072
20
5.5282967
40
3.1357426
50
269.9428029
51
274.0893846
0
ARC
8
DEFAULT_255_2_778
10
26.1154927
20
4.9325673
40
2.5400313
50
258.3325797
51
270.2252151
0
ARC
8
DEFAULT_255_2_778
10
26.0054956
20
4.4147964
40
2.0107161
50
242.3107917
51
258.4184999
0
ARC
8
DEFAULT_255_2_778
10
25.8042501
20
4.0532788
40
1.5971178
50
193.2656648
51
242.6771029
0
ARC
8
DEFAULT_255_2_778
10
26.113215
20
4.132611
40
1.9160531
50
179.7743905
51
193.454599
0
ARC
8
DEFAULT_255_2_778
10
26.0610938
20
4.1495763
40
1.8639407
50
162.5212389
51
180.2895832
0
ARC
8
DEFAULT_255_2_778
10
25.8783955
20
4.1966484
40
1.6755696
50
112.9603525
51
162.180138
0
ARC
8
DEFAULT_255_2_778
10
26.0732614
20
3.7988812
40
2.1179786
50
98.192962
51
113.6166789
0
ARC
8
DEFAULT_255_2_778
10
26.1358914
20
3.4132508
40
2.5086083
50
89.9044051
51
98.3536531
0
ARC
8
DEFAULT_255_2_778
10
26.1500824
20
3.4294911
40
2.4923847
50
76.9837587
51
90.2300098
0
ARC
8
DEFAULT_255_2_778
10
26.2703804
20
3.9324146
40
1.9752927
50
59.5555694
51
77.0979013
0
ARC
8
DEFAULT_255_2_778
10
26.5050115
20
4.3129392
40
1.5283758
50
23.4950171
51
59.9104937
0
ARC
8
DEFAULT_255_2_778
10
25.7157007
20
4.0059041
40
2.3748846
50
19.4173795
51
22.6965804
0
ARC
8
DEFAULT_255_2_778
10
26.082475
20
4.1360394
40
1.9857088
50
6.4229963
51
19.3942868
0
ARC
8
DEFAULT_255_2_778
10
25.0517614
20
4.0153196
40
3.0234611
50
1.3171317
51
6.5112748
0
ARC
8
DEFAULT_255_2_778
10
23.5688698
20
3.9664683
40
4.5071079
50
359.9680587
51
1.5046675
0
ARC
8
DEFAULT_255_2_778
10
26.0837492
20
4.1530713
40
1.3326139
50
14.1593947
51
33.6837671
0
ARC
8
DEFAULT_255_2_778
10
26.2461117
20
4.2471018
40
1.145421
50
34.2742255
51
78.1828489
0
ARC
8
DEFAULT_255_2_778
10
26.1378923
20
3.8381364
40
1.5680377
50
77.3725813
51
90.2782678
0
ARC
8
DEFAULT_255_2_778
10
26.1183835
20
3.881763
40
1.5244391
50
89.552983
51
106.190102
0
ARC
8
DEFAULT_255_2_778
10
26.0115473
20
4.2384531
40
1.1521102
50
106.0336941
51
158.1065246
0
ARC
8
DEFAULT_255_2_778
10
26.3123763
20
4.0908699
40
1.4864806
50
157.1519025
51
164.862035
0
LINE
8
DEFAULT_255_2_778
10
10.4613769
20
4.2033557
11
10.4613769
21
6.9902557
0
LINE
8
DEFAULT_255_2_778
10
10.4613769
20
6.9902557
11
10.7280769
21
6.9902557
0
LINE
8
DEFAULT_255_2_778
10
11.1209769
20
6.5973557
11
11.1209769
21
5.3580557
0
LINE
8
DEFAULT_255_2_778
10
10.4616769
20
4.2031557
11
10.4613769
21
4.2033557
0
LINE
8
DEFAULT_255_2_778
10
11.1103769
20
3.9869557
11
11.1103769
21
3.9843557
0
LINE
8
DEFAULT_255_2_778
10
15.3072769
20
5.8311557
11
15.3072769
21
5.3344557
0
LINE
8
DEFAULT_255_2_778
10
16.8767769
20
5.8821557
11
16.8767769
21
5.2228557
0
LINE
8
DEFAULT_255_2_778
10
15.3072769
20
4.3158557
11
15.3072769
21
2.4796557
0
LINE
8
DEFAULT_255_2_778
10
15.3072769
20
2.4796557
11
14.6245769
21
2.4796557
0
LINE
8
DEFAULT_255_2_778
10
14.6245769
20
2.4796557
11
14.6245769
21
5.8313557
0
LINE
8
DEFAULT_255_2_778
10
14.6245769
20
5.8313557
11
15.3072769
21
5.8311557
0
LINE
8
DEFAULT_255_2_778
10
20.3967769
20
4.8439557
11
20.3967769
21
3.3548557
0
LINE
8
DEFAULT_255_2_778
10
20.8684769
20
2.9336557
11
20.8684769
21
2.4846557
0
LINE
8
DEFAULT_255_2_778
10
18.5745769
20
4.4147557
11
19.4754769
21
4.5439557
0
LINE
8
DEFAULT_255_2_778
10
17.4048769
20
4.7182557
11
17.0383769
21
4.7235557
0
LINE
8
DEFAULT_255_2_778
10
19.7450769
20
3.8792557
11
19.7482769
21
4.1486557
0
LINE
8
DEFAULT_255_2_778
10
22.5197769
20
2.4801557
11
22.3432769
21
2.4801557
0
LINE
8
DEFAULT_255_2_778
10
21.9781769
20
2.7066557
11
20.4964769
21
5.8287557
0
LINE
8
DEFAULT_255_2_778
10
20.4964769
20
5.8287557
11
20.9065769
21
5.8287557
0
LINE
8
DEFAULT_255_2_778
10
21.4611769
20
5.4736557
11
22.4461769
21
3.2247557
0
LINE
8
DEFAULT_255_2_778
10
22.4461769
20
3.2247557
11
23.4629769
21
5.4815557
0
LINE
8
DEFAULT_255_2_778
10
24.0151769
20
5.8292557
11
24.3877769
21
5.8292557
0
LINE
8
DEFAULT_255_2_778
10
24.3877769
20
5.8292557
11
22.8795769
21
2.7002557
0
LINE
8
DEFAULT_255_2_778
10
22.5163769
20
2.4780557
11
22.5197769
21
2.4801557
0
LINE
8
DEFAULT_255_2_778
10
27.6145769
20
3.5281557
11
28.0114769
21
3.5281557
0
LINE
8
DEFAULT_255_2_778
10
28.0759769
20
3.9639557
11
24.8565769
21
3.9623557
0
LINE
8
DEFAULT_255_2_778
10
24.8774769
20
4.4790557
11
27.3758769
21
4.4790557
0
ARC
8
DEFAULT_255_2_778
10
8.4284747
20
7.7833032
40
0.1608168
50
335.9850595
51
357.2635443
0
ARC
8
DEFAULT_255_2_778
10
8.427507
20
7.7833769
40
0.1617871
50
357.2538293
51
0.0002624
0
ARC
8
DEFAULT_255_2_778
10
8.4247706
20
7.7830953
40
0.1645237
50
0.0983064
51
44.4234968
0
ARC
8
DEFAULT_255_2_778
10
7.3062589
20
7.8291627
40
0.9271907
50
44.544682
51
90.0160258
0
ARC
8
DEFAULT_255_2_778
10
7.3059939
20
7.8290445
40
0.9273089
50
89.9996463
51
94.113641
0
ARC
8
DEFAULT_255_2_778
10
7.3062201
20
7.8274744
40
0.9288912
50
94.120614
51
109.2828192
0
ARC
8
DEFAULT_255_2_778
10
1.6219601
20
7.8147139
40
0.9308907
50
70.6192263
51
85.9592618
0
ARC
8
DEFAULT_255_2_778
10
1.6220909
20
7.8152786
40
0.9303182
50
85.9648457
51
90.0002991
0
ARC
8
DEFAULT_255_2_778
10
1.621913
20
7.8142837
40
0.9313132
50
89.9893558
51
135.5599175
0
ARC
8
DEFAULT_255_2_778
10
0.4602165
20
7.7826494
40
0.1295808
50
135.3876996
51
180.0263828
0
ARC
8
DEFAULT_255_2_778
10
0.4601949
20
7.7825893
40
0.129559
50
179.9997896
51
182.9885256
0
ARC
8
DEFAULT_255_2_778
10
0.4600799
20
7.7825784
40
0.1294438
50
182.986388
51
203.9390138
0
ARC
8
DEFAULT_255_2_778
10
3.0189792
20
2.7160385
40
1.7284204
50
194.7439864
51
234.5199794
0
ARC
8
DEFAULT_255_2_778
10
4.4645381
20
0.2217146
40
0.4754348
50
231.2838061
51
270.0341049
0
ARC
8
DEFAULT_255_2_778
10
4.4651041
20
0.2217146
40
0.4754349
50
269.9658951
51
308.7161939
0
ARC
8
DEFAULT_255_2_778
10
5.9234873
20
2.7072443
40
1.7110562
50
305.309723
51
345.49048
0
LINE
8
DEFAULT_255_2_778
10
8.6682711
20
6.4179548
11
8.3639711
21
7.2437548
0
LINE
8
DEFAULT_255_2_778
10
8.3639711
20
7.2437548
11
8.5753711
21
7.7178548
0
LINE
8
DEFAULT_255_2_778
10
8.5422711
20
7.8982548
11
7.9670711
21
8.4795548
0
LINE
8
DEFAULT_255_2_778
10
6.9994711
20
8.7042548
11
6.8417711
21
8.6483548
0
LINE
8
DEFAULT_255_2_778
10
6.8417711
20
8.6483548
11
5.9636711
21
9.6003548
0
LINE
8
DEFAULT_255_2_778
10
5.9636711
20
9.6003548
11
4.4639711
21
9.6085548
0
LINE
8
DEFAULT_255_2_778
10
4.4639711
20
9.6085548
11
2.9643711
21
9.5969548
0
LINE
8
DEFAULT_255_2_778
10
2.9643711
20
9.5969548
11
2.0869711
21
8.6375548
0
LINE
8
DEFAULT_255_2_778
10
2.0869711
20
8.6375548
11
1.9308711
21
8.6928548
0
LINE
8
DEFAULT_255_2_778
10
0.9569711
20
8.4663548
11
0.3679711
21
7.8736548
0
LINE
8
DEFAULT_255_2_778
10
0.3417711
20
7.7300548
11
0.5626711
21
7.2376548
0
LINE
8
DEFAULT_255_2_778
10
0.5626711
20
7.2376548
11
0.2597711
21
6.4123548
0
LINE
8
DEFAULT_255_2_778
10
0.2597711
20
6.4123548
11
1.3474711
21
2.2761548
0
LINE
8
DEFAULT_255_2_778
10
2.0157711
20
1.3085548
11
4.1671711
21
-0.1492452
0
LINE
8
DEFAULT_255_2_778
10
4.7624711
20
-0.1492452
11
6.9124711
21
1.3109548
0
LINE
8
DEFAULT_255_2_778
10
7.5799711
20
2.2785548
11
8.4673711
21
5.6715548
0
LINE
8
DEFAULT_255_2_778
10
8.4673711
20
5.6715548
11
8.6682711
21
6.4179548
0
ARC
8
DEFAULT_255_2_778
10
4.1873895
20
2.3279363
40
1.2789232
50
65.9159872
51
74.2804368
0
ARC
8
DEFAULT_255_2_778
10
4.7747429
20
2.3266764
40
1.2801788
50
105.7111097
51
114.0715598
0
ARC
8
DEFAULT_255_2_778
10
3.22483
20
2.903057
40
0.0932152
50
107.7661378
51
174.2310194
0
ARC
8
DEFAULT_255_2_778
10
3.2101706
20
2.9066309
40
0.0782984
50
175.7549331
51
180.0213905
0
ARC
8
DEFAULT_255_2_778
10
3.2162149
20
2.9066886
40
0.0843427
50
180.0590394
51
187.5564122
0
ARC
8
DEFAULT_255_2_778
10
3.2290237
20
2.9087562
40
0.0973129
50
187.7714783
51
243.1600628
0
ARC
8
DEFAULT_255_2_778
10
4.478859
20
2.038257
40
0.1944551
50
230.1234856
51
269.9742288
0
LINE
8
DEFAULT_255_2_778
10
4.4787715
20
1.8438019
11
4.4789745
21
1.8438017
0
ARC
8
DEFAULT_255_2_778
10
4.4791217
20
2.0379621
40
0.1941604
50
269.9565612
51
309.9081492
0
ARC
8
DEFAULT_255_2_778
10
5.7385322
20
2.9110552
40
0.0925423
50
295.7845247
51
359.9299364
0
ARC
8
DEFAULT_255_2_778
10
5.7385336
20
2.9109366
40
0.0925409
50
0.003358
51
4.5182972
0
ARC
8
DEFAULT_255_2_778
10
5.7386242
20
2.9112935
40
0.0924232
50
4.3021757
51
73.1031232
0
ARC
8
DEFAULT_255_2_778
10
6.5698649
20
6.2934171
40
1.1695287
50
359.2264012
51
0.0034247
0
ARC
8
DEFAULT_255_2_778
10
6.5756796
20
6.2935136
40
1.1637141
50
359.9986873
51
7.9580093
0
ARC
8
DEFAULT_255_2_778
10
6.3485976
20
5.9130296
40
1.4820912
50
21.433907
51
34.4686469
0
ARC
8
DEFAULT_255_2_778
10
5.6432305
20
7.0718492
40
1.3552321
50
36.9142095
51
44.0678735
0
ARC
8
DEFAULT_255_2_778
10
5.6007375
20
8.4305115
40
0.6042078
50
269.9879345
51
272.8032412
0
ARC
8
DEFAULT_255_2_778
10
5.6011442
20
8.4739274
40
0.6476238
50
262.9543191
51
269.9527557
0
ARC
8
DEFAULT_255_2_778
10
5.6000241
20
8.4743269
40
0.6478838
50
250.8683776
51
263.0569639
0
ARC
8
DEFAULT_255_2_778
10
4.4791346
20
6.7687273
40
1.3338995
50
83.9213061
51
90.0004355
0
ARC
8
DEFAULT_255_2_778
10
4.4791531
20
6.7625711
40
1.3400557
50
90.0012236
51
90.4045298
0
ARC
8
DEFAULT_255_2_778
10
4.4791603
20
6.7664775
40
1.3361494
50
90.4060197
51
96.0736342
0
ARC
8
DEFAULT_255_2_778
10
3.3592455
20
8.4629769
40
0.6385058
50
269.9787923
51
289.3196032
0
ARC
8
DEFAULT_255_2_778
10
3.3589963
20
8.4650395
40
0.6405685
50
268.4915069
51
270.0011518
0
ARC
8
DEFAULT_255_2_778
10
3.3590317
20
8.4662964
40
0.6418258
50
267.2186188
51
268.4912973
0
ARC
8
DEFAULT_255_2_778
10
3.2299293
20
7.1373601
40
1.2450056
50
135.5947273
51
143.3791703
0
ARC
8
DEFAULT_255_2_778
10
3.2278909
20
5.5012638
40
2.2277359
50
145.7536642
51
152.2878668
0
ARC
8
DEFAULT_255_2_778
10
2.2083519
20
6.2677634
40
0.9900408
50
164.2063296
51
179.2902775
0
ARC
8
DEFAULT_255_2_778
10
1.8755064
20
6.3871045
40
0.6608667
50
193.232794
51
200.8184902
0
ARC
8
DEFAULT_255_2_778
10
2.2224129
20
4.6891554
40
0.2876993
50
1.6173585
51
39.7254478
0
ARC
8
DEFAULT_255_2_778
10
2.2388497
20
4.6912384
40
0.2712151
50
0.0001057
51
1.275494
0
ARC
8
DEFAULT_255_2_778
10
2.2471387
20
4.6907895
40
0.2629265
50
338.9910667
51
0.09794
0
ARC
8
DEFAULT_255_2_778
10
2.791586
20
4.0554505
40
0.4863598
50
160.0587375
51
180.0046153
0
ARC
8
DEFAULT_255_2_778
10
2.784529
20
4.0553836
40
0.4793027
50
179.9966786
51
180.408825
0
ARC
8
DEFAULT_255_2_778
10
2.7932842
20
4.0554624
40
0.4880583
50
180.4107423
51
197.05417
0
ARC
8
DEFAULT_255_2_778
10
3.1461923
20
4.1139499
40
0.839021
50
200.1425792
51
230.8247068
0
ARC
8
DEFAULT_255_2_778
10
2.9358701
20
3.5708045
40
0.2854488
50
234.0494786
51
270.0478914
0
ARC
8
DEFAULT_255_2_778
10
2.9361159
20
3.5726823
40
0.2873267
50
269.9985789
51
272.223868
0
ARC
8
DEFAULT_255_2_778
10
2.9360126
20
3.5740707
40
0.2887182
50
272.2336568
51
292.1324875
0
ARC
8
DEFAULT_255_2_778
10
2.9638158
20
4.8032866
40
1.3861358
50
296.6423656
51
310.3831264
0
ARC
8
DEFAULT_255_2_778
10
4.1676095
20
4.2717193
40
0.1843176
50
313.45786
51
356.5186134
0
ARC
8
DEFAULT_255_2_778
10
4.1769095
20
4.2661348
40
0.1747675
50
358.1611567
51
0.0027244
0
ARC
8
DEFAULT_255_2_778
10
4.1771917
20
4.2662284
40
0.1744853
50
359.9719786
51
43.6770989
0
ARC
8
DEFAULT_255_2_778
10
3.4351967
20
5.1994116
40
0.190221
50
179.9542028
51
234.408269
0
ARC
8
DEFAULT_255_2_778
10
3.4351027
20
5.1995634
40
0.190127
50
176.0449268
51
179.9999291
0
ARC
8
DEFAULT_255_2_778
10
3.4350332
20
5.1995323
40
0.19006
50
153.4696346
51
176.0341225
0
ARC
8
DEFAULT_255_2_778
10
3.3079491
20
6.1660187
40
0.3747061
50
333.5001933
51
359.688371
0
ARC
8
DEFAULT_255_2_778
10
3.3353815
20
6.1639952
40
0.3472681
50
359.9976009
51
0.7802514
0
ARC
8
DEFAULT_255_2_778
10
3.3462649
20
6.1647302
40
0.3363761
50
0.680316
51
20.2810558
0
ARC
8
DEFAULT_255_2_778
10
3.2800281
20
6.0766099
40
0.4331846
50
28.2022793
51
67.330053
0
ARC
8
DEFAULT_255_2_778
10
2.3552398
20
7.1798143
40
0.272268
50
243.7851355
51
249.4769673
0
ARC
8
DEFAULT_255_2_778
10
2.3261748
20
7.1186049
40
0.2045175
50
243.4081879
51
243.5153329
0
ARC
8
DEFAULT_255_2_778
10
2.2766726
20
7.0282355
40
0.1016202
50
225.3851718
51
245.5589064
0
ARC
8
DEFAULT_255_2_778
10
2.2206407
20
6.9721072
40
0.0223171
50
184.3478731
51
226.5787554
0
ARC
8
DEFAULT_255_2_778
10
2.2243701
20
6.9647447
40
0.0265938
50
97.2810315
51
167.6883685
0
ARC
8
DEFAULT_255_2_778
10
2.2768711
20
6.8104854
40
0.1890818
50
92.2077794
51
107.18681
0
ARC
8
DEFAULT_255_2_778
10
3.0368863
20
5.9116299
40
1.1587072
50
91.4924317
51
93.4584799
0
ARC
8
DEFAULT_255_2_778
10
3.0368895
20
5.9117771
40
1.1585602
50
89.999434
51
91.492783
0
ARC
8
DEFAULT_255_2_778
10
3.03687
20
5.9101997
40
1.1601377
50
77.2713876
51
89.9984684
0
ARC
8
DEFAULT_255_2_778
10
3.8460717
20
6.6950229
40
0.1851847
50
0.0523987
51
73.3321309
0
ARC
8
DEFAULT_255_2_778
10
3.8452853
20
6.6952324
40
0.185971
50
350.6525386
51
359.9876321
0
ARC
8
DEFAULT_255_2_778
10
4.4499525
20
5.2178197
40
0.6751105
50
167.5620236
51
179.9842686
0
ARC
8
DEFAULT_255_2_778
10
4.4444619
20
5.2180054
40
0.6696199
50
180.0000293
51
180.7771733
0
ARC
8
DEFAULT_255_2_778
10
4.4436234
20
5.2179687
40
0.6687811
50
180.7750078
51
186.382211
0
ARC
8
DEFAULT_255_2_778
10
3.8298648
20
5.1650139
40
0.0551902
50
202.8000765
51
235.1745393
0
ARC
8
DEFAULT_255_2_778
10
3.8866202
20
5.230231
40
0.1414474
50
231.385948
51
234.8124877
0
ARC
8
DEFAULT_255_2_778
10
4.0109679
20
5.4310576
40
0.3774965
50
236.9532773
51
251.4887772
0
ARC
8
DEFAULT_255_2_778
10
4.1377465
20
5.7621823
40
0.7318956
50
250.3073651
51
255.9033358
0
ARC
8
DEFAULT_255_2_778
10
4.491539
20
5.8546754
40
0.8959986
50
259.5540262
51
269.9998727
0
ARC
8
DEFAULT_255_2_778
10
4.4915352
20
5.8546732
40
0.8959965
50
270.0001146
51
280.4459865
0
ARC
8
DEFAULT_255_2_778
10
4.8789401
20
5.5399046
40
0.502576
50
282.3330211
51
297.9363566
0
ARC
8
DEFAULT_255_2_778
10
4.9928401
20
5.3168824
40
0.2522113
50
298.8125222
51
304.457905
0
ARC
8
DEFAULT_255_2_778
10
5.0813546
20
5.1941893
40
0.101027
50
302.4362012
51
324.0490019
0
ARC
8
DEFAULT_255_2_778
10
5.135201
20
5.1531794
40
0.0333984
50
326.7698579
51
341.0377726
0
ARC
8
DEFAULT_255_2_778
10
4.4947253
20
5.2145734
40
0.6759338
50
353.8642627
51
358.8697592
0
ARC
8
DEFAULT_255_2_778
10
4.4946738
20
5.2145582
40
0.675985
50
358.8711329
51
359.9999103
0
ARC
8
DEFAULT_255_2_778
10
4.4970414
20
5.2146171
40
0.6736175
50
359.994904
51
12.6579283
0
ARC
8
DEFAULT_255_2_778
10
5.0985607
20
6.6933514
40
0.1863119
50
180.0121467
51
189.0868813
0
ARC
8
DEFAULT_255_2_778
10
5.0976105
20
6.69314
40
0.1853619
50
105.8813221
51
179.9468893
0
ARC
8
DEFAULT_255_2_778
10
5.8975547
20
6.0658633
40
1.0057035
50
90.102438
51
104.0391078
0
ARC
8
DEFAULT_255_2_778
10
5.8957947
20
6.1134075
40
0.9581577
50
87.5333303
51
90.0022784
0
ARC
8
DEFAULT_255_2_778
10
5.8962485
20
6.1242494
40
0.9473063
50
84.9832864
51
87.5325308
0
ARC
8
DEFAULT_255_2_778
10
6.6646628
20
6.8081147
40
0.1951705
50
71.5300076
51
86.5266682
0
ARC
8
DEFAULT_255_2_778
10
6.7224173
20
6.9675303
40
0.026023
50
12.1062375
51
80.9862295
0
ARC
8
DEFAULT_255_2_778
10
6.7168736
20
6.9784535
40
0.0314662
50
298.1392318
51
349.9972943
0
ARC
8
DEFAULT_255_2_778
10
6.6414813
20
7.0798168
40
0.1575162
50
293.522347
51
304.9488434
0
ARC
8
DEFAULT_255_2_778
10
6.5780169
20
7.2154268
40
0.3072135
50
290.7953003
51
294.2810373
0
ARC
8
DEFAULT_255_2_778
10
5.6661474
20
6.0801297
40
0.4315052
50
112.5906466
51
151.8769554
0
ARC
8
DEFAULT_255_2_778
10
5.6369296
20
6.164853
40
0.3708438
50
161.336471
51
178.7621274
0
ARC
8
DEFAULT_255_2_778
10
5.6366967
20
6.1648716
40
0.3706104
50
178.764217
51
179.9984507
0
ARC
8
DEFAULT_255_2_778
10
5.6359632
20
6.1648355
40
0.3698768
50
179.9928602
51
206.3046657
0
ARC
8
DEFAULT_255_2_778
10
5.5159358
20
5.201373
40
0.1882158
50
3.9776053
51
26.8994516
0
ARC
8
DEFAULT_255_2_778
10
5.5161005
20
5.2014448
40
0.1880466
50
0.0000035
51
3.9592722
0
ARC
8
DEFAULT_255_2_778
10
5.5143837
20
5.2015953
40
0.1897633
50
305.3544655
51
359.9545564
0
ARC
8
DEFAULT_255_2_778
10
4.7730381
20
4.2675707
40
0.1728538
50
136.1005067
51
180.1133467
0
ARC
8
DEFAULT_255_2_778
10
4.7764304
20
4.2672338
40
0.1762458
50
180.001648
51
181.9532123
0
ARC
8
DEFAULT_255_2_778
10
4.7729186
20
4.2672307
40
0.1727359
50
181.9918924
51
228.0675242
0
ARC
8
DEFAULT_255_2_778
10
6.0717774
20
4.9144204
40
1.523825
50
229.9167733
51
242.4547895
0
ARC
8
DEFAULT_255_2_778
10
6.0152034
20
3.5730097
40
0.2877634
50
248.0390063
51
267.9896586
0
ARC
8
DEFAULT_255_2_778
10
6.0152224
20
3.5736291
40
0.2883832
50
267.9901997
51
269.9983958
0
ARC
8
DEFAULT_255_2_778
10
6.0153077
20
3.5726404
40
0.2873945
50
269.9813869
51
305.9637996
0
ARC
8
DEFAULT_255_2_778
10
5.8061229
20
4.1142344
40
0.8386583
50
309.2006553
51
339.9367697
0
ARC
8
DEFAULT_255_2_778
10
6.1602131
20
4.0569308
40
0.4869751
50
342.9106152
51
359.4760979
0
ARC
8
DEFAULT_255_2_778
10
6.1585047
20
4.0568992
40
0.4886831
50
359.4816334
51
359.999995
0
ARC
8
DEFAULT_255_2_778
10
6.1604957
20
4.0568819
40
0.4866921
50
0.0020398
51
19.9481926
0
ARC
8
DEFAULT_255_2_778
10
6.7177536
20
4.6947732
40
0.2759448
50
183.0815939
51
200.5018981
0
ARC
8
DEFAULT_255_2_778
10
6.7180614
20
4.6947737
40
0.2762522
50
180.0008915
51
183.0782721
0
ARC
8
DEFAULT_255_2_778
10
6.7184136
20
4.6947636
40
0.2766044
50
139.4665033
51
179.9987831
0
ARC
8
DEFAULT_255_2_778
10
7.093348
20
6.4199893
40
0.655987
50
336.1864327
51
343.7683408
0
LINE
8
DEFAULT_255_2_778
10
4.533887
20
3.5590267
11
4.428087
21
3.5590267
0
LINE
8
DEFAULT_255_2_778
10
4.252587
20
3.4955267
11
3.986487
21
3.3849267
0
LINE
8
DEFAULT_255_2_778
10
3.986487
20
3.3849267
11
3.685887
21
3.2468267
0
LINE
8
DEFAULT_255_2_778
10
3.685887
20
3.2468267
11
3.196387
21
2.9918267
0
LINE
8
DEFAULT_255_2_778
10
3.185087
20
2.8219267
11
3.609987
21
2.5219267
0
LINE
8
DEFAULT_255_2_778
10
3.609987
20
2.5219267
11
3.871087
21
2.3144267
0
LINE
8
DEFAULT_255_2_778
10
3.871087
20
2.3144267
11
3.990687
21
2.2086267
0
LINE
8
DEFAULT_255_2_778
10
3.990687
20
2.2086267
11
4.240987
21
1.9895267
0
LINE
8
DEFAULT_255_2_778
10
4.240987
20
1.9895267
11
4.354187
21
1.8890267
0
LINE
8
DEFAULT_255_2_778
10
4.603687
20
1.8890267
11
5.093187
21
2.3160267
0
LINE
8
DEFAULT_255_2_778
10
5.093187
20
2.3160267
11
5.353787
21
2.5235267
0
LINE
8
DEFAULT_255_2_778
10
5.353787
20
2.5235267
11
5.778787
21
2.8277267
0
LINE
8
DEFAULT_255_2_778
10
5.765487
20
2.9997267
11
5.276787
21
3.2479267
0
LINE
8
DEFAULT_255_2_778
10
5.276787
20
3.2479267
11
4.975187
21
3.3860267
0
LINE
8
DEFAULT_255_2_778
10
4.975187
20
3.3860267
11
4.709287
21
3.4955267
0
LINE
8
DEFAULT_255_2_778
10
7.725587
20
6.2335267
11
7.739287
21
6.2776267
0
LINE
8
DEFAULT_255_2_778
10
7.570487
20
6.7518267
11
7.293987
21
7.1574267
0
LINE
8
DEFAULT_255_2_778
10
7.293987
20
7.1574267
11
7.097187
21
7.4220267
0
LINE
8
DEFAULT_255_2_778
10
7.097187
20
7.4220267
11
6.726787
21
7.8858267
0
LINE
8
DEFAULT_255_2_778
10
6.616987
20
8.0144267
11
6.608987
21
8.0144267
0
LINE
8
DEFAULT_255_2_778
10
6.608987
20
8.0144267
11
6.444487
21
7.9839267
0
LINE
8
DEFAULT_255_2_778
10
6.444487
20
7.9839267
11
5.630287
21
7.8270267
0
LINE
8
DEFAULT_255_2_778
10
5.387687
20
7.8622267
11
4.937887
21
8.0067267
0
LINE
8
DEFAULT_255_2_778
10
4.937887
20
8.0067267
11
4.620387
21
8.0951267
0
LINE
8
DEFAULT_255_2_778
10
4.337787
20
8.0951267
11
4.020287
21
8.0059267
0
LINE
8
DEFAULT_255_2_778
10
4.020287
20
8.0059267
11
3.570487
21
7.8604267
0
LINE
8
DEFAULT_255_2_778
10
3.327887
20
7.8252267
11
3.079687
21
7.8723267
0
LINE
8
DEFAULT_255_2_778
10
3.079687
20
7.8723267
11
2.348387
21
8.0085267
0
LINE
8
DEFAULT_255_2_778
10
2.348387
20
8.0085267
11
2.340487
21
8.0085267
0
LINE
8
DEFAULT_255_2_778
10
2.230687
20
7.8800267
11
1.861087
21
7.4164267
0
LINE
8
DEFAULT_255_2_778
10
1.861087
20
7.4164267
11
1.664187
21
7.1518267
0
LINE
8
DEFAULT_255_2_778
10
1.664187
20
7.1518267
11
1.386387
21
6.7549267
0
LINE
8
DEFAULT_255_2_778
10
1.218387
20
6.2800267
11
1.232187
21
6.2358267
0
LINE
8
DEFAULT_255_2_778
10
1.257787
20
6.1522267
11
1.476087
21
5.9014267
0
LINE
8
DEFAULT_255_2_778
10
1.476087
20
5.9014267
11
2.443687
21
4.8730267
0
LINE
8
DEFAULT_255_2_778
10
2.492587
20
4.5965267
11
2.334387
21
4.2213267
0
LINE
8
DEFAULT_255_2_778
10
2.326687
20
3.9123267
11
2.358487
21
3.8250267
0
LINE
8
DEFAULT_255_2_778
10
2.616187
20
3.4635267
11
2.768287
21
3.3397267
0
LINE
8
DEFAULT_255_2_778
10
3.044787
20
3.3066267
11
3.585387
21
3.5643267
0
LINE
8
DEFAULT_255_2_778
10
3.861887
20
3.7474267
11
4.294387
21
4.1379267
0
LINE
8
DEFAULT_255_2_778
10
4.303387
20
4.3867267
11
3.324487
21
5.0447267
0
LINE
8
DEFAULT_255_2_778
10
3.264987
20
5.2844267
11
3.643287
21
5.9988267
0
LINE
8
DEFAULT_255_2_778
10
3.446987
20
6.4763267
11
2.259787
21
6.9248267
0
LINE
8
DEFAULT_255_2_778
10
2.269587
20
6.9994267
11
2.966987
21
7.0682267
0
LINE
8
DEFAULT_255_2_778
10
3.292487
20
7.0418267
11
3.899187
21
6.8724267
0
LINE
8
DEFAULT_255_2_778
10
4.028787
20
6.6650267
11
3.790687
21
5.3632267
0
LINE
8
DEFAULT_255_2_778
10
3.959487
20
5.0523267
11
4.329087
21
4.9735267
0
LINE
8
DEFAULT_255_2_778
10
4.653987
20
4.9735267
11
4.986287
21
5.0489267
0
LINE
8
DEFAULT_255_2_778
10
5.154287
20
5.3622267
11
4.914587
21
6.6639267
0
LINE
8
DEFAULT_255_2_778
10
5.046887
20
6.8714267
11
5.653587
21
7.0415267
0
LINE
8
DEFAULT_255_2_778
10
5.979087
20
7.0679267
11
6.676487
21
7.0029267
0
LINE
8
DEFAULT_255_2_778
10
6.687087
20
6.9282267
11
5.500387
21
6.4785267
0
LINE
8
DEFAULT_255_2_778
10
5.304387
20
6.0009267
11
5.683787
21
5.2865267
0
LINE
8
DEFAULT_255_2_778
10
5.624187
20
5.0468267
11
4.648487
21
4.3874267
0
LINE
8
DEFAULT_255_2_778
10
4.657487
20
4.1387267
11
5.090587
21
3.7485267
0
LINE
8
DEFAULT_255_2_778
10
5.367087
20
3.5633267
11
5.907587
21
3.3061267
0
LINE
8
DEFAULT_255_2_778
10
6.184087
20
3.3400267
11
6.336187
21
3.4643267
0
LINE
8
DEFAULT_255_2_778
10
6.593887
20
3.8265267
11
6.625687
21
3.9138267
0
LINE
8
DEFAULT_255_2_778
10
6.617987
20
4.2229267
11
6.459287
21
4.5981267
0
LINE
8
DEFAULT_255_2_778
10
6.508187
20
4.8745267
11
7.475787
21
5.9043267
0
LINE
8
DEFAULT_255_2_778
10
7.475787
20
5.9043267
11
7.693487
21
6.1551267
0
LINE
8
DEFAULT_255_2_778
10
7.723187
20
6.2366267
11
7.725587
21
6.2335267
0
ENDSEC
0
EOF