0
SECTION
2
HEADER
9
$MEASUREMENT
70
1
0
ENDSEC
0
SECTION
2
TABLES
0
TABLE
2
LTYPE
0
LTYPE
72
65
70
64
2
CONTINUOUS
3
______
73
0
40
0
0
ENDTAB
0
TABLE
2
LAYER
0
LAYER
2
DEFAULT_255_2_778
70
0
62
255
6
CONTINUOUS
0
ENDTAB
0
ENDSEC
0
SECTION
2
ENTITIES
0
LINE
8
DEFAULT_255_2_778
10
13.244559
20
16.8009664
11
12.096259
21
16.8009664
0
LINE
8
DEFAULT_255_2_778
10
12.096259
20
16.8009664
11
0.249259
21
-0.1323336
0
LINE
8
DEFAULT_255_2_778
10
0.249259
20
-0.1323336
11
1.397559
21
-0.1323336
0
LINE
8
DEFAULT_255_2_778
10
1.397559
20
-0.1323336
11
8.355559
21
9.8127664
0
LINE
8
DEFAULT_255_2_778
10
8.355559
20
9.8127664
11
13.244559
21
16.8009664
0
LINE
8
DEFAULT_255_2_778
10
7.7083848
20
7.3553143
11
7.1350848
21
6.5343143
0
LINE
8
DEFAULT_255_2_778
10
7.1350848
20
6.5343143
11
9.4567848
21
3.2104143
0
LINE
8
DEFAULT_255_2_778
10
9.4567848
20
3.2104143
11
10.6031848
21
3.2104143
0
LINE
8
DEFAULT_255_2_778
10
10.6031848
20
3.2104143
11
7.7083848
21
7.3553143
0
LINE
8
DEFAULT_255_2_778
10
3.6602848
20
13.1550143
11
2.5135848
21
13.1550143
0
LINE
8
DEFAULT_255_2_778
10
2.5135848
20
13.1550143
11
5.4128848
21
9.0010143
0
LINE
8
DEFAULT_255_2_778
10
5.4128848
20
9.0010143
11
5.9861848
21
9.8220143
0
LINE
8
DEFAULT_255_2_778
10
5.9861848
20
9.8220143
11
3.6777848
21
13.1285143
0
LINE
8
DEFAULT_255_2_778
10
3.6777848
20
13.1285143
11
3.6602848
21
13.1550143
0
ENDSEC
0
EOF