0
SECTION
2
HEADER
9
$MEASUREMENT
70
1
0
ENDSEC
0
SECTION
2
TABLES
0
TABLE
2
LTYPE
0
LTYPE
72
65
70
64
2
CONTINUOUS
3
______
73
0
40
0
0
ENDTAB
0
TABLE
2
LAYER
0
LAYER
2
DEFAULT_255_2_778
70
0
62
255
6
CONTINUOUS
0
ENDTAB
0
ENDSEC
0
SECTION
2
ENTITIES
0
ARC
8
DEFAULT_255_2_778
10
2.2115558
20
6.0653545
40
0.1275454
50
235.4100329
51
261.5277641
0
ARC
8
DEFAULT_255_2_778
10
2.3848588
20
6.8936164
40
0.9735547
50
258.620174
51
259.269556
0
ARC
8
DEFAULT_255_2_778
10
2.1387539
20
5.5792733
40
0.3636394
50
76.0938137
51
79.7287514
0
ARC
8
DEFAULT_255_2_778
10
1.9572898
20
4.8388386
40
1.1259855
50
57.9353467
51
76.1856776
0
ARC
8
DEFAULT_255_2_778
10
2.2164328
20
5.2467805
40
0.6427098
50
11.5853808
51
58.2067206
0
ARC
8
DEFAULT_255_2_778
10
1.783489
20
5.1330304
40
1.0899523
50
0.1654382
51
12.8726178
0
ARC
8
DEFAULT_255_2_778
10
1.8859773
20
5.1353592
40
0.9874597
50
341.4706882
51
0.0474846
0
ARC
8
DEFAULT_255_2_778
10
1.965506
20
5.1104456
40
0.904138
50
297.8261152
51
341.3660481
0
ARC
8
DEFAULT_255_2_778
10
1.6890688
20
5.6120084
40
1.4767786
50
277.9589318
51
298.2275952
0
ARC
8
DEFAULT_255_2_778
10
1.4777015
20
6.8219571
40
2.7046623
50
269.3849906
51
278.8444154
0
ARC
8
DEFAULT_255_2_778
10
1.4486708
20
8.5018229
40
4.3843722
50
269.9226051
51
269.9999952
0
ARC
8
DEFAULT_255_2_778
10
0.1210964
20
4.1061383
40
0.0369577
50
37.92697
51
41.0952941
0
ARC
8
DEFAULT_255_2_778
10
0.1546838
20
4.1368091
40
0.0085774
50
190.4412609
51
228.0361686
0
ARC
8
DEFAULT_255_2_778
10
0.266887
20
7.5444291
40
0.1227553
50
170.6838969
51
179.0545421
0
ARC
8
DEFAULT_255_2_778
10
-0.2099348
20
7.6204263
40
0.3600863
50
351.0329413
51
352.4725563
0
ARC
8
DEFAULT_255_2_778
10
0.1822347
20
7.5385008
40
0.0494561
50
119.2832218
51
135.3543088
0
ARC
8
DEFAULT_255_2_778
10
0.1809682
20
7.5377854
40
0.049482
50
87.6853653
51
117.598744
0
ARC
8
DEFAULT_255_2_778
10
0.1814509
20
7.3849501
40
0.2022826
50
86.9216989
51
89.5706658
0
ARC
8
DEFAULT_255_2_778
10
0.2031456
20
7.7873235
40
0.2006753
50
266.9058155
51
269.5439729
0
ARC
8
DEFAULT_255_2_778
10
1.5285388
20
5.5805318
40
2.0040819
50
71.2675546
51
90.4400099
0
ARC
8
DEFAULT_255_2_778
10
1.8784486
20
6.6111483
40
0.9156854
50
54.2028881
51
71.2921303
0
ARC
8
DEFAULT_255_2_778
10
2.0217083
20
6.7970043
40
0.681185
50
11.5295141
51
54.8326195
0
ARC
8
DEFAULT_255_2_778
10
1.6772419
20
6.7175049
40
1.0346301
50
0.3740698
51
12.0304636
0
ARC
8
DEFAULT_255_2_778
10
1.9436805
20
6.7202662
40
0.7681799
50
343.4271209
51
0.2978621
0
ARC
8
DEFAULT_255_2_778
10
1.9663414
20
6.6966273
40
0.7398949
50
289.3806488
51
344.6811847
0
ARC
8
DEFAULT_255_2_778
10
1.8791543
20
6.8849349
40
0.9466705
50
289.839945
51
290.5765685
0
ARC
8
DEFAULT_255_2_778
10
2.1409532
20
6.1693063
40
0.1846965
50
284.4319001
51
288.7914336
0
ARC
8
DEFAULT_255_2_778
10
2.3445174
20
5.4027768
40
0.6084095
50
105.006287
51
105.5670738
0
ARC
8
DEFAULT_255_2_778
10
2.1926897
20
5.9275498
40
0.0623777
50
100.5761003
51
149.1307543
0
ARC
8
DEFAULT_255_2_778
10
1.5261224
20
5.412489
40
0.5838646
50
273.0558975
51
295.9865147
0
ARC
8
DEFAULT_255_2_778
10
1.6429916
20
5.1820945
40
0.3255823
50
295.2643114
51
357.0704532
0
ARC
8
DEFAULT_255_2_778
10
1.3124296
20
5.218179
40
0.657835
50
355.4029102
51
359.9699999
0
ARC
8
DEFAULT_255_2_778
10
1.3162218
20
5.2177742
40
0.6540428
50
0.005281
51
0.1953862
0
ARC
8
DEFAULT_255_2_778
10
1.363057
20
5.2182609
40
0.6072064
50
0.164534
51
5.3194907
0
ARC
8
DEFAULT_255_2_778
10
1.6826764
20
5.2589478
40
0.285399
50
3.1347329
51
68.9797592
0
ARC
8
DEFAULT_255_2_778
10
1.555382
20
5.0005072
40
0.5728975
50
66.3664412
51
83.5289322
0
ARC
8
DEFAULT_255_2_778
10
1.3337756
20
2.7611094
40
2.8231866
50
84.1822108
51
90.4452122
0
ARC
8
DEFAULT_255_2_778
10
1.3462766
20
-4.2940497
40
9.8783204
50
90.199747
51
91.3963035
0
ARC
8
DEFAULT_255_2_778
10
-0.6581917
20
89.8366372
40
84.2737584
50
271.1834371
51
271.1992248
0
ARC
8
DEFAULT_255_2_778
10
1.0857822
20
5.5626762
40
0.0184999
50
100.6968114
51
135.6036189
0
ARC
8
DEFAULT_255_2_778
10
1.0267585
20
5.632735
40
0.0732144
50
305.6675534
51
308.7285502
0
ARC
8
DEFAULT_255_2_778
10
11.2847416
20
5.2056016
40
10.2219071
50
177.9387888
51
179.6211477
0
ARC
8
DEFAULT_255_2_778
10
11.3206575
20
5.2053101
40
10.2578242
50
179.6208461
51
179.9998275
0
ARC
8
DEFAULT_255_2_778
10
11.3396604
20
5.2055008
40
10.276827
50
180.0008912
51
182.1321642
0
ARC
8
DEFAULT_255_2_778
10
1.463237
20
6.5894112
40
0.3600469
50
275.0369395
51
317.7994451
0
ARC
8
DEFAULT_255_2_778
10
1.461215
20
6.5748862
40
0.3519965
50
319.7723837
51
1.323844
0
ARC
8
DEFAULT_255_2_778
10
1.3601482
20
6.5827825
40
0.4529695
50
0.0298488
51
4.7706307
0
ARC
8
DEFAULT_255_2_778
10
1.5707078
20
6.6152191
40
0.2408975
50
1.2453329
51
73.7176702
0
ARC
8
DEFAULT_255_2_778
10
1.4293432
20
6.2493095
40
0.6326323
50
70.7181225
51
89.0485269
0
ARC
8
DEFAULT_255_2_778
10
1.1138451
20
7.0874138
40
0.2042633
50
267.5750557
51
269.636275
0
ARC
8
DEFAULT_255_2_778
10
1.0884333
20
6.4347313
40
0.4489155
50
87.8592198
51
88.2806119
0
ARC
8
DEFAULT_255_2_778
10
1.0975047
20
6.7409385
40
0.142574
50
88.2322643
51
89.8926065
0
ARC
8
DEFAULT_255_2_778
10
1.0942656
20
6.8523854
40
0.0313237
50
83.5728076
51
141.8036635
0
ARC
8
DEFAULT_255_2_778
10
1.6565237
20
6.8190315
40
0.5892388
50
174.8664972
51
178.1525654
0
ARC
8
DEFAULT_255_2_778
10
3.7631254
20
6.7338646
40
2.6975461
50
177.7870335
51
178.7941305
0
ARC
8
DEFAULT_255_2_778
10
8.1460656
20
6.6402623
40
7.0814856
50
178.7832622
51
179.5405146
0
ARC
8
DEFAULT_255_2_778
10
13.6574454
20
6.589577
40
12.5930964
50
179.5110072
51
180.0108805
0
ARC
8
DEFAULT_255_2_778
10
15.3108401
20
6.5871806
40
14.2464908
50
179.99998
51
180.1620769
0
ARC
8
DEFAULT_255_2_778
10
12.7278052
20
6.5727869
40
11.6634277
50
180.1272633
51
181.0010058
0
ARC
8
DEFAULT_255_2_778
10
5.6949861
20
6.4481201
40
4.6295043
50
180.9789184
51
182.0674844
0
ARC
8
DEFAULT_255_2_778
10
2.2326707
20
6.3201627
40
1.1648303
50
181.9216096
51
184.2587455
0
ARC
8
DEFAULT_255_2_778
10
1.3444348
20
6.2553812
40
0.2742396
50
184.5425457
51
186.6644128
0
ARC
8
DEFAULT_255_2_778
10
4.1025965
20
5.304397
40
0.0569354
50
319.6478706
51
322.1410706
0
LINE
8
DEFAULT_255_2_778
10
4.1459857
20
5.2675323
11
4.1457817
21
5.2672879
0
ARC
8
DEFAULT_255_2_778
10
4.1556771
20
5.2577734
40
0.0137276
50
136.1239199
51
156.9205513
0
ARC
8
DEFAULT_255_2_778
10
4.2987417
20
5.2366793
40
0.1579283
50
170.3492827
51
174.6134927
0
ARC
8
DEFAULT_255_2_778
10
4.2671293
20
5.2395997
40
0.1261812
50
174.5862261
51
179.8842552
0
ARC
8
DEFAULT_255_2_778
10
4.1275109
20
4.1392175
40
0.0110377
50
345.5911772
51
359.6735087
0
ARC
8
DEFAULT_255_2_778
10
4.0688544
20
4.155476
40
0.0719039
50
341.7962329
51
344.6739677
0
ARC
8
DEFAULT_255_2_778
10
4.1718746
20
4.1224442
40
0.0362884
50
163.0667932
51
165.4599742
0
ARC
8
DEFAULT_255_2_778
10
4.1084876
20
4.1460309
40
0.0298514
50
312.450373
51
318.5098963
0
ARC
8
DEFAULT_255_2_778
10
4.1167363
20
4.1369647
40
0.0175945
50
306.4795048
51
312.5573185
0
ARC
8
DEFAULT_255_2_778
10
4.1242064
20
4.1262987
40
0.0045894
50
278.0411831
51
310.6627109
0
ARC
8
DEFAULT_255_2_778
10
3.2584997
20
4.1795129
40
0.0601588
50
263.5504533
51
269.7606033
0
ARC
8
DEFAULT_255_2_778
10
3.2691919
20
4.2633222
40
0.1446438
50
258.1455992
51
263.0710067
0
ARC
8
DEFAULT_255_2_778
10
3.1950887
20
3.9079566
40
0.2183661
50
78.271112
51
80.8672443
0
ARC
8
DEFAULT_255_2_778
10
3.3780182
20
4.1422605
40
0.1494451
50
181.3276729
51
187.190498
0
ARC
8
DEFAULT_255_2_778
10
4.9011473
20
4.2099869
40
1.6740484
50
181.389063
51
182.4372435
0
ARC
8
DEFAULT_255_2_778
10
8.8791522
20
4.313951
40
5.6534095
50
181.0379072
51
181.4650877
0
ARC
8
DEFAULT_255_2_778
10
17.8774635
20
4.4775492
40
14.6532077
50
180.7285559
51
181.0401625
0
ARC
8
DEFAULT_255_2_778
10
37.3056002
20
4.7293222
40
34.0829755
50
180.5406001
51
180.7364854
0
ARC
8
DEFAULT_255_2_778
10
67.9917746
20
5.0253011
40
64.7705769
50
180.429181
51
180.5462953
0
ARC
8
DEFAULT_255_2_778
10
105.1173936
20
5.3076883
40
101.8972698
50
180.3575512
51
180.4315921
0
ARC
8
DEFAULT_255_2_778
10
156.7961632
20
5.6270436
40
153.5770261
50
180.2720946
51
180.356377
0
ARC
8
DEFAULT_255_2_778
10
222.2830085
20
5.9435249
40
219.0646359
50
180.2155169
51
180.2735293
0
ARC
8
DEFAULT_255_2_778
10
293.6965005
20
6.2104542
40
290.4786269
50
180.1446404
51
180.2151831
0
ARC
8
DEFAULT_255_2_778
10
349.2937291
20
6.3559045
40
346.0760455
50
180.0836522
51
180.1454843
0
ARC
8
DEFAULT_255_2_778
10
354.8270981
20
6.3668648
40
351.6094247
50
180.0433347
51
180.0841218
0
ARC
8
DEFAULT_255_2_778
10
332.0524379
20
6.3500108
40
328.8347582
50
180.0058845
51
180.0433994
0
ARC
8
DEFAULT_255_2_778
10
290.4097866
20
6.3465538
40
287.1921069
50
180.0000071
51
180.006048
0
ARC
8
DEFAULT_255_2_778
10
283.7260446
20
6.3502621
40
280.5083648
50
179.9531876
51
180.0007647
0
ARC
8
DEFAULT_255_2_778
10
230.1811053
20
6.3946262
40
226.963407
50
179.9046854
51
179.9533432
0
ARC
8
DEFAULT_255_2_778
10
179.8187513
20
6.4783096
40
176.6009833
50
179.8534953
51
179.9046539
0
ARC
8
DEFAULT_255_2_778
10
136.4009931
20
6.5896038
40
133.1830825
50
179.7985891
51
179.8536137
0
ARC
8
DEFAULT_255_2_778
10
95.2066121
20
6.737797
40
91.9884351
50
179.7064968
51
179.800696
0
ARC
8
DEFAULT_255_2_778
10
57.8021179
20
6.9310677
40
54.5834418
50
179.5787451
51
179.7082402
0
ARC
8
DEFAULT_255_2_778
10
32.3976635
20
7.1191673
40
29.1782913
50
179.4015916
51
179.5813281
0
ARC
8
DEFAULT_255_2_778
10
18.117114
20
7.2682405
40
14.8969636
50
179.1860633
51
179.4012798
0
ARC
8
DEFAULT_255_2_778
10
9.7907432
20
7.3886662
40
6.5697225
50
178.7785053
51
179.2046759
0
ARC
8
DEFAULT_255_2_778
10
5.0251003
20
7.4928732
40
1.8029431
50
177.7839993
51
178.8608685
0
ARC
8
DEFAULT_255_2_778
10
3.5313441
20
7.5510776
40
0.3080537
50
175.7224691
51
177.8587695
0
ARC
8
DEFAULT_255_2_778
10
3.2510418
20
7.5547109
40
0.0331276
50
84.2635102
51
144.2735248
0
ARC
8
DEFAULT_255_2_778
10
3.2540476
20
7.464907
40
0.122766
50
87.4666503
51
89.8574605
0
ARC
8
DEFAULT_255_2_778
10
3.2431194
20
7.2144041
40
0.3735072
50
86.7583941
51
87.4904121
0
ARC
8
DEFAULT_255_2_778
10
3.2757405
20
7.7668703
40
0.1799247
50
266.3352192
51
269.4292979
0
ARC
8
DEFAULT_255_2_778
10
4.6465267
20
5.7329286
40
1.8508495
50
71.5901214
51
89.7114325
0
ARC
8
DEFAULT_255_2_778
10
4.946245
20
6.5498644
40
0.981423
50
31.1854342
51
73.1304114
0
ARC
8
DEFAULT_255_2_778
10
4.9690373
20
6.5743802
40
0.9492741
50
5.6813634
51
30.6318829
0
ARC
8
DEFAULT_255_2_778
10
3.425099
20
6.4074421
40
2.5021897
50
4.894521
51
5.9853214
0
ARC
8
DEFAULT_255_2_778
10
3.9493097
20
6.4480373
40
1.9764316
50
0.1349108
51
5.0185786
0
ARC
8
DEFAULT_255_2_778
10
4.5861868
20
6.4412105
40
1.3395983
50
346.0274291
51
0.4910382
0
ARC
8
DEFAULT_255_2_778
10
4.8970321
20
6.3734511
40
1.0216319
50
303.4825048
51
345.5057742
0
ARC
8
DEFAULT_255_2_778
10
4.9084018
20
6.315614
40
0.9673801
50
303.3243916
51
304.8107964
0
ARC
8
DEFAULT_255_2_778
10
-4.0189453
20
20.1544506
40
17.4358282
50
302.5753466
51
302.8534714
0
ARC
8
DEFAULT_255_2_778
10
24.7482596
20
15.9326396
40
22.0275499
50
208.3829959
51
209.5953441
0
ARC
8
DEFAULT_255_2_778
10
-632.5358521
20
-354.5185932
40
732.4634748
50
29.3978855
51
29.4003045
0
ARC
8
DEFAULT_255_2_778
10
-23.8924104
20
-11.6377999
40
33.8834525
50
29.0128206
51
29.4605983
0
ARC
8
DEFAULT_255_2_778
10
4.5442092
20
6.6262578
40
0.6136778
50
272.0020644
51
292.3681658
0
ARC
8
DEFAULT_255_2_778
10
4.6489672
20
6.4087305
40
0.3729178
50
290.2021799
51
346.5442445
0
ARC
8
DEFAULT_255_2_778
10
4.4527514
20
6.4644467
40
0.5767754
50
345.6970086
51
359.9905609
0
ARC
8
DEFAULT_255_2_778
10
4.4554737
20
6.4643574
40
0.574053
50
359.9994306
51
1.4980401
0
ARC
8
DEFAULT_255_2_778
10
4.4556209
20
6.4643727
40
0.5739055
50
1.4968978
51
5.1065122
0
ARC
8
DEFAULT_255_2_778
10
4.6626749
20
6.5001135
40
0.3648961
50
2.4095672
51
32.4686562
0
ARC
8
DEFAULT_255_2_778
10
4.707258
20
6.5022942
40
0.3268589
50
36.3445196
51
72.7490928
0
ARC
8
DEFAULT_255_2_778
10
4.5967735
20
6.2447743
40
0.6062602
50
69.9936208
51
71.9671895
0
ARC
8
DEFAULT_255_2_778
10
4.5467777
20
6.0582665
40
0.7991484
50
72.6981972
51
84.9841453
0
ARC
8
DEFAULT_255_2_778
10
4.4000207
20
4.365912
40
2.4978539
50
85.0247433
51
90.6226608
0
ARC
8
DEFAULT_255_2_778
10
4.3831363
20
-8.2102234
40
15.0738453
50
90.039
51
90.2702604
0
ARC
8
DEFAULT_255_2_778
10
3.7187629
20
153.6371633
40
146.7749081
50
270.227363
51
270.231593
0
ARC
8
DEFAULT_255_2_778
10
4.245422
20
19.6234823
40
12.7601933
50
270.0258992
51
270.2504476
0
ARC
8
DEFAULT_255_2_778
10
4.2483054
20
12.03159
40
5.1683007
50
269.4195607
51
270.0319788
0
ARC
8
DEFAULT_255_2_778
10
4.2016453
20
7.1113607
40
0.2478715
50
266.8670235
51
268.6830332
0
ARC
8
DEFAULT_255_2_778
10
4.1742331
20
6.6073138
40
0.2569202
50
86.906425
51
88.6063185
0
ARC
8
DEFAULT_255_2_778
10
4.1782303
20
6.7520301
40
0.1121505
50
88.8496361
51
89.9842719
0
ARC
8
DEFAULT_255_2_778
10
4.1749307
20
6.8253993
40
0.038924
50
85.0916612
51
141.0764655
0
ARC
8
DEFAULT_255_2_778
10
14.7559183
20
7.0886784
40
0.3991702
50
179.9797268
51
180.0608249
0
ARC
8
DEFAULT_255_2_778
10
14.8439563
20
7.1035328
40
0.4874303
50
113.9038138
51
181.729744
0
ARC
8
DEFAULT_255_2_778
10
14.8367783
20
7.0935174
40
0.4937922
50
89.144804
51
112.6713928
0
ARC
8
DEFAULT_255_2_778
10
14.8661672
20
25.1526195
40
17.5653787
50
269.9281776
51
270.0005174
0
ARC
8
DEFAULT_255_2_778
10
14.8379982
20
44.912646
40
37.3254159
50
270.0434839
51
270.3037589
0
ARC
8
DEFAULT_255_2_778
10
15.2337761
20
-29.7431486
40
37.3314276
50
90.0434321
51
90.3037275
0
ARC
8
DEFAULT_255_2_778
10
15.2101409
20
-6.4370183
40
14.0252871
50
89.5596736
51
90.0190503
0
ARC
8
DEFAULT_255_2_778
10
15.2661322
20
-0.3239533
40
7.9119774
50
87.9087539
51
89.6249234
0
ARC
8
DEFAULT_255_2_778
10
15.5029408
20
5.5329914
40
2.0504203
50
66.9743605
51
88.5493688
0
ARC
8
DEFAULT_255_2_778
10
15.7706501
20
6.1619322
40
1.3668748
50
45.176306
51
66.9900834
0
ARC
8
DEFAULT_255_2_778
10
15.7150311
20
6.1380406
40
1.4232075
50
17.7861335
51
44.2661272
0
ARC
8
DEFAULT_255_2_778
10
15.3398362
20
5.9884456
40
1.8263776
50
17.1879963
51
18.6594191
0
ARC
8
DEFAULT_255_2_778
10
15.125301
20
5.9486806
40
2.0432406
50
2.2628191
51
16.4755038
0
ARC
8
DEFAULT_255_2_778
10
13.8339159
20
5.8515207
40
3.3377733
50
0.0484548
51
3.05412
0
ARC
8
DEFAULT_255_2_778
10
14.6680378
20
5.8411197
40
2.5036851
50
349.8511343
51
0.3026203
0
ARC
8
DEFAULT_255_2_778
10
15.6200686
20
5.63607
40
1.530799
50
315.4966246
51
351.1270902
0
ARC
8
DEFAULT_255_2_778
10
15.7042944
20
5.6008547
40
1.4464419
50
284.4792935
51
314.1527897
0
ARC
8
DEFAULT_255_2_778
10
15.4767321
20
6.3086422
40
2.1890757
50
270.5134325
51
285.6144135
0
ARC
8
DEFAULT_255_2_778
10
15.4383545
20
10.6381019
40
6.5187053
50
269.9601329
51
270.5097406
0
ARC
8
DEFAULT_255_2_778
10
15.4406204
20
27.2998315
40
23.1804341
50
269.8838898
51
269.9831879
0
ARC
8
DEFAULT_255_2_778
10
15.3466758
20
-19.0527464
40
23.1722389
50
89.8838632
51
89.9831424
0
ARC
8
DEFAULT_255_2_778
10
15.3432698
20
-0.8193207
40
4.9388227
50
89.8813928
51
91.1221465
0
ARC
8
DEFAULT_255_2_778
10
14.8153575
20
4.6406207
40
0.5300887
50
270.0058899
51
271.9990328
0
ARC
8
DEFAULT_255_2_778
10
14.8091203
20
4.5537356
40
0.4432482
50
234.5657367
51
270.8133149
0
ARC
8
DEFAULT_255_2_778
10
14.8344422
20
4.574197
40
0.4746816
50
191.291424
51
233.507237
0
ARC
8
DEFAULT_255_2_778
10
14.94694
20
4.590207
40
0.5881708
50
178.838664
51
190.6750891
0
ARC
8
DEFAULT_255_2_778
10
17.2663301
20
4.5953256
40
2.9074482
50
179.0647184
51
179.8659506
0
ARC
8
DEFAULT_255_2_778
10
11.4515335
20
4.6902462
40
2.908123
50
359.0648591
51
359.8661927
0
ARC
8
DEFAULT_255_2_778
10
15.2365894
20
4.5557695
40
0.3076438
50
80.3655505
51
81.653183
0
ARC
8
DEFAULT_255_2_778
10
15.332511
20
5.0611532
40
0.2069065
50
257.5989265
51
265.5802818
0
ARC
8
DEFAULT_255_2_778
10
15.3174368
20
4.9060407
40
0.0511861
50
269.0256677
51
270.0130019
0
ARC
8
DEFAULT_255_2_778
10
15.3220469
20
6.2429253
40
1.3880783
50
269.8101871
51
286.8518664
0
ARC
8
DEFAULT_255_2_778
10
15.5439628
20
5.5085803
40
0.6209351
50
286.8979143
51
325.754423
0
ARC
8
DEFAULT_255_2_778
10
15.2868812
20
5.6756825
40
0.9275056
50
326.1583174
51
348.7764211
0
ARC
8
DEFAULT_255_2_778
10
14.5621142
20
5.8353009
40
1.6695513
50
348.2445346
51
0.5317799
0
ARC
8
DEFAULT_255_2_778
10
13.6207326
20
5.8476275
40
2.6108629
50
0.0695404
51
2.8319452
0
ARC
8
DEFAULT_255_2_778
10
12.6609118
20
5.8017164
40
3.5717802
50
2.806816
51
4.4243699
0
ARC
8
DEFAULT_255_2_778
10
15.1941004
20
6.0132045
40
1.0299415
50
3.5654176
51
26.1085822
0
ARC
8
DEFAULT_255_2_778
10
15.5603791
20
6.2063853
40
0.6161458
50
24.9666365
51
76.4394627
0
ARC
8
DEFAULT_255_2_778
10
15.3493772
20
5.4419018
40
1.4090292
50
75.3874748
51
90.0021135
0
ARC
8
DEFAULT_255_2_778
10
15.3493072
20
5.4409055
40
1.4100255
50
89.9992665
51
90.5956656
0
ARC
8
DEFAULT_255_2_778
10
15.3337526
20
6.9310467
40
0.0801971
50
269.9868057
51
270.6399569
0
ARC
8
DEFAULT_255_2_778
10
15.3353719
20
7.0281739
40
0.177332
50
266.5340341
51
269.47084
0
ARC
8
DEFAULT_255_2_778
10
15.3138811
20
6.6718128
40
0.1796766
50
86.5635401
51
89.5210066
0
ARC
8
DEFAULT_255_2_778
10
15.3153403
20
6.7699531
40
0.0815301
50
89.9698622
51
91.5546359
0
ARC
8
DEFAULT_255_2_778
10
15.312216
20
6.8125819
40
0.0388818
50
88.6553821
51
142.3084229
0
ARC
8
DEFAULT_255_2_778
10
14.8310348
20
7.114566
40
0.1884898
50
90.2086624
51
179.9406588
0
ARC
8
DEFAULT_255_2_778
10
14.8340674
20
7.1147617
40
0.1915222
50
180.0001184
51
180.3311852
0
ARC
8
DEFAULT_255_2_778
10
14.8218769
20
7.1131189
40
0.1793294
50
179.8288336
51
179.9999931
0
ARC
8
DEFAULT_255_2_778
10
14.8312895
20
7.1158103
40
0.1887611
50
180.8169773
51
270.4206391
0
LINE
8
DEFAULT_255_2_778
10
14.8326753
20
6.9270543
11
14.8330484
21
6.9270546
0
ARC
8
DEFAULT_255_2_778
10
14.8315986
20
7.1176079
40
0.1905588
50
270.4359209
51
359.4427692
0
ARC
8
DEFAULT_255_2_778
10
14.8301217
20
7.1109775
40
0.1920861
50
1.4250852
51
89.5163483
0
ARC
8
DEFAULT_255_2_778
10
14.8317881
20
7.1028438
40
0.200213
50
90.0128723
51
90.2689297
0
ARC
8
DEFAULT_255_2_778
10
9.4377892
20
6.124148
40
0.737999
50
58.3308704
51
91.8902259
0
ARC
8
DEFAULT_255_2_778
10
9.4138699
20
5.652838
40
1.2089075
50
90.020065
51
92.0726174
0
ARC
8
DEFAULT_255_2_778
10
9.3879455
20
6.1038836
40
0.7572802
50
91.3466567
51
123.8023225
0
ARC
8
DEFAULT_255_2_778
10
9.4304186
20
6.047445
40
0.8278167
50
124.0719125
51
159.7139846
0
ARC
8
DEFAULT_255_2_778
10
9.7002532
20
5.9226017
40
1.124445
50
158.5141078
51
175.9992059
0
ARC
8
DEFAULT_255_2_778
10
10.7589735
20
5.8411916
40
2.1862776
50
175.8067287
51
179.9098408
0
ARC
8
DEFAULT_255_2_778
10
10.0408411
20
5.8271412
40
1.4682466
50
179.3174398
51
196.9597214
0
ARC
8
DEFAULT_255_2_778
10
9.4523753
20
5.6459524
40
0.8525222
50
196.8485681
51
217.2813465
0
ARC
8
DEFAULT_255_2_778
10
9.3334651
20
5.5767649
40
0.7162012
50
218.6396224
51
260.4667858
0
ARC
8
DEFAULT_255_2_778
10
9.4569476
20
6.108722
40
1.2617124
50
258.9373939
51
270.0030503
0
ARC
8
DEFAULT_255_2_778
10
9.4570141
20
6.111371
40
1.2643613
50
270.0000336
51
270.8228982
0
ARC
8
DEFAULT_255_2_778
10
9.4570017
20
6.1113878
40
1.2643782
50
270.8234468
51
275.2206047
0
ARC
8
DEFAULT_255_2_778
10
9.5476085
20
5.1886786
40
0.3373105
50
274.1550092
51
285.8129074
0
ARC
8
DEFAULT_255_2_778
10
9.5018595
20
5.3149588
40
0.4713764
50
286.9806841
51
299.801437
0
ARC
8
DEFAULT_255_2_778
10
9.2558757
20
5.7856095
40
1.0022467
50
298.6318159
51
299.109461
0
ARC
8
DEFAULT_255_2_778
10
15.906252
20
5.7980073
40
6.6727778
50
179.9998148
51
183.517974
0
ARC
8
DEFAULT_255_2_778
10
15.91136
20
5.7979647
40
6.6778857
50
179.8209682
51
179.9994489
0
ARC
8
DEFAULT_255_2_778
10
15.9093627
20
5.7980206
40
6.6758884
50
177.1817971
51
179.8213949
0
ARC
8
DEFAULT_255_2_778
10
9.2651822
20
6.1019543
40
0.0338978
50
85.3523207
51
134.2033671
0
ARC
8
DEFAULT_255_2_778
10
9.2673675
20
5.9988605
40
0.1368813
50
87.1971475
51
89.7649961
0
ARC
8
DEFAULT_255_2_778
10
9.2480608
20
5.5667492
40
0.5694227
50
87.1098175
51
87.3829405
0
ARC
8
DEFAULT_255_2_778
10
9.2871004
20
6.3132252
40
0.1780773
50
266.675061
51
269.5006522
0
ARC
8
DEFAULT_255_2_778
10
10.2346883
20
5.8076385
40
0.327549
50
17.0457469
51
90.8116582
0
ARC
8
DEFAULT_255_2_778
10
10.3241644
20
5.827216
40
0.2363839
50
0.0093623
51
18.8666336
0
ARC
8
DEFAULT_255_2_778
10
10.3894329
20
4.5174372
40
0.1708732
50
349.08333
51
356.8523095
0
ARC
8
DEFAULT_255_2_778
10
10.8378996
20
4.4438689
40
0.2836943
50
171.647926
51
172.6311318
0
ARC
8
DEFAULT_255_2_778
10
9.714193
20
5.3915726
40
1.2409928
50
298.8739222
51
312.7480228
0
ARC
8
DEFAULT_255_2_778
10
9.3713822
20
5.967505
40
1.9109932
50
271.4862706
51
299.5361131
0
ARC
8
DEFAULT_255_2_778
10
9.3481017
20
6.4171578
40
2.3611272
50
270.0068867
51
271.7679978
0
ARC
8
DEFAULT_255_2_778
10
9.3287487
20
5.9714353
40
1.9155054
50
248.2694641
51
270.5873792
0
ARC
8
DEFAULT_255_2_778
10
9.1778961
20
5.6005382
40
1.5151166
50
224.9859471
51
248.3757526
0
ARC
8
DEFAULT_255_2_778
10
9.240893
20
5.6339522
40
1.5834324
50
201.1648466
51
224.2296122
0
ARC
8
DEFAULT_255_2_778
10
8.1001632
20
5.1969604
40
0.3618991
50
201.8013872
51
201.8533267
0
ARC
8
DEFAULT_255_2_778
10
9.4802326
20
5.7343843
40
1.8429054
50
182.4764528
51
201.3798435
0
ARC
8
DEFAULT_255_2_778
10
11.4586859
20
5.8582784
40
3.8250559
50
180.1348332
51
183.0500372
0
ARC
8
DEFAULT_255_2_778
10
9.5923716
20
5.8764044
40
1.9589188
50
166.8591964
51
180.7934687
0
ARC
8
DEFAULT_255_2_778
10
9.6514445
20
5.8486794
40
2.0227936
50
152.539612
51
166.4748466
0
ARC
8
DEFAULT_255_2_778
10
9.2335071
20
6.0643474
40
1.5524937
50
111.1783618
51
152.4895294
0
ARC
8
DEFAULT_255_2_778
10
9.449453
20
5.5859611
40
2.0767813
50
104.1247347
51
111.9655824
0
ARC
8
DEFAULT_255_2_778
10
9.3687836
20
5.894451
40
1.7579345
50
89.744056
51
104.0286346
0
ARC
8
DEFAULT_255_2_778
10
9.3747466
20
5.5461277
40
2.1062412
50
85.0947265
51
89.9485909
0
ARC
8
DEFAULT_255_2_778
10
9.4121478
20
6.1518615
40
1.4995982
50
51.1633873
51
84.5395175
0
ARC
8
DEFAULT_255_2_778
10
9.9354407
20
6.729748
40
0.7227189
50
39.4076766
51
54.7505868
0
ARC
8
DEFAULT_255_2_778
10
12.7096249
20
7.5062911
40
0.1971531
50
18.477716
51
23.4837932
0
ARC
8
DEFAULT_255_2_778
10
11.1839396
20
6.9681937
40
1.814925
50
18.2978341
51
19.324201
0
ARC
8
DEFAULT_255_2_778
10
7.3936105
20
5.7074761
40
5.8094197
50
17.9327537
51
18.3666125
0
ARC
8
DEFAULT_255_2_778
10
-1.0011785
20
2.9903956
40
14.6329681
50
17.6113152
51
17.9340086
0
ARC
8
DEFAULT_255_2_778
10
-18.1195081
20
-2.449054
40
32.5947277
50
17.4253344
51
17.6204874
0
ARC
8
DEFAULT_255_2_778
10
-44.9255776
20
-10.8669744
40
60.6914665
50
17.3013377
51
17.4292875
0
ARC
8
DEFAULT_255_2_778
10
-78.2695486
20
-21.2577805
40
95.6169478
50
17.2229594
51
17.3038902
0
ARC
8
DEFAULT_255_2_778
10
-121.4881616
20
-34.6540488
40
140.8641413
50
17.1422669
51
17.2225292
0
ARC
8
DEFAULT_255_2_778
10
-178.1730267
20
-52.1404146
40
200.1848537
50
17.0755778
51
17.1428248
0
ARC
8
DEFAULT_255_2_778
10
-246.3953321
20
-73.094761
40
271.5526865
50
16.9997756
51
17.0752253
0
ARC
8
DEFAULT_255_2_778
10
-305.567625
20
-91.1893235
40
333.4297697
50
16.9271351
51
17.0004379
0
ARC
8
DEFAULT_255_2_778
10
-304.5486625
20
-90.8842257
40
332.3661221
50
16.9213755
51
16.9279619
0
ARC
8
DEFAULT_255_2_778
10
-305.4592663
20
-91.1654799
40
333.3191628
50
16.8370814
51
16.9220696
0
ARC
8
DEFAULT_255_2_778
10
-251.7094966
20
-74.8974327
40
277.1614644
50
16.783809
51
16.8366718
0
ARC
8
DEFAULT_255_2_778
10
-198.7225971
20
-58.9167522
40
221.8171451
50
16.729397
51
16.7839749
0
ARC
8
DEFAULT_255_2_778
10
-150.039472
20
-44.2843414
40
170.9825691
50
16.6717848
51
16.7295437
0
ARC
8
DEFAULT_255_2_778
10
-108.5192989
20
-31.8500646
40
127.6404879
50
16.6093214
51
16.6718229
0
ARC
8
DEFAULT_255_2_778
10
-68.3974242
20
-19.8862052
40
85.7728545
50
16.5027204
51
16.6119452
0
ARC
8
DEFAULT_255_2_778
10
-33.038021
20
-9.4126396
40
48.8949077
50
16.3507645
51
16.5051843
0
ARC
8
DEFAULT_255_2_778
10
-9.7331896
20
-2.5770547
40
24.6082779
50
16.1309824
51
16.3544383
0
ARC
8
DEFAULT_255_2_778
10
2.7785109
20
1.0414243
40
11.5838379
50
15.8490577
51
16.1317816
0
ARC
8
DEFAULT_255_2_778
10
10.0560325
20
3.1031907
40
4.0199001
50
15.1380296
51
15.9079667
0
ARC
8
DEFAULT_255_2_778
10
13.4146276
20
4.0079122
40
0.5415992
50
12.6047484
51
15.5351724
0
ARC
8
DEFAULT_255_2_778
10
13.9130604
20
4.119401
40
0.0308497
50
5.86732
51
12.5457653
0
ARC
8
DEFAULT_255_2_778
10
24.0886071
20
6.9801663
40
11.4652841
50
192.5615626
51
194.4325657
0
ARC
8
DEFAULT_255_2_778
10
349.8837008
20
81.3609885
40
345.6431544
50
192.8478839
51
192.8506057
0
ARC
8
DEFAULT_255_2_778
10
0.0915781
20
1.6423177
40
13.1181656
50
12.5939591
51
14.1245665
0
ARC
8
DEFAULT_255_2_778
10
12.7821951
20
4.6650285
40
0.1811896
50
80.1636943
51
86.6886985
0
ARC
8
DEFAULT_255_2_778
10
12.6900743
20
3.3960878
40
1.4534527
50
85.9526306
51
87.977923
0
ARC
8
DEFAULT_255_2_778
10
12.5424772
20
-0.4211597
40
5.2735467
50
87.8386881
51
88.7213472
0
ARC
8
DEFAULT_255_2_778
10
12.3723342
20
-7.8486802
40
12.7030151
50
88.7016972
51
89.3154273
0
ARC
8
DEFAULT_255_2_778
10
12.2588417
20
-16.875235
40
21.7302822
50
89.3005637
51
89.8317178
0
ARC
8
DEFAULT_255_2_778
10
12.2500323
20
-18.4464406
40
23.3015073
50
89.8214037
51
89.9992521
0
ARC
8
DEFAULT_255_2_778
10
12.2471266
20
-15.0246628
40
19.8797297
50
89.9907485
51
90.3924163
0
ARC
8
DEFAULT_255_2_778
10
12.2005384
20
-8.2935788
40
13.1484847
50
90.3902961
51
90.8004367
0
ARC
8
DEFAULT_255_2_778
10
12.1089078
20
-1.9824091
40
6.8366518
50
90.7714742
51
91.5150302
0
ARC
8
DEFAULT_255_2_778
10
11.9923093
20
2.3535112
40
2.4991651
50
91.4710232
51
92.7411742
0
ARC
8
DEFAULT_255_2_778
10
11.8938901
20
4.3355958
40
0.5146538
50
92.3498621
51
96.1842569
0
ARC
8
DEFAULT_255_2_778
10
12.3378142
20
6.86534
40
0.03547
50
99.1916014
51
159.5369571
0
ARC
8
DEFAULT_255_2_778
10
12.3766505
20
6.8554548
40
0.0754351
50
162.8167751
51
169.7252913
0
ARC
8
DEFAULT_255_2_778
10
12.1867092
20
6.8920795
40
0.1180128
50
347.1106778
51
348.6775042
0
ARC
8
DEFAULT_255_2_778
10
12.0722651
20
5.9671629
40
0.394989
50
261.656374
51
266.9972126
0
ARC
8
DEFAULT_255_2_778
10
12.1557347
20
7.2292117
40
1.6597671
50
266.4019628
51
267.9856875
0
ARC
8
DEFAULT_255_2_778
10
12.2403523
20
9.6158238
40
4.0478789
50
267.9760904
51
269.2272342
0
ARC
8
DEFAULT_255_2_778
10
12.2861392
20
12.6047271
40
7.03713
50
269.182684
51
270.0185176
0
ARC
8
DEFAULT_255_2_778
10
12.2883875
20
13.5956707
40
8.0280733
50
270.0001865
51
270.2828144
0
ARC
8
DEFAULT_255_2_778
10
12.2982506
20
12.5299945
40
6.9623628
50
270.2449357
51
271.5105227
0
ARC
8
DEFAULT_255_2_778
10
12.3996308
20
8.7929113
40
3.2239069
50
271.460168
51
273.1025042
0
ARC
8
DEFAULT_255_2_778
10
12.5307689
20
6.4394355
40
0.8667902
50
272.8665223
51
276.433403
0
ARC
8
DEFAULT_255_2_778
10
12.6109582
20
5.7300114
40
0.1528485
50
276.3604453
51
282.6181736
0
ARC
8
DEFAULT_255_2_778
10
33.6173918
20
11.0087085
40
21.6640289
50
192.4125739
51
194.5098735
0
ARC
8
DEFAULT_255_2_778
10
-23.7105988
20
-1.7382767
40
37.064103
50
12.6079614
51
13.4110258
0
ARC
8
DEFAULT_255_2_778
10
-4.5591479
20
2.7844394
40
17.3859633
50
13.5511063
51
13.6961192
0
ARC
8
DEFAULT_255_2_778
10
18.6827444
20
6.8348421
40
0.5609677
50
260.385068
51
270.8222016
0
ARC
8
DEFAULT_255_2_778
10
18.6825827
20
8.4301417
40
2.1562251
50
270.2181949
51
271.5473201
0
ARC
8
DEFAULT_255_2_778
10
18.7989615
20
4.1263328
40
2.149157
50
90.2236451
51
91.5505876
0
ARC
8
DEFAULT_255_2_778
10
18.7913588
20
5.4182581
40
0.8572156
50
88.4364579
51
90.0525428
0
ARC
8
DEFAULT_255_2_778
10
19.4493171
20
6.2276479
40
0.2647735
50
3.1593792
51
10.2702159
0
ARC
8
DEFAULT_255_2_778
10
17.9443904
20
6.1168637
40
1.7737344
50
2.0262857
51
4.0533472
0
ARC
8
DEFAULT_255_2_778
10
14.4644836
20
5.984004
40
5.2561719
50
1.0878753
51
2.1323942
0
ARC
8
DEFAULT_255_2_778
10
8.9419875
20
5.8775971
40
10.779693
50
0.0737645
51
1.0960521
0
ARC
8
DEFAULT_255_2_778
10
7.4466054
20
5.8692059
40
12.2750864
50
359.9995258
51
0.1039453
0
ARC
8
DEFAULT_255_2_778
10
9.3268599
20
5.8633082
40
10.3948335
50
359.0615096
51
0.0319477
0
ARC
8
DEFAULT_255_2_778
10
14.6481164
20
5.7754165
40
5.0728513
50
358.0382764
51
359.0696753
0
ARC
8
DEFAULT_255_2_778
10
17.8774171
20
5.662592
40
1.8415824
50
356.326947
51
358.1071434
0
ARC
8
DEFAULT_255_2_778
10
19.3776573
20
5.562306
40
0.3380226
50
351.1418936
51
356.9999022
0
ARC
8
DEFAULT_255_2_778
10
18.83098
20
5.4516386
40
0.2373823
50
165.7042812
51
175.1844734
0
ARC
8
DEFAULT_255_2_778
10
19.9947406
20
5.3272238
40
1.4077248
50
174.1147749
51
177.1299812
0
ARC
8
DEFAULT_255_2_778
10
22.5698
20
5.19035
40
3.9864151
50
177.0183325
51
178.9770819
0
ARC
8
DEFAULT_255_2_778
10
24.3607243
20
5.1489542
40
5.7778008
50
178.8836978
51
179.7868729
0
ARC
8
DEFAULT_255_2_778
10
24.4399687
20
5.1482126
40
5.8570474
50
179.7825016
51
179.9993844
0
ARC
8
DEFAULT_255_2_778
10
23.5173964
20
5.1442298
40
4.9344768
50
179.9530246
51
181.5322712
0
ARC
8
DEFAULT_255_2_778
10
21.2106576
20
5.0808844
40
2.6268696
50
181.4964875
51
183.4033135
0
ARC
8
DEFAULT_255_2_778
10
19.9946332
20
5.0113911
40
1.4088672
50
183.5178934
51
184.5203183
0
ARC
8
DEFAULT_255_2_778
10
18.5557393
20
4.8483085
40
0.0616601
50
46.9934493
51
49.2992164
0
ARC
8
DEFAULT_255_2_778
10
18.6067925
20
4.9022467
40
0.0126178
50
224.5237079
51
247.914909
0
ARC
8
DEFAULT_255_2_778
10
18.6272279
20
4.9731565
40
0.0863544
50
253.0471783
51
253.5237836
0
ARC
8
DEFAULT_255_2_778
10
18.6097286
20
4.9121514
40
0.022897
50
252.2192639
51
269.7993518
0
ARC
8
DEFAULT_255_2_778
10
18.5672894
20
4.2534811
40
0.6371831
50
85.6173699
51
86.1882494
0
ARC
8
DEFAULT_255_2_778
10
18.8037539
20
7.3948087
40
2.5130328
50
265.714882
51
265.7471643
0
ARC
8
DEFAULT_255_2_778
10
18.635161
20
5.0974814
40
0.2095407
50
265.1357258
51
269.3402996
0
ARC
8
DEFAULT_255_2_778
10
19.9438331
20
4.8784482
40
0.007418
50
58.595846
51
86.7903777
0
ARC
8
DEFAULT_255_2_778
10
19.9232148
20
4.839501
40
0.0514742
50
60.0575047
51
61.5984607
0
ARC
8
DEFAULT_255_2_778
10
19.9594847
20
4.9019568
40
0.0207503
50
239.3526736
51
246.312854
0
ARC
8
DEFAULT_255_2_778
10
19.7346738
20
4.8401067
40
0.2206744
50
3.1329506
51
11.1961309
0
ARC
8
DEFAULT_255_2_778
10
18.2497111
20
4.7249923
40
1.7100429
50
2.1857106
51
4.2649908
0
ARC
8
DEFAULT_255_2_778
10
14.6710624
20
4.5775765
40
5.2917212
50
1.2611343
51
2.3029064
0
ARC
8
DEFAULT_255_2_778
10
9.0273387
20
4.4513737
40
10.9368557
50
0.2524107
51
1.2713947
0
ARC
8
DEFAULT_255_2_778
10
7.739882
20
4.4394008
40
12.2243543
50
0.0015249
51
0.2819437
0
ARC
8
DEFAULT_255_2_778
10
10.3975762
20
4.4342422
40
9.5666615
50
359.161198
51
0.0328439
0
ARC
8
DEFAULT_255_2_778
10
15.3173573
20
4.3606516
40
4.6463305
50
358.0945605
51
359.1804406
0
ARC
8
DEFAULT_255_2_778
10
18.2826541
20
4.2602127
40
1.6793347
50
356.34141
51
358.1555328
0
ARC
8
DEFAULT_255_2_778
10
19.4463213
20
4.1858785
40
0.5132956
50
353.8349957
51
356.333353
0
ARC
8
DEFAULT_255_2_778
10
19.9310859
20
4.3032624
40
0.1743915
50
271.3479904
51
278.4288339
0
ARC
8
DEFAULT_255_2_778
10
19.831753
20
6.3388603
40
2.2123603
50
271.381529
51
272.6797518
0
ARC
8
DEFAULT_255_2_778
10
19.6684711
20
12.515183
40
8.3908366
50
270.954889
51
271.4793385
0
ARC
8
DEFAULT_255_2_778
10
19.4795895
20
23.3442173
40
19.2215164
50
270.7235317
51
270.9798906
0
ARC
8
DEFAULT_255_2_778
10
19.2614924
20
40.5809532
40
36.459632
50
270.5109447
51
270.7241914
0
ARC
8
DEFAULT_255_2_778
10
19.0207109
20
67.1460917
40
63.0258616
50
270.3590509
51
270.5144683
0
ARC
8
DEFAULT_255_2_778
10
18.8029845
20
101.8097798
40
97.6902333
50
270.2115833
51
270.3593438
0
ARC
8
DEFAULT_255_2_778
10
18.6777146
20
134.8088499
40
130.6895411
50
270.0602005
51
270.2130781
0
ARC
8
DEFAULT_255_2_778
10
18.6676072
20
140.2919784
40
136.1726772
50
270.000193
51
270.0620292
0
ARC
8
DEFAULT_255_2_778
10
18.6616121
20
123.5380265
40
119.4187254
50
269.8510791
51
270.0030965
0
ARC
8
DEFAULT_255_2_778
10
18.5710806
20
88.4897818
40
84.3703637
50
269.7188916
51
269.8506956
0
ARC
8
DEFAULT_255_2_778
10
18.418097
20
57.7930471
40
53.6732479
50
269.5475354
51
269.7214278
0
ARC
8
DEFAULT_255_2_778
10
18.2249439
20
33.572428
40
29.4518586
50
269.3119553
51
269.5511907
0
ARC
8
DEFAULT_255_2_778
10
18.0498364
20
18.9977634
40
14.8761421
50
269.0212396
51
269.3122523
0
ARC
8
DEFAULT_255_2_778
10
17.8984626
20
10.3247339
40
6.2017931
50
268.4469362
51
269.0508134
0
ARC
8
DEFAULT_255_2_778
10
17.7675644
20
5.6250491
40
1.5002912
50
266.9861262
51
268.5796701
0
ARC
8
DEFAULT_255_2_778
10
17.6957515
20
4.2892695
40
0.1625902
50
262.5423651
51
267.5081475
0
ARC
8
DEFAULT_255_2_778
10
17.8343791
20
4.1462693
40
0.1607659
50
181.1395206
51
186.5055348
0
ARC
8
DEFAULT_255_2_778
10
19.5277988
20
4.2134017
40
1.8554872
50
181.2326052
51
182.1722358
0
ARC
8
DEFAULT_255_2_778
10
23.9775811
20
4.3167482
40
6.3064676
50
180.9202373
51
181.3016681
0
ARC
8
DEFAULT_255_2_778
10
34.0959208
20
4.4800074
40
16.4261243
50
180.6455488
51
180.9227933
0
ARC
8
DEFAULT_255_2_778
10
55.9957675
20
4.7314958
40
38.3274147
50
180.4787385
51
180.6526244
0
ARC
8
DEFAULT_255_2_778
10
90.434292
20
5.0257031
40
72.7671957
50
180.3797013
51
180.4838148
0
ARC
8
DEFAULT_255_2_778
10
132.0560061
20
5.3059312
40
114.3898528
50
180.3160113
51
180.3819028
0
ARC
8
DEFAULT_255_2_778
10
190.2945882
20
5.6238652
40
172.6293027
50
180.2399965
51
180.3149225
0
ARC
8
DEFAULT_255_2_778
10
264.0202626
20
5.9375478
40
246.3556442
50
180.1895704
51
180.2411277
0
ARC
8
DEFAULT_255_2_778
10
341.7542821
20
6.1923669
40
324.0900814
50
180.1259512
51
180.1891506
0
ARC
8
DEFAULT_255_2_778
10
401.3308903
20
6.3286202
40
383.6668452
50
180.0709872
51
180.1267409
0
ARC
8
DEFAULT_255_2_778
10
406.5222879
20
6.337335
40
388.8582496
50
180.0366808
51
180.0713236
0
ARC
8
DEFAULT_255_2_778
10
381.6237375
20
6.3222571
40
363.9596948
50
180.0049144
51
180.0368166
0
ARC
8
DEFAULT_255_2_778
10
357.9531909
20
6.3172336
40
340.289148
50
179.9996028
51
180.0044104
0
ARC
8
DEFAULT_255_2_778
10
330.8862453
20
6.3234059
40
313.2222026
50
179.9570454
51
180.0006976
0
ARC
8
DEFAULT_255_2_778
10
271.7586512
20
6.3684014
40
254.0945914
50
179.9126176
51
179.9571959
0
ARC
8
DEFAULT_255_2_778
10
214.7603483
20
6.4553808
40
197.0962221
50
179.8655889
51
179.9126323
0
ARC
8
DEFAULT_255_2_778
10
166.9543328
20
6.5676536
40
149.2900748
50
179.8152506
51
179.8656363
0
ARC
8
DEFAULT_255_2_778
10
120.0459816
20
6.7224703
40
102.3814685
50
179.7303976
51
179.8172435
0
ARC
8
DEFAULT_255_2_778
10
80.7138903
20
6.907496
40
63.0489419
50
179.6306484
51
179.7303513
0
ARC
8
DEFAULT_255_2_778
10
52.8296417
20
7.0896723
40
35.1640984
50
179.4714667
51
179.6345925
0
ARC
8
DEFAULT_255_2_778
10
35.3545758
20
7.250771
40
17.68829
50
179.2735394
51
179.4711196
0
ARC
8
DEFAULT_255_2_778
10
25.2707548
20
7.381051
40
7.6036283
50
178.8931789
51
179.2917669
0
ARC
8
DEFAULT_255_2_778
10
19.6334876
20
7.4929163
40
1.9652543
50
177.9293321
51
178.9792526
0
ARC
8
DEFAULT_255_2_778
10
17.9591727
20
7.5540156
40
0.2898258
50
175.7380223
51
178.0406092
0
ARC
8
DEFAULT_255_2_778
10
17.6269971
20
7.6109012
40
0.0557801
50
320.6779973
51
323.656606
0
ARC
8
DEFAULT_255_2_778
10
17.6879976
20
7.5667447
40
0.0195314
50
131.1373969
51
145.3675184
0
ARC
8
DEFAULT_255_2_778
10
17.6567869
20
7.6069099
40
0.0313865
50
305.8037248
51
310.3751094
0
ARC
8
DEFAULT_255_2_778
10
17.6832848
20
7.5767465
40
0.0087815
50
101.4043816
51
134.600663
0
ARC
8
DEFAULT_255_2_778
10
17.5999405
20
8.3803251
40
0.7991482
50
275.8611807
51
276.5290146
0
ARC
8
DEFAULT_255_2_778
10
17.8371933
20
6.2947578
40
1.2998708
50
96.1930694
51
96.4660632
0
ARC
8
DEFAULT_255_2_778
10
17.7226033
20
7.3724117
40
0.2161568
50
90.6507215
51
96.8120295
0
ARC
8
DEFAULT_255_2_778
10
19.8797166
20
7.5454029
40
0.0426501
50
53.4105332
51
75.2875431
0
ARC
8
DEFAULT_255_2_778
10
19.9342362
20
7.6347932
40
0.0623511
50
242.1820832
51
245.0637325
0
ARC
8
DEFAULT_255_2_778
10
19.8708495
20
6.8788551
40
0.0596428
50
266.6967382
51
308.4636281
0
ARC
8
DEFAULT_255_2_778
10
19.8689646
20
7.0178645
40
0.1985592
50
265.1817703
51
269.5522108
0
ARC
8
DEFAULT_255_2_778
10
19.9271652
20
7.7849276
40
0.9678215
50
265.2478751
51
265.5626971
0
ARC
8
DEFAULT_255_2_778
10
19.823086
20
6.5723774
40
0.2492043
50
84.4965908
51
89.157926
0
LINE
8
DEFAULT_255_2_778
10
1.4427484
20
4.1174546
11
0.1597484
21
4.1180546
0
LINE
8
DEFAULT_255_2_778
10
0.1597484
20
4.1180546
11
0.1502484
21
4.1288546
0
LINE
8
DEFAULT_255_2_778
10
0.1462484
20
4.1352546
11
0.1441484
21
7.5464546
0
LINE
8
DEFAULT_255_2_778
10
0.2015484
20
7.5866546
11
1.5131484
21
7.5845546
0
LINE
8
DEFAULT_255_2_778
10
2.1391484
20
5.9595546
11
2.1391484
21
5.9603546
0
LINE
8
DEFAULT_255_2_778
10
1.0712484
20
4.8228546
11
1.5572484
21
4.8294546
0
LINE
8
DEFAULT_255_2_778
10
1.0699484
20
4.8231546
11
1.0712484
21
4.8228546
0
LINE
8
DEFAULT_255_2_778
10
1.0717484
20
6.2233546
11
1.4948484
21
6.2307546
0
LINE
8
DEFAULT_255_2_778
10
1.4398484
20
6.8818546
11
1.1125484
21
6.8831546
0
LINE
8
DEFAULT_255_2_778
10
1.0720484
20
6.2235546
11
1.0717484
21
6.2233546
0
LINE
8
DEFAULT_255_2_778
10
5.0910484
20
4.1235546
11
4.4968484
21
5.2774546
0
LINE
8
DEFAULT_255_2_778
10
4.4968484
20
5.2774546
11
4.1539484
21
5.2774546
0
LINE
8
DEFAULT_255_2_778
10
4.1539484
20
5.2774546
11
4.1475484
21
5.2694546
0
LINE
8
DEFAULT_255_2_778
10
4.1409484
20
5.2398546
11
4.1385484
21
4.1391546
0
LINE
8
DEFAULT_255_2_778
10
4.1367484
20
4.1315546
11
4.1308484
21
4.1262546
0
LINE
8
DEFAULT_255_2_778
10
4.1248484
20
4.1217546
11
3.2582484
21
4.1193546
0
LINE
8
DEFAULT_255_2_778
10
3.2739484
20
7.5869546
11
4.6558484
21
7.5837546
0
LINE
8
DEFAULT_255_2_778
10
5.7390484
20
4.7958546
11
6.1136484
21
4.1225546
0
LINE
8
DEFAULT_255_2_778
10
6.1136484
20
4.1225546
11
5.0902484
21
4.1225546
0
LINE
8
DEFAULT_255_2_778
10
5.0902484
20
4.1225546
11
5.0910484
21
4.1235546
0
LINE
8
DEFAULT_255_2_778
10
4.1443484
20
6.0118546
11
4.5656484
21
6.0129546
0
LINE
8
DEFAULT_255_2_778
10
4.1446484
20
6.8498546
11
4.1446484
21
6.0113546
0
LINE
8
DEFAULT_255_2_778
10
4.1446484
20
6.0113546
11
4.1443484
21
6.0118546
0
LINE
8
DEFAULT_255_2_778
10
14.3570484
20
5.8470546
11
14.3567484
21
7.0882546
0
LINE
8
DEFAULT_255_2_778
10
15.2465484
20
4.1185546
11
14.8338484
21
4.1108546
0
LINE
8
DEFAULT_255_2_778
10
14.3596484
20
4.6834546
11
14.3599484
21
5.8465546
0
LINE
8
DEFAULT_255_2_778
10
14.3599484
20
5.8465546
11
14.3578484
21
5.8465546
0
LINE
8
DEFAULT_255_2_778
10
14.3578484
20
5.8465546
11
14.3570484
21
5.8470546
0
LINE
8
DEFAULT_255_2_778
10
15.2814484
20
6.8363546
11
15.2814484
21
4.8599546
0
LINE
8
DEFAULT_255_2_778
10
15.2814484
20
4.8599546
11
15.2812484
21
4.8601546
0
LINE
8
DEFAULT_255_2_778
10
14.8308484
20
7.3030546
11
14.8303484
21
7.3030546
0
LINE
8
DEFAULT_255_2_778
10
9.9980484
20
6.6310546
11
9.8252484
21
6.7522546
0
LINE
8
DEFAULT_255_2_778
10
9.7434484
20
4.9099546
11
9.7434484
21
5.3885546
0
LINE
8
DEFAULT_255_2_778
10
9.7434484
20
5.3885546
11
9.2460484
21
5.3885546
0
LINE
8
DEFAULT_255_2_778
10
9.2855484
20
6.1351546
11
10.2300484
21
6.1351546
0
LINE
8
DEFAULT_255_2_778
10
10.5605484
20
5.8272546
11
10.5600484
21
4.5080546
0
LINE
8
DEFAULT_255_2_778
10
10.4938484
20
7.1885546
11
9.9985484
21
6.6312546
0
LINE
8
DEFAULT_255_2_778
10
9.9985484
20
6.6312546
11
9.9980484
21
6.6310546
0
LINE
8
DEFAULT_255_2_778
10
11.7847484
20
7.5848546
11
12.8904484
21
7.5848546
0
LINE
8
DEFAULT_255_2_778
10
13.9437484
20
4.1225546
11
12.9851484
21
4.1225546
0
LINE
8
DEFAULT_255_2_778
10
11.8384484
20
4.8472546
11
11.7543484
21
4.4865546
0
LINE
8
DEFAULT_255_2_778
10
11.7543484
20
4.4865546
11
11.6683484
21
4.1227546
0
LINE
8
DEFAULT_255_2_778
10
11.6683484
20
4.1227546
11
10.7288484
21
4.1227546
0
LINE
8
DEFAULT_255_2_778
10
10.7288484
20
4.1227546
11
11.7847484
21
7.5848546
0
LINE
8
DEFAULT_255_2_778
10
11.7847484
20
7.5848546
11
11.7847484
21
7.5848546
0
LINE
8
DEFAULT_255_2_778
10
12.3017484
20
6.8657546
11
12.0149484
21
5.5763546
0
LINE
8
DEFAULT_255_2_778
10
12.3324484
20
6.9009546
11
12.3321484
21
6.9003546
0
LINE
8
DEFAULT_255_2_778
10
18.5890484
20
6.8199546
11
18.5890484
21
6.2817546
0
LINE
8
DEFAULT_255_2_778
10
18.8147484
20
6.2751546
11
19.0412484
21
6.2748546
0
LINE
8
DEFAULT_255_2_778
10
19.0412484
20
6.2748546
11
19.7098484
21
6.2748546
0
LINE
8
DEFAULT_255_2_778
10
19.7116484
20
5.5102546
11
18.6009484
21
5.5102546
0
LINE
8
DEFAULT_255_2_778
10
18.5901484
20
4.9003546
11
18.5959484
21
4.8950546
0
LINE
8
DEFAULT_255_2_778
10
18.6327484
20
4.8879546
11
19.9442484
21
4.8858546
0
LINE
8
DEFAULT_255_2_778
10
17.7201484
20
7.5885546
11
19.8905484
21
7.5866546
0
LINE
8
DEFAULT_255_2_778
10
19.9079484
20
7.5782546
11
19.9079484
21
6.8321546
0
LINE
8
DEFAULT_255_2_778
10
19.8267484
20
6.8215546
11
18.5885484
21
6.8209546
0
LINE
8
DEFAULT_255_2_778
10
18.5885484
20
6.8209546
11
18.5890484
21
6.8199546
0
ARC
8
DEFAULT_255_2_778
10
6.4182327
20
6.9067555
40
0.0557391
50
12.5206982
51
82.4679146
0
ARC
8
DEFAULT_255_2_778
10
2.2828247
20
5.1142821
40
4.5619109
50
23.2657986
51
23.3015572
0
ARC
8
DEFAULT_255_2_778
10
6.6880248
20
7.005876
40
0.2322538
50
202.706341
51
206.4259138
0
ARC
8
DEFAULT_255_2_778
10
6.858437
20
7.0923195
40
0.4233335
50
206.6385158
51
245.6271955
0
ARC
8
DEFAULT_255_2_778
10
6.8789813
20
7.1306099
40
0.4666985
50
245.2696894
51
261.1134758
0
ARC
8
DEFAULT_255_2_778
10
6.8774805
20
7.1232831
40
0.459228
50
261.1572577
51
270.0005791
0
ARC
8
DEFAULT_255_2_778
10
6.879311
20
7.1192101
40
0.4551585
50
269.770161
51
332.5812106
0
ARC
8
DEFAULT_255_2_778
10
7.0152138
20
7.0435408
40
0.2997125
50
333.4581184
51
335.5571301
0
ARC
8
DEFAULT_255_2_778
10
10.8171747
20
5.2931397
40
3.8858391
50
155.2259714
51
155.2574685
0
ARC
8
DEFAULT_255_2_778
10
7.3412453
20
6.9085672
40
0.0538533
50
97.0462851
51
166.1443356
0
ARC
8
DEFAULT_255_2_778
10
7.342289
20
4.345638
40
0.0553555
50
191.9663867
51
262.0565448
0
ARC
8
DEFAULT_255_2_778
10
9.6652717
20
5.35832
40
2.5883729
50
203.2635407
51
203.3081931
0
ARC
8
DEFAULT_255_2_778
10
6.9317668
20
4.1735642
40
0.3909238
50
24.5541286
51
60.8912606
0
ARC
8
DEFAULT_255_2_778
10
6.8719239
20
4.1316452
40
0.4577725
50
56.8963096
51
88.3035537
0
ARC
8
DEFAULT_255_2_778
10
6.8853855
20
4.2394843
40
0.3497328
50
89.9851878
51
99.7033546
0
ARC
8
DEFAULT_255_2_778
10
6.8817401
20
4.129955
40
0.4576124
50
96.9409754
51
154.201173
0
ARC
8
DEFAULT_255_2_778
10
6.4181902
20
4.3438904
40
0.053625
50
278.2004606
51
344.0048003
0
LINE
8
DEFAULT_255_2_778
10
6.4255391
20
4.2908137
11
6.4218391
21
4.3688137
0
LINE
8
DEFAULT_255_2_778
10
6.4218391
20
4.3688137
11
6.4218391
21
6.8845137
0
LINE
8
DEFAULT_255_2_778
10
6.4218391
20
6.8845137
11
6.4255391
21
6.9620137
0
LINE
8
DEFAULT_255_2_778
10
7.3346391
20
6.9620137
11
7.3383391
21
6.8845137
0
LINE
8
DEFAULT_255_2_778
10
7.3383391
20
6.8845137
11
7.3383391
21
4.3688137
0
LINE
8
DEFAULT_255_2_778
10
7.3383391
20
4.3688137
11
7.3346391
21
4.2908137
0
LINE
8
DEFAULT_255_2_778
10
6.4258391
20
4.2908137
11
6.4255391
21
4.2908137
0
ARC
8
DEFAULT_255_2_778
10
13.9401197
20
1.8038936
40
0.4462554
50
200.1786266
51
213.5056727
0
ARC
8
DEFAULT_255_2_778
10
9.5518297
20
-0.9360077
40
4.7273256
50
31.5380445
51
31.8352014
0
ARC
8
DEFAULT_255_2_778
10
12.8179719
20
1.0697856
40
0.8944564
50
30.4629927
51
31.4662814
0
ARC
8
DEFAULT_255_2_778
10
13.3728718
20
0.8350022
40
0.5340523
50
20.4229798
51
31.2882027
0
ARC
8
DEFAULT_255_2_778
10
13.7073721
20
0.9669093
40
0.1746853
50
6.6766448
51
18.1616791
0
ARC
8
DEFAULT_255_2_778
10
13.7083587
20
0.9670589
40
0.1736879
50
359.9992225
51
6.6654825
0
ARC
8
DEFAULT_255_2_778
10
13.7074871
20
0.9670806
40
0.1745594
50
301.4462801
51
359.99211
0
ARC
8
DEFAULT_255_2_778
10
13.7102003
20
0.968509
40
0.1743895
50
272.2380025
51
300.4409044
0
ARC
8
DEFAULT_255_2_778
10
13.7101742
20
0.9690856
40
0.1749667
50
270.0006496
51
272.2391884
0
ARC
8
DEFAULT_255_2_778
10
13.7100478
20
0.9684707
40
0.1743518
50
223.6797725
51
270.0421824
0
ARC
8
DEFAULT_255_2_778
10
13.9133345
20
1.1456647
40
0.4439148
50
207.9400054
51
222.0989037
0
ARC
8
DEFAULT_255_2_778
10
41.2390446
20
17.0317289
40
32.0515163
50
210.1316413
51
210.1410845
0
ARC
8
DEFAULT_255_2_778
10
10.1301958
20
-1.0230427
40
3.9170154
50
30.1144719
51
30.2586529
0
ARC
8
DEFAULT_255_2_778
10
13.1388448
20
2.2958219
40
0.8117549
50
270.0434293
51
274.211208
0
ARC
8
DEFAULT_255_2_778
10
13.1241064
20
2.0585919
40
0.5747298
50
226.2888255
51
271.5308242
0
ARC
8
DEFAULT_255_2_778
10
13.1073439
20
2.0440742
40
0.5526565
50
189.2374109
51
226.5049203
0
ARC
8
DEFAULT_255_2_778
10
13.115331
20
2.0508774
40
0.5616582
50
180.018768
51
189.7916352
0
ARC
8
DEFAULT_255_2_778
10
13.1220312
20
2.0466045
40
0.5683732
50
114.4862633
51
179.5878091
0
ARC
8
DEFAULT_255_2_778
10
13.1123397
20
2.0786311
40
0.5352287
50
89.7892717
51
114.9631032
0
ARC
8
DEFAULT_255_2_778
10
13.1143578
20
2.0734091
40
0.5404474
50
89.7740542
51
90.0052541
0
ARC
8
DEFAULT_255_2_778
10
13.1147645
20
2.0421131
40
0.5717417
50
41.714168
51
89.8271812
0
ARC
8
DEFAULT_255_2_778
10
13.1301117
20
2.0537657
40
0.5525338
50
0.0127519
51
41.8711576
0
ARC
8
DEFAULT_255_2_778
10
13.1307426
20
2.0538886
40
0.5519029
50
357.3486617
51
0.0000011
0
ARC
8
DEFAULT_255_2_778
10
13.1007246
20
2.0521239
40
0.5818157
50
316.3137546
51
357.6590087
0
ARC
8
DEFAULT_255_2_778
10
13.1020481
20
2.0927215
40
0.23458
50
86.4790027
51
89.999762
0
ARC
8
DEFAULT_255_2_778
10
13.1139402
20
2.0506122
40
0.2769447
50
92.4608587
51
179.7523283
0
ARC
8
DEFAULT_255_2_778
10
13.100829
20
2.0518233
40
0.2638309
50
180.0030261
51
181.1868333
0
ARC
8
DEFAULT_255_2_778
10
13.1139767
20
2.0435516
40
0.2769362
50
179.419234
51
270.7698038
0
ARC
8
DEFAULT_255_2_778
10
13.1176931
20
2.0922647
40
0.3256244
50
270.0007446
51
270.6090921
0
ARC
8
DEFAULT_255_2_778
10
13.1250592
20
2.0417327
40
0.2751018
50
269.1867787
51
315.9489872
0
ARC
8
DEFAULT_255_2_778
10
13.1025237
20
2.0528718
40
0.2991417
50
317.4168635
51
359.518642
0
ARC
8
DEFAULT_255_2_778
10
13.1835434
20
2.0543546
40
0.2181479
50
358.9504258
51
359.9973036
0
ARC
8
DEFAULT_255_2_778
10
13.1794899
20
2.0542992
40
0.2222013
50
0.0116199
51
3.4530427
0
ARC
8
DEFAULT_255_2_778
10
13.1177025
20
2.0431467
40
0.2846448
50
4.9449285
51
86.2371732
0
ARC
8
DEFAULT_255_2_778
10
13.1363717
20
2.1109407
40
0.2162371
50
89.9970687
51
95.2848462
0
ARC
8
DEFAULT_255_2_778
10
7.9296859
20
9.3166336
40
0.7665377
50
90.0492471
51
94.8216816
0
ARC
8
DEFAULT_255_2_778
10
7.9409541
20
9.5131552
40
0.5701405
50
49.0326368
51
91.1986773
0
ARC
8
DEFAULT_255_2_778
10
7.9469376
20
9.5180175
40
0.5625476
50
11.8210641
51
49.1681207
0
ARC
8
DEFAULT_255_2_778
10
7.9852133
20
9.5179288
40
0.5251615
50
0.1569064
51
12.6860257
0
ARC
8
DEFAULT_255_2_778
10
7.9634317
20
9.5173274
40
0.5469449
50
0.005775
51
0.2136605
0
ARC
8
DEFAULT_255_2_778
10
7.9423555
20
9.5198165
40
0.5680262
50
296.6052079
51
359.7544888
0
ARC
8
DEFAULT_255_2_778
10
7.9514716
20
9.5081542
40
0.553524
50
295.693376
51
296.302128
0
ARC
8
DEFAULT_255_2_778
10
7.9343061
20
9.5415685
40
0.5910776
50
281.1575591
51
295.7885064
0
ARC
8
DEFAULT_255_2_778
10
7.9410596
20
9.510862
40
0.559645
50
270.0222461
51
281.0875355
0
ARC
8
DEFAULT_255_2_778
10
7.9434055
20
9.512583
40
0.56137
50
219.01875
51
269.7827496
0
ARC
8
DEFAULT_255_2_778
10
7.9308232
20
9.5140405
40
0.5525861
50
179.994675
51
219.9575564
0
ARC
8
DEFAULT_255_2_778
10
7.9316274
20
9.5140897
40
0.5533901
50
177.0822413
51
179.9997782
0
ARC
8
DEFAULT_255_2_778
10
7.9374331
20
9.5204337
40
0.5589047
50
135.2430892
51
177.7620633
0
ARC
8
DEFAULT_255_2_778
10
7.3598558
20
9.8715175
40
0.1856161
50
13.2176153
51
34.4198001
0
ARC
8
DEFAULT_255_2_778
10
10.0806762
20
11.5493952
40
3.0111945
50
211.3160113
51
211.4913664
0
ARC
8
DEFAULT_255_2_778
10
7.9377013
20
10.2457212
40
0.5028271
50
210.2303842
51
211.3253046
0
ARC
8
DEFAULT_255_2_778
10
8.0834058
20
10.9735043
40
0.9961059
50
209.9708659
51
210.332162
0
ARC
8
DEFAULT_255_2_778
10
7.4154506
20
10.6060254
40
0.2343951
50
182.9317812
51
213.7242393
0
ARC
8
DEFAULT_255_2_778
10
7.3451167
20
10.594023
40
0.1637544
50
177.2223145
51
179.9951753
0
ARC
8
DEFAULT_255_2_778
10
7.3481753
20
10.605046
40
0.1666492
50
180.0045853
51
181.0615082
0
ARC
8
DEFAULT_255_2_778
10
7.3454255
20
10.6050851
40
0.1638994
50
110.0423927
51
180.0183339
0
ARC
8
DEFAULT_255_2_778
10
7.3568439
20
10.6073691
40
0.1660663
50
93.0741644
51
114.016611
0
ARC
8
DEFAULT_255_2_778
10
7.3568634
20
10.6070767
40
0.1663593
50
89.9990932
51
93.0754584
0
ARC
8
DEFAULT_255_2_778
10
7.3568849
20
10.6065731
40
0.1668628
50
44.1782693
51
90.0064716
0
ARC
8
DEFAULT_255_2_778
10
7.2712785
20
10.5200708
40
0.2885502
50
26.8220388
51
44.6506227
0
ARC
8
DEFAULT_255_2_778
10
-3.5115338
20
4.3761105
40
12.6985711
50
29.5910557
51
29.609363
0
ARC
8
DEFAULT_255_2_778
10
8.8635132
20
11.4012131
40
1.5314636
50
209.5146839
51
210.0917418
0
ARC
8
DEFAULT_255_2_778
10
7.964363
20
9.4768041
40
0.239682
50
265.2114508
51
269.9949751
0
ARC
8
DEFAULT_255_2_778
10
7.9517298
20
9.5125244
40
0.2756909
50
272.6220537
51
354.4449112
0
ARC
8
DEFAULT_255_2_778
10
7.9099423
20
9.5283633
40
0.3190307
50
352.3397252
51
357.8794886
0
ARC
8
DEFAULT_255_2_778
10
8.0006519
20
9.5252205
40
0.2282672
50
357.8253247
51
0.0011392
0
ARC
8
DEFAULT_255_2_778
10
7.9403231
20
9.5117987
40
0.2889081
50
2.6636446
51
87.9965444
0
ARC
8
DEFAULT_255_2_778
10
7.9504106
20
9.5610245
40
0.2395058
50
89.9969876
51
91.4010292
0
ARC
8
DEFAULT_255_2_778
10
7.9456711
20
9.5178436
40
0.2826172
50
90.2263339
51
180.1388646
0
ARC
8
DEFAULT_255_2_778
10
7.9225815
20
9.5178928
40
0.2595279
50
180.1620875
51
191.1697046
0
ARC
8
DEFAULT_255_2_778
10
7.9395076
20
9.5119026
40
0.2751253
50
189.2626559
51
266.8853879
0
ARC
8
DEFAULT_255_2_778
10
7.9244972
20
9.4844043
40
0.2472205
50
270.0143491
51
274.5373874
0
ARC
8
DEFAULT_255_2_778
10
11.044798
20
9.9230119
40
0.076426
50
130.1152017
51
162.9503233
0
LINE
8
DEFAULT_255_2_778
10
10.9717309
20
9.94542
11
10.9716599
21
9.9452483
0
ARC
8
DEFAULT_255_2_778
10
10.8005637
20
10.0126858
40
0.1839068
50
332.8827425
51
338.4881432
0
ARC
8
DEFAULT_255_2_778
10
10.4969427
20
10.1550929
40
0.519194
50
301.3689926
51
334.1675324
0
ARC
8
DEFAULT_255_2_778
10
10.526256
20
10.140011
40
0.491358
50
268.7914551
51
299.3655301
0
ARC
8
DEFAULT_255_2_778
10
10.5159956
20
10.312777
40
0.6640148
50
268.0201058
51
269.9911034
0
ARC
8
DEFAULT_255_2_778
10
10.507902
20
10.0765708
40
0.42767
50
256.6370235
51
268.0104747
0
ARC
8
DEFAULT_255_2_778
10
10.5224364
20
10.1354297
40
0.4882947
50
213.8365621
51
256.5739568
0
ARC
8
DEFAULT_255_2_778
10
10.5057488
20
10.1210211
40
0.4664182
50
197.1021438
51
213.507824
0
ARC
8
DEFAULT_255_2_778
10
10.382375
20
10.0979835
40
0.3420224
50
186.9910913
51
199.4920744
0
ARC
8
DEFAULT_255_2_778
10
6.5819763
20
9.5072769
40
3.5042042
50
9.0148829
51
9.1639835
0
ARC
8
DEFAULT_255_2_778
10
10.3358428
20
10.1133436
40
0.2982733
50
179.5723049
51
189.2577376
0
ARC
8
DEFAULT_255_2_778
10
10.8536848
20
10.1051507
40
0.8161734
50
174.8676232
51
179.2685323
0
ARC
8
DEFAULT_255_2_778
10
7.4620156
20
10.3798953
40
2.5866466
50
355.5269711
51
355.9673704
0
ARC
8
DEFAULT_255_2_778
10
9.4258155
20
10.2443706
40
0.618185
50
355.6972725
51
359.656435
0
ARC
8
DEFAULT_255_2_778
10
9.7127227
20
10.2415685
40
0.331268
50
359.8435057
51
4.9510774
0
ARC
8
DEFAULT_255_2_778
10
10.2664011
20
10.1319743
40
0.2628928
50
146.096243
51
148.2893286
0
ARC
8
DEFAULT_255_2_778
10
13.6304251
20
7.894277
40
4.3031804
50
146.3229998
51
146.3521087
0
ARC
8
DEFAULT_255_2_778
10
9.9421744
20
10.3570079
40
0.1317749
50
324.4729971
51
335.784871
0
ARC
8
DEFAULT_255_2_778
10
10.5326999
20
10.1265316
40
0.5023456
50
114.0528018
51
159.4388695
0
ARC
8
DEFAULT_255_2_778
10
10.271806
20
10.7074429
40
0.1344681
50
294.6807034
51
300.100369
0
ARC
8
DEFAULT_255_2_778
10
11.0780865
20
9.3400161
40
1.4529692
50
119.9657286
51
120.5643187
0
ARC
8
DEFAULT_255_2_778
10
10.2322902
20
10.6442526
40
0.1283947
50
339.2476571
51
1.6945871
0
ARC
8
DEFAULT_255_2_778
10
9.8591565
20
10.6451287
40
0.5014805
50
0.3337151
51
2.4325686
0
ARC
8
DEFAULT_255_2_778
10
10.8553504
20
10.6876089
40
0.4956185
50
180.3644882
51
182.4510505
0
ARC
8
DEFAULT_255_2_778
10
10.5850467
20
10.6844946
40
0.2253046
50
179.3988133
51
180.0098292
0
ARC
8
DEFAULT_255_2_778
10
11.6260339
20
11.5585519
40
1.2657899
50
178.8125055
51
180.2350742
0
ARC
8
DEFAULT_255_2_778
10
10.6891175
20
11.581118
40
0.328622
50
169.9334155
51
179.3607404
0
ARC
8
DEFAULT_255_2_778
10
10.5409205
20
11.6059811
40
0.1783661
50
91.6451685
51
169.4761711
0
ARC
8
DEFAULT_255_2_778
10
10.535808
20
11.6276908
40
0.1565828
50
84.5224748
51
90.0030453
0
ARC
8
DEFAULT_255_2_778
10
10.536873
20
11.6068802
40
0.177223
50
2.2890505
51
85.5074664
0
ARC
8
DEFAULT_255_2_778
10
10.2866619
20
11.5872515
40
0.4281266
50
359.6910501
51
3.5765147
0
ARC
8
DEFAULT_255_2_778
10
9.0710713
20
11.5877823
40
1.6437134
50
359.3185626
51
359.9010286
0
ARC
8
DEFAULT_255_2_778
10
12.3624871
20
11.5486669
40
1.6479348
50
179.3196871
51
179.9029358
0
ARC
8
DEFAULT_255_2_778
10
10.5064545
20
10.1226991
40
0.5091308
50
16.6830206
51
65.8745356
0
ARC
8
DEFAULT_255_2_778
10
12.0879826
20
10.4083964
40
1.1026923
50
187.2698559
51
189.9537562
0
ARC
8
DEFAULT_255_2_778
10
10.4289995
20
10.1053673
40
0.5838136
50
1.5779493
51
11.0945958
0
ARC
8
DEFAULT_255_2_778
10
10.7481688
20
10.1210074
40
0.2644232
50
354.4553843
51
0.0945446
0
ARC
8
DEFAULT_255_2_778
10
10.7452723
20
10.1285637
40
0.2681339
50
343.9096787
51
352.9079117
0
LINE
8
DEFAULT_255_2_778
10
11.0029023
20
10.0542497
11
11.0025407
21
10.05286
0
ARC
8
DEFAULT_255_2_778
10
11.1981516
20
9.9933878
40
0.2044519
50
163.0889652
51
177.7332103
0
ARC
8
DEFAULT_255_2_778
10
11.0919108
20
10.0012133
40
0.0980515
50
179.8474236
51
190.6701086
0
ARC
8
DEFAULT_255_2_778
10
10.5171844
20
10.1382694
40
0.1999669
50
88.4037551
51
89.998908
0
ARC
8
DEFAULT_255_2_778
10
10.5171185
20
10.1392759
40
0.1989604
50
89.9799257
51
134.2223212
0
ARC
8
DEFAULT_255_2_778
10
10.517298
20
10.1396125
40
0.1988447
50
134.3270366
51
180.003809
0
ARC
8
DEFAULT_255_2_778
10
10.5471371
20
10.1396612
40
0.2286838
50
180.0155234
51
180.2010793
0
ARC
8
DEFAULT_255_2_778
10
10.5386061
20
10.1358177
40
0.2201725
50
179.2086256
51
180.0030181
0
ARC
8
DEFAULT_255_2_778
10
10.52124
20
10.1326879
40
0.2028302
50
179.1191247
51
270.1532604
0
LINE
8
DEFAULT_255_2_778
10
10.5217825
20
9.9298583
11
10.5221547
21
9.9298587
0
ARC
8
DEFAULT_255_2_778
10
10.5213445
20
10.1368017
40
0.2069447
50
270.2243034
51
359.56896
0
ARC
8
DEFAULT_255_2_778
10
10.5227571
20
10.1352299
40
0.2055263
50
0.0041694
51
0.9558861
0
ARC
8
DEFAULT_255_2_778
10
10.5247756
20
10.1348542
40
0.2035146
50
1.0711408
51
89.9930121
0
ARC
8
DEFAULT_255_2_778
10
10.524822
20
10.1288922
40
0.2094765
50
90.0058947
51
90.5654521
0
ARC
8
DEFAULT_255_2_778
10
10.5628518
20
1.4158172
40
0.5133941
50
118.9511413
51
152.0230669
0
ARC
8
DEFAULT_255_2_778
10
10.5269359
20
1.4511357
40
0.4653245
50
89.1547923
51
117.1862477
0
ARC
8
DEFAULT_255_2_778
10
10.5334383
20
1.3135955
40
0.6028143
50
85.8888796
51
89.9656292
0
ARC
8
DEFAULT_255_2_778
10
10.5576109
20
1.4536856
40
0.461566
50
22.3069954
51
87.6353544
0
ARC
8
DEFAULT_255_2_778
10
10.3508279
20
1.3353856
40
0.6984634
50
22.1260492
51
24.8473868
0
ARC
8
DEFAULT_255_2_778
10
10.6074374
20
1.4503658
40
0.4194106
50
357.1744548
51
16.5105096
0
ARC
8
DEFAULT_255_2_778
10
-2.6178267
20
1.3891414
40
13.6442249
50
0.1462602
51
0.1702789
0
ARC
8
DEFAULT_255_2_778
10
12.6973579
20
1.4218272
40
1.6710055
50
179.9264851
51
181.2574006
0
ARC
8
DEFAULT_255_2_778
10
10.9534879
20
1.3834552
40
0.0732865
50
0.0080966
51
1.3318496
0
ARC
8
DEFAULT_255_2_778
10
10.8855271
20
1.3902289
40
0.1414092
50
340.4045704
51
357.2586305
0
ARC
8
DEFAULT_255_2_778
10
12.7546829
20
0.8185305
40
1.8133774
50
163.1950719
51
163.3092364
0
ARC
8
DEFAULT_255_2_778
10
11.1397867
20
1.2971162
40
0.1291783
50
160.9197433
51
177.6349025
0
ARC
8
DEFAULT_255_2_778
10
11.0751324
20
1.3022279
40
0.0644142
50
179.8050989
51
194.4459887
0
ARC
8
DEFAULT_255_2_778
10
10.9731467
20
1.3149905
40
0.0489905
50
318.1091008
51
323.9479787
0
ARC
8
DEFAULT_255_2_778
10
11.2656119
20
1.0555835
40
0.3419427
50
138.4737197
51
138.9909992
0
ARC
8
DEFAULT_255_2_778
10
11.0241837
20
1.2644394
40
0.0227275
50
136.9341009
51
155.7925118
0
ARC
8
DEFAULT_255_2_778
10
10.5303969
20
1.4421475
40
0.5021339
50
292.3271325
51
340.4063906
0
ARC
8
DEFAULT_255_2_778
10
10.7298415
20
0.956393
40
0.0229715
50
112.2195303
51
130.1917234
0
ARC
8
DEFAULT_255_2_778
10
10.9792079
20
0.6534926
40
0.4153119
50
129.5036199
51
130.4563713
0
ARC
8
DEFAULT_255_2_778
10
10.6674749
20
1.0205493
40
0.0662626
50
307.3277186
51
309.6142316
0
ARC
8
DEFAULT_255_2_778
10
10.7845401
20
0.9295062
40
0.0859202
50
153.4887695
51
182.4782119
0
ARC
8
DEFAULT_255_2_778
10
11.0404787
20
0.9285974
40
0.3417899
50
180.4704552
51
183.6710508
0
ARC
8
DEFAULT_255_2_778
10
13.7246002
20
1.0761656
40
3.0299522
50
183.2059809
51
183.2353989
0
ARC
8
DEFAULT_255_2_778
10
10.3328668
20
0.8810141
40
0.367405
50
0.5527774
51
3.7682144
0
ARC
8
DEFAULT_255_2_778
10
12.3364885
20
0.0048258
40
1.6367355
50
180.0828656
51
180.5511029
0
ARC
8
DEFAULT_255_2_778
10
9.0511262
20
-0.0267002
40
1.648778
50
0.0784449
51
0.548482
0
ARC
8
DEFAULT_255_2_778
10
10.0610328
20
-0.0247539
40
0.6388699
50
359.2970982
51
0.0279016
0
ARC
8
DEFAULT_255_2_778
10
10.4188668
20
-0.0317532
40
0.2809891
50
352.6620953
51
359.8290953
0
ARC
8
DEFAULT_255_2_778
10
10.5216873
20
-0.0389978
40
0.1781847
50
272.9813038
51
350.7494455
0
ARC
8
DEFAULT_255_2_778
10
10.5237576
20
-0.058332
40
0.1587726
50
269.9957173
51
272.5980612
0
ARC
8
DEFAULT_255_2_778
10
10.5256378
20
-0.0416035
40
0.1755114
50
192.7509859
51
269.3823332
0
ARC
8
DEFAULT_255_2_778
10
10.7479147
20
-0.0073606
40
0.4001712
50
180.8531649
51
190.5080618
0
ARC
8
DEFAULT_255_2_778
10
11.9876472
20
0.0294697
40
1.6404173
50
180.3147364
51
181.4946797
0
ARC
8
DEFAULT_255_2_778
10
10.8895258
20
0.8914703
40
0.5432805
50
177.707669
51
179.6637443
0
ARC
8
DEFAULT_255_2_778
10
9.7993827
20
0.9349942
40
0.547731
50
357.7196494
51
359.6836847
0
ARC
8
DEFAULT_255_2_778
10
10.2094969
20
0.935914
40
0.137665
50
358.3584082
51
19.7612079
0
ARC
8
DEFAULT_255_2_778
10
15.1091081
20
7.2065538
40
7.8417326
50
232.433801
51
232.5339845
0
ARC
8
DEFAULT_255_2_778
10
10.2687491
20
0.9130294
40
0.0978853
50
52.6171623
51
60.8996619
0
ARC
8
DEFAULT_255_2_778
10
10.5382931
20
1.42916
40
0.4844319
50
197.5285127
51
242.7327424
0
ARC
8
DEFAULT_255_2_778
10
9.9372197
20
1.2275306
40
0.1498805
50
21.8276878
51
32.2489064
0
ARC
8
DEFAULT_255_2_778
10
1.1243639
20
-3.9928874
40
10.3928294
50
30.6641569
51
30.673562
0
ARC
8
DEFAULT_255_2_778
10
10.4260239
20
1.5260104
40
0.4228615
50
209.5194291
51
210.8809777
0
ARC
8
DEFAULT_255_2_778
10
-1.7154614
20
1.1876787
40
11.7742335
50
0.6325213
51
0.7510928
0
ARC
8
DEFAULT_255_2_778
10
14.8253437
20
1.4129699
40
4.768111
50
180.1222302
51
180.8525587
0
ARC
8
DEFAULT_255_2_778
10
10.9722267
20
1.4226815
40
0.9151992
50
169.0287668
51
181.2448987
0
ARC
8
DEFAULT_255_2_778
10
10.5331357
20
1.5036004
40
0.1325604
50
86.834943
51
90.0085037
0
ARC
8
DEFAULT_255_2_778
10
10.5333743
20
1.4921462
40
0.1440149
50
90.1027823
51
99.3912618
0
ARC
8
DEFAULT_255_2_778
10
10.5557672
20
1.418824
40
0.2202413
50
102.0270678
51
176.4246128
0
ARC
8
DEFAULT_255_2_778
10
10.5525928
20
1.4431476
40
0.2168968
50
182.7983119
51
268.1933251
0
ARC
8
DEFAULT_255_2_778
10
10.5364515
20
1.4355377
40
0.2093858
50
272.5465496
51
358.6673418
0
ARC
8
DEFAULT_255_2_778
10
10.5496294
20
1.4306774
40
0.1961512
50
359.9972364
51
0.9292859
0
ARC
8
DEFAULT_255_2_778
10
10.5368177
20
1.427249
40
0.2090415
50
1.8119376
51
89.0031063
0
ARC
8
DEFAULT_255_2_778
10
8.7391484
20
1.6955778
40
0.0507244
50
81.6041949
51
89.9473761
0
ARC
8
DEFAULT_255_2_778
10
8.741447
20
1.6837741
40
0.0625688
50
92.062659
51
124.9490185
0
ARC
8
DEFAULT_255_2_778
10
8.7814364
20
1.6139868
40
0.1428601
50
122.060284
51
123.3231381
0
ARC
8
DEFAULT_255_2_778
10
8.4740713
20
2.0791594
40
0.4146876
50
271.1721951
51
303.5003256
0
ARC
8
DEFAULT_255_2_778
10
8.4825676
20
1.6410485
40
0.0235101
50
90.0315942
51
90.9159187
0
ARC
8
DEFAULT_255_2_778
10
8.5045982
20
1.5227986
40
0.143517
50
98.9819711
51
110.5779281
0
ARC
8
DEFAULT_255_2_778
10
7.6976425
20
1.1096573
40
0.3760679
50
314.3981544
51
332.2162518
0
ARC
8
DEFAULT_255_2_778
10
7.8468063
20
0.9694166
40
0.1717139
50
269.9683777
51
311.57458
0
ARC
8
DEFAULT_255_2_778
10
7.8467119
20
0.9696376
40
0.1719349
50
268.6348842
51
269.9998585
0
ARC
8
DEFAULT_255_2_778
10
7.8466526
20
0.9692382
40
0.1715344
50
238.7068255
51
268.6515331
0
ARC
8
DEFAULT_255_2_778
10
7.844227
20
0.9693169
40
0.1703547
50
179.993384
51
239.4176761
0
ARC
8
DEFAULT_255_2_778
10
7.8528604
20
0.9691443
40
0.1789882
50
166.8939171
51
179.9384751
0
ARC
8
DEFAULT_255_2_778
10
7.8604119
20
0.9676064
40
0.1866917
50
164.4487039
51
166.9597315
0
ARC
8
DEFAULT_255_2_778
10
8.1112523
20
0.879167
40
0.4524162
50
146.6223106
51
162.1747055
0
LINE
8
DEFAULT_255_2_778
10
7.7334567
20
1.1280663
11
7.7346271
21
1.1300238
0
ARC
8
DEFAULT_255_2_778
10
5.7353265
20
2.3297133
40
2.3316213
50
329.0339425
51
329.6035433
0
ARC
8
DEFAULT_255_2_778
10
8.511016
20
2.0800445
40
0.4454849
50
180.4634353
51
214.197852
0
ARC
8
DEFAULT_255_2_778
10
8.5143992
20
2.0757033
40
0.4488543
50
169.0247188
51
179.905804
0
ARC
8
DEFAULT_255_2_778
10
8.47388
20
2.0694359
40
0.4105038
50
136.8165213
51
167.0888616
0
ARC
8
DEFAULT_255_2_778
10
8.4853124
20
2.0826291
40
0.4101822
50
139.189193
51
139.2538534
0
ARC
8
DEFAULT_255_2_778
10
5.3242782
20
4.8111395
40
3.7655698
50
319.2014202
51
319.2679469
0
ARC
8
DEFAULT_255_2_778
10
8.1247019
20
2.4112145
40
0.0779818
50
312.8258396
51
354.734982
0
ARC
8
DEFAULT_255_2_778
10
8.2035322
20
2.4748027
40
0.0707538
50
269.0463956
51
270.0080424
0
ARC
8
DEFAULT_255_2_778
10
8.1947108
20
2.5215234
40
0.117806
50
274.2992107
51
305.8921252
0
LINE
8
DEFAULT_255_2_778
10
8.2637759
20
2.4260861
11
8.263972
21
2.4262023
0
ARC
8
DEFAULT_255_2_778
10
8.4702723
20
2.0840013
40
0.3995764
50
118.378713
51
121.0842197
0
ARC
8
DEFAULT_255_2_778
10
8.5293961
20
1.9437789
40
0.5512431
50
114.874806
51
116.8580412
0
ARC
8
DEFAULT_255_2_778
10
8.4851061
20
2.0538553
40
0.4327919
50
90.6555152
51
115.6851717
0
ARC
8
DEFAULT_255_2_778
10
8.4765471
20
2.0870431
40
0.399592
50
55.6779381
51
89.482716
0
ARC
8
DEFAULT_255_2_778
10
8.4919371
20
2.0844559
40
0.3933065
50
358.1835435
51
57.7425052
0
ARC
8
DEFAULT_255_2_778
10
8.3406464
20
2.0722534
40
0.5443995
50
356.2089353
51
359.9721643
0
ARC
8
DEFAULT_255_2_778
10
8.3936182
20
2.1314042
40
0.5089709
50
315.3256412
51
342.0278305
0
ARC
8
DEFAULT_255_2_778
10
8.7798429
20
1.7544794
40
0.0308858
50
141.8491155
51
175.6490089
0
ARC
8
DEFAULT_255_2_778
10
8.4919467
20
1.8046783
40
0.2615154
50
348.3819557
51
349.4558004
0
ARC
8
DEFAULT_255_2_778
10
8.6872511
20
1.7641975
40
0.0620609
50
341.9408127
51
348.6772325
0
ARC
8
DEFAULT_255_2_778
10
8.4745818
20
2.0648991
40
0.1359753
50
89.1265188
51
89.9936336
0
ARC
8
DEFAULT_255_2_778
10
8.4726977
20
2.0752191
40
0.1256696
50
89.1340922
51
179.2323074
0
ARC
8
DEFAULT_255_2_778
10
8.4716225
20
2.0769047
40
0.1245831
50
180.000841
51
180.895015
0
ARC
8
DEFAULT_255_2_778
10
8.476615
20
2.0778589
40
0.1295928
50
181.2823905
51
266.8769307
0
ARC
8
DEFAULT_255_2_778
10
8.4743858
20
2.0807266
40
0.1323561
50
267.9081941
51
269.9981422
0
ARC
8
DEFAULT_255_2_778
10
8.4750682
20
2.0762448
40
0.1278762
50
269.6923339
51
357.8550503
0
ARC
8
DEFAULT_255_2_778
10
8.4751145
20
2.0754583
40
0.1278028
50
358.2065933
51
359.9996493
0
ARC
8
DEFAULT_255_2_778
10
8.4769222
20
2.0748626
40
0.1259965
50
0.2705366
51
90.121642
0
ARC
8
DEFAULT_255_2_778
10
12.8666558
20
9.1704398
40
0.0476686
50
66.5116689
51
89.6339571
0
ARC
8
DEFAULT_255_2_778
10
12.8716812
20
9.1444669
40
0.0737918
50
93.6680142
51
122.950307
0
ARC
8
DEFAULT_255_2_778
10
13.2484851
20
8.45515
40
0.859185
50
119.0304246
51
119.4844942
0
ARC
8
DEFAULT_255_2_778
10
12.6865496
20
9.4461815
40
0.2800782
50
297.05792
51
299.7677744
0
ARC
8
DEFAULT_255_2_778
10
12.6150616
20
9.579434
40
0.4312759
50
270.7775392
51
297.4628667
0
ARC
8
DEFAULT_255_2_778
10
12.6209142
20
9.520869
40
0.3726713
50
269.2778454
51
269.999989
0
ARC
8
DEFAULT_255_2_778
10
12.6235521
20
9.5410848
40
0.392926
50
242.3413637
51
268.9303733
0
ARC
8
DEFAULT_255_2_778
10
12.611447
20
9.5531893
40
0.3983636
50
181.0831839
51
244.6922803
0
ARC
8
DEFAULT_255_2_778
10
12.751301
20
9.5746072
40
0.5389244
50
180.0559617
51
183.0791535
0
ARC
8
DEFAULT_255_2_778
10
13.0148989
20
9.5768566
40
0.8025268
50
180.0000004
51
180.1981693
0
ARC
8
DEFAULT_255_2_778
10
13.8554735
20
9.5715054
40
1.6431102
50
178.6905199
51
179.8134043
0
ARC
8
DEFAULT_255_2_778
10
9.7934473
20
9.6601498
40
2.4198846
50
358.7901347
51
359.3064536
0
ARC
8
DEFAULT_255_2_778
10
12.8012427
20
9.4680028
40
0.6102209
50
139.3084491
51
164.5213014
0
ARC
8
DEFAULT_255_2_778
10
12.6471279
20
9.4812033
40
0.49313
50
91.5619532
51
128.736836
0
ARC
8
DEFAULT_255_2_778
10
12.6336873
20
9.5448995
40
0.4292507
50
88.8163073
51
90.0001337
0
ARC
8
DEFAULT_255_2_778
10
13.2509337
20
10.6590017
40
0.1787934
50
90.1392194
51
154.57652
0
ARC
8
DEFAULT_255_2_778
10
13.2501327
20
10.6103218
40
0.2274731
50
83.5579826
51
89.9076847
0
ARC
8
DEFAULT_255_2_778
10
13.2551733
20
10.6653131
40
0.1722674
50
359.9531461
51
83.1717991
0
ARC
8
DEFAULT_255_2_778
10
13.2548467
20
10.6652378
40
0.172594
50
346.549809
51
359.9782493
0
ARC
8
DEFAULT_255_2_778
10
13.2509555
20
10.6660572
40
0.1765692
50
344.933111
51
346.584916
0
ARC
8
DEFAULT_255_2_778
10
13.0984912
20
10.7196377
40
0.3379371
50
327.9924523
51
342.8801544
0
ARC
8
DEFAULT_255_2_778
10
7.0487868
20
14.1828235
40
7.3085333
50
330.0347033
51
330.1082405
0
ARC
8
DEFAULT_255_2_778
10
16.6875892
20
8.627194
40
3.8167323
50
150.0549158
51
150.1247529
0
ARC
8
DEFAULT_255_2_778
10
13.0140117
20
9.8087984
40
0.0520195
50
168.9613411
51
179.8212719
0
ARC
8
DEFAULT_255_2_778
10
13.0230161
20
9.8119054
40
0.0610947
50
182.7627217
51
216.6264532
0
ARC
8
DEFAULT_255_2_778
10
12.4240315
20
9.4298288
40
0.6495441
50
31.645631
51
32.1480163
0
ARC
8
DEFAULT_255_2_778
10
12.8815354
20
9.7114726
40
0.1122986
50
28.0375496
51
31.7833005
0
ARC
8
DEFAULT_255_2_778
10
12.6107876
20
9.5554074
40
0.4247593
50
1.2398203
51
29.4519224
0
ARC
8
DEFAULT_255_2_778
10
12.6847653
20
9.5647367
40
0.3506822
50
349.5712303
51
359.9773468
0
ARC
8
DEFAULT_255_2_778
10
13.1769555
20
9.4730155
40
0.149984
50
169.1459614
51
171.9836849
0
ARC
8
DEFAULT_255_2_778
10
13.1514615
20
9.4762991
40
0.1242816
50
171.8436308
51
179.8289704
0
ARC
8
DEFAULT_255_2_778
10
13.1187733
20
9.4758535
40
0.0915965
50
179.489251
51
198.1908744
0
ARC
8
DEFAULT_255_2_778
10
13.009528
20
9.4828502
40
0.0419617
50
296.3910331
51
301.9845532
0
ARC
8
DEFAULT_255_2_778
10
11.634984
20
12.1676171
40
3.0581388
50
297.0832177
51
297.1016031
0
ARC
8
DEFAULT_255_2_778
10
13.031333
20
9.4327255
40
0.0127424
50
108.4230933
51
154.2636109
0
ARC
8
DEFAULT_255_2_778
10
12.6149467
20
9.5873119
40
0.4314711
50
312.3938794
51
339.7905148
0
ARC
8
DEFAULT_255_2_778
10
12.9442717
20
9.2244296
40
0.0585839
50
130.9773792
51
181.4644453
0
ARC
8
DEFAULT_255_2_778
10
12.9728614
20
9.2231167
40
0.0871547
50
180.1211873
51
186.4284812
0
LINE
8
DEFAULT_255_2_778
10
12.7496547
20
9.5615587
11
12.7496548
21
9.5617454
0
ARC
8
DEFAULT_255_2_778
10
12.6200397
20
9.5616661
40
0.1296151
50
0.0350468
51
88.9324289
0
LINE
8
DEFAULT_255_2_778
10
12.6224547
20
9.6912587
11
12.6221323
21
9.6912591
0
ARC
8
DEFAULT_255_2_778
10
12.6289936
20
9.5573577
40
0.1340771
50
92.9333837
51
178.6319893
0
ARC
8
DEFAULT_255_2_778
10
12.614677
20
9.5595089
40
0.1197269
50
179.4976192
51
179.9886339
0
ARC
8
DEFAULT_255_2_778
10
12.6264063
20
9.5628227
40
0.1314972
50
181.433712
51
268.7138192
0
LINE
8
DEFAULT_255_2_778
10
12.6234547
20
9.4313587
11
12.6238038
21
9.4313581
0
ARC
8
DEFAULT_255_2_778
10
12.6208879
20
9.5600962
40
0.128771
50
271.2975052
51
0.403507
0
ARC
8
DEFAULT_255_2_778
10
12.621027
20
9.5610493
40
0.1286288
50
359.9793892
51
0.2268863
0
LINE
8
DEFAULT_255_2_778
10
13.5889547
20
1.5232587
11
13.8292547
21
1.1123587
0
LINE
8
DEFAULT_255_2_778
10
13.5135547
20
0.9507587
11
13.2299547
21
1.4356587
0
LINE
8
DEFAULT_255_2_778
10
13.2299547
20
1.4356587
11
13.1984547
21
1.4862587
0
LINE
8
DEFAULT_255_2_778
10
13.5214547
20
1.6502587
11
13.5212547
21
1.6499587
0
LINE
8
DEFAULT_255_2_778
10
13.1164547
20
2.3262587
11
13.1164547
21
2.3268587
0
LINE
8
DEFAULT_255_2_778
10
7.5032547
20
9.9925587
11
7.2236547
21
10.4704587
0
LINE
8
DEFAULT_255_2_778
10
7.5384547
20
10.6333587
11
7.8297547
21
10.1349587
0
LINE
8
DEFAULT_255_2_778
10
7.8297547
20
10.1349587
11
7.8654547
21
10.0801587
0
LINE
8
DEFAULT_255_2_778
10
7.8654547
20
10.0801587
11
7.8652547
21
10.0804587
0
LINE
8
DEFAULT_255_2_778
10
7.9440547
20
9.2379587
11
7.9443547
21
9.2379587
0
LINE
8
DEFAULT_255_2_778
10
10.3597547
20
10.6868587
11
10.3602547
21
11.5533587
0
LINE
8
DEFAULT_255_2_778
10
10.7145547
20
11.5514587
11
10.7145547
21
10.5873587
0
LINE
8
DEFAULT_255_2_778
10
10.9955547
20
9.9830587
11
10.9955547
21
9.9814587
0
LINE
8
DEFAULT_255_2_778
10
10.5227547
20
10.3383587
11
10.5227547
21
10.3381587
0
LINE
8
DEFAULT_255_2_778
10
10.0739547
20
1.5970587
11
10.1094547
21
1.6566587
0
LINE
8
DEFAULT_255_2_778
10
10.9978547
20
1.5984587
11
11.0095547
21
1.5695587
0
LINE
8
DEFAULT_255_2_778
10
10.7002547
20
0.8845587
11
10.6997547
21
0.0024587
0
LINE
8
DEFAULT_255_2_778
10
10.3472547
20
0.0204587
11
10.3462547
21
0.8946587
0
LINE
8
DEFAULT_255_2_778
10
10.0737547
20
1.5968587
11
10.0739547
21
1.5970587
0
LINE
8
DEFAULT_255_2_778
10
10.5404547
20
1.6362587
11
10.5404547
21
1.6359587
0
LINE
8
DEFAULT_255_2_778
10
8.4541547
20
1.6571587
11
8.3293547
21
1.4462587
0
LINE
8
DEFAULT_255_2_778
10
8.3293547
20
1.4462587
11
8.0303547
21
0.9343587
0
LINE
8
DEFAULT_255_2_778
10
7.7464547
20
1.1499587
11
8.1208547
21
1.7899587
0
LINE
8
DEFAULT_255_2_778
10
8.1208547
20
1.7899587
11
8.1425547
21
1.8296587
0
LINE
8
DEFAULT_255_2_778
10
8.8838547
20
2.0362587
11
8.8777547
21
1.9743587
0
LINE
8
DEFAULT_255_2_778
10
8.7462547
20
1.7449587
11
8.7465547
21
1.7457587
0
LINE
8
DEFAULT_255_2_778
10
8.4766547
20
2.2008587
11
8.4766547
21
2.2008587
0
LINE
8
DEFAULT_255_2_778
10
12.6425547
20
9.9740587
11
12.8647547
21
10.3518587
0
LINE
8
DEFAULT_255_2_778
10
12.8647547
20
10.3518587
11
13.0894547
21
10.7357587
0
LINE
8
DEFAULT_255_2_778
10
13.3780547
20
10.5283587
11
12.9759547
21
9.8417587
0
LINE
8
DEFAULT_255_2_778
10
12.9759547
20
9.8417587
11
12.9629547
21
9.8187587
0
LINE
8
DEFAULT_255_2_778
10
12.8862547
20
9.2133587
11
12.8856547
21
9.2141587
0
LINE
8
DEFAULT_255_2_778
10
12.7496547
20
9.5615587
11
12.7496547
21
9.5615587
0
ARC
8
DEFAULT_255_2_778
10
6.8831736
20
4.1250463
40
0.4592118
50
269.9889906
51
0.0234826
0
ARC
8
DEFAULT_255_2_778
10
6.883061
20
4.1251101
40
0.4592756
50
179.9844807
51
270.0030399
0
ARC
8
DEFAULT_255_2_778
10
6.8830396
20
7.1266803
40
0.4592543
50
89.994295
51
180.0057075
0
ARC
8
DEFAULT_255_2_778
10
6.8831949
20
7.1267442
40
0.4591904
50
359.9863221
51
90.0136691
0
LINE
8
DEFAULT_255_2_778
10
6.4237853
20
4.1252345
11
6.4237853
21
7.1266345
0
LINE
8
DEFAULT_255_2_778
10
7.3423853
20
7.1266345
11
7.3423853
21
4.1252345
0
ARC
8
DEFAULT_255_2_778
10
6.8807055
20
4.1272995
40
0.4585289
50
90.0036092
51
179.9963908
0
ARC
8
DEFAULT_255_2_778
10
6.8807117
20
4.1273635
40
0.4584648
50
359.9956048
51
90.0043863
0
ARC
8
DEFAULT_255_2_778
10
6.8806902
20
4.1272147
40
0.4584864
50
269.9983
51
0.0142049
0
ARC
8
DEFAULT_255_2_778
10
6.880727
20
4.1272787
40
0.4585503
50
179.9937915
51
269.9937047
0
ARC
8
DEFAULT_255_2_778
10
6.8807055
20
7.1228995
40
0.4585289
50
90.0036092
51
179.9963908
0
ARC
8
DEFAULT_255_2_778
10
6.8807119
20
7.1229637
40
0.4584647
50
359.9955897
51
90.0044014
0
ARC
8
DEFAULT_255_2_778
10
6.8807758
20
7.1228292
40
0.4584008
50
269.9876014
51
0.0123898
0
ARC
8
DEFAULT_255_2_778
10
6.8806416
20
7.1228933
40
0.4584649
50
179.9956155
51
270.0043819
0
LINE
8
DEFAULT_255_2_778
10
6.4221766
20
4.1273284
11
6.4221766
21
4.1273284
0
LINE
8
DEFAULT_255_2_778
10
6.4221766
20
7.1229284
11
6.4221766
21
7.1229284
0
ARC
8
DEFAULT_255_2_778
10
6.8807457
20
4.1270502
40
0.1805266
50
89.9766973
51
180.0233027
0
ARC
8
DEFAULT_255_2_778
10
6.8808287
20
4.1269864
40
0.1805905
50
359.9969762
51
90.0030238
0
ARC
8
DEFAULT_255_2_778
10
6.8807646
20
4.1270315
40
0.1806546
50
270.017304
51
359.9826577
0
ARC
8
DEFAULT_255_2_778
10
6.8808098
20
4.1269674
40
0.1805906
50
179.9970145
51
270.0029538
0
LINE
8
DEFAULT_255_2_778
10
6.7002191
20
4.1269768
11
6.7002191
21
4.1269768
0
ARC
8
DEFAULT_255_2_778
10
14.0473251
20
8.108216
40
0.134797
50
290.2687023
51
359.8937186
0
ARC
8
DEFAULT_255_2_778
10
14.0405337
20
8.1161464
40
0.1446343
50
270.5083122
51
291.7043088
0
ARC
8
DEFAULT_255_2_778
10
14.0443579
20
8.1099391
40
0.1384447
50
226.6498611
51
268.9483093
0
ARC
8
DEFAULT_255_2_778
10
14.1112906
20
8.1807814
40
0.2359055
50
209.9513918
51
226.6397591
0
ARC
8
DEFAULT_255_2_778
10
14.2972929
20
8.3012595
40
0.4573626
50
211.2098539
51
211.3951741
0
ARC
8
DEFAULT_255_2_778
10
9.7729364
20
5.5491932
40
4.8382655
50
31.3208106
51
38.8029962
0
ARC
8
DEFAULT_255_2_778
10
13.77054
20
8.7659238
40
0.2928397
50
206.9585809
51
219.1431035
0
ARC
8
DEFAULT_255_2_778
10
13.633786
20
8.697012
40
0.1397064
50
182.9577351
51
207.1937838
0
ARC
8
DEFAULT_255_2_778
10
13.6343244
20
8.6970471
40
0.1402457
50
180.001482
51
182.9607052
0
ARC
8
DEFAULT_255_2_778
10
13.6344279
20
8.697108
40
0.1403492
50
130.8534386
51
180.0263154
0
ARC
8
DEFAULT_255_2_778
10
13.6314306
20
8.698705
40
0.137186
50
89.9723379
51
130.3428747
0
ARC
8
DEFAULT_255_2_778
10
13.6314891
20
8.6974808
40
0.1384102
50
88.4203595
51
89.9967881
0
ARC
8
DEFAULT_255_2_778
10
13.6310322
20
8.6945817
40
0.1413214
50
50.0793736
51
88.2676049
0
ARC
8
DEFAULT_255_2_778
10
13.5536347
20
8.599805
40
0.2636811
50
38.5599195
51
50.3970286
0
ARC
8
DEFAULT_255_2_778
10
9.9928131
20
5.7005668
40
4.8555118
50
31.0223828
51
39.1204598
0
ARC
8
DEFAULT_255_2_778
10
14.0133611
20
8.1078488
40
0.1696364
50
2.4563191
51
34.105086
0
ARC
8
DEFAULT_255_2_778
10
14.0561426
20
8.1151257
40
0.1266991
50
356.6246035
51
359.9969417
0
ARC
8
DEFAULT_255_2_778
10
9.1550944
20
9.9339257
40
0.1367445
50
18.5665642
51
90.449409
0
ARC
8
DEFAULT_255_2_778
10
9.1544887
20
9.9324552
40
0.137792
50
5.2464415
51
19.0660266
0
ARC
8
DEFAULT_255_2_778
10
9.1549604
20
9.9325191
40
0.1373165
50
359.9980485
51
5.2378849
0
ARC
8
DEFAULT_255_2_778
10
9.1547211
20
9.932472
40
0.1375558
50
307.5851003
51
0.0176844
0
ARC
8
DEFAULT_255_2_778
10
9.0812798
20
10.035767
40
0.2642503
50
291.3588414
51
306.543149
0
ARC
8
DEFAULT_255_2_778
10
8.8193008
20
9.8733544
40
0.2100092
50
271.9431888
51
293.2266246
0
ARC
8
DEFAULT_255_2_778
10
8.8224202
20
9.8029263
40
0.1395177
50
270.0048189
51
271.6435851
0
ARC
8
DEFAULT_255_2_778
10
8.822405
20
9.8010005
40
0.1375919
50
200.2551489
51
270.0112146
0
ARC
8
DEFAULT_255_2_778
10
8.8190998
20
9.8023291
40
0.1349722
50
184.753292
51
201.2700886
0
ARC
8
DEFAULT_255_2_778
10
8.8188683
20
9.8022808
40
0.1347374
50
180.0008768
51
184.7409558
0
ARC
8
DEFAULT_255_2_778
10
8.8189626
20
9.8023336
40
0.1348316
50
128.2864297
51
180.0233058
0
ARC
8
DEFAULT_255_2_778
10
8.8906323
20
9.7095374
40
0.2520785
50
112.1177493
51
128.0044332
0
ARC
8
DEFAULT_255_2_778
10
9.1560696
20
9.8548714
40
0.2158025
50
90.490592
51
111.2023645
0
ARC
8
DEFAULT_255_2_778
10
7.2638078
20
3.169608
40
0.1903959
50
83.2149524
51
87.1357554
0
ARC
8
DEFAULT_255_2_778
10
7.2759443
20
3.2361237
40
0.1229836
50
45.449584
51
85.1687615
0
ARC
8
DEFAULT_255_2_778
10
6.9790079
20
2.9359737
40
0.5451934
50
37.1563204
51
45.3402215
0
ARC
8
DEFAULT_255_2_778
10
7.3112381
20
2.8500334
40
0.328255
50
25.6190329
51
37.8536543
0
ARC
8
DEFAULT_255_2_778
10
7.4824536
20
2.934756
40
0.1372592
50
4.2900604
51
24.6328813
0
ARC
8
DEFAULT_255_2_778
10
7.4825765
20
2.9348032
40
0.1371332
50
0.001046
51
4.2742563
0
ARC
8
DEFAULT_255_2_778
10
7.4821225
20
2.9347995
40
0.1375871
50
306.686413
51
0.0025804
0
ARC
8
DEFAULT_255_2_778
10
7.4798463
20
2.9337518
40
0.1381286
50
270.4438687
51
307.7032347
0
ARC
8
DEFAULT_255_2_778
10
7.4805426
20
2.8991441
40
0.1035174
50
269.9311079
51
270.2068992
0
ARC
8
DEFAULT_255_2_778
10
7.4804321
20
2.928078
40
0.1324516
50
231.4683612
51
269.993966
0
ARC
8
DEFAULT_255_2_778
10
7.5899529
20
3.0597624
40
0.3037109
50
216.0885706
51
230.7812913
0
ARC
8
DEFAULT_255_2_778
10
7.3777599
20
3.2677228
40
0.2560062
50
201.4110667
51
217.0808561
0
ARC
8
DEFAULT_255_2_778
10
7.2664853
20
3.2212166
40
0.1354603
50
192.0901723
51
200.2795347
0
ARC
8
DEFAULT_255_2_778
10
7.2629505
20
3.220445
40
0.1318422
50
180.0065361
51
192.0840213
0
ARC
8
DEFAULT_255_2_778
10
7.2731387
20
3.2179137
40
0.1420525
50
89.9261197
51
178.9850422
0
ARC
8
DEFAULT_255_2_778
10
11.936173
20
1.6096345
40
0.1422013
50
196.4920772
51
268.7705557
0
ARC
8
DEFAULT_255_2_778
10
11.9252725
20
1.6071442
40
0.1310444
50
183.2249665
51
196.8010208
0
ARC
8
DEFAULT_255_2_778
10
11.9263245
20
1.6072213
40
0.1320991
50
179.9972313
51
183.2326799
0
ARC
8
DEFAULT_255_2_778
10
11.9324778
20
1.6063212
40
0.1382555
50
124.4231901
51
179.6243126
0
ARC
8
DEFAULT_255_2_778
10
11.982216
20
1.5329639
40
0.2268842
50
110.5101373
51
124.3119127
0
ARC
8
DEFAULT_255_2_778
10
12.297537
20
1.5658998
40
0.3063266
50
99.4538464
51
111.0075018
0
ARC
8
DEFAULT_255_2_778
10
12.2674321
20
1.73184
40
0.137717
50
90.0230689
51
98.4387467
0
ARC
8
DEFAULT_255_2_778
10
12.2666441
20
1.7332629
40
0.136296
50
22.6570065
51
89.6920648
0
ARC
8
DEFAULT_255_2_778
10
12.2653943
20
1.7295506
40
0.1389107
50
4.3626474
51
23.8715276
0
ARC
8
DEFAULT_255_2_778
10
12.2656821
20
1.7295996
40
0.1386199
50
359.9982023
51
4.3515027
0
ARC
8
DEFAULT_255_2_778
10
12.2659022
20
1.7294485
40
0.1383999
50
306.5495635
51
0.0607551
0
ARC
8
DEFAULT_255_2_778
10
12.2283994
20
1.7800778
40
0.2014062
50
291.0136639
51
306.5429854
0
ARC
8
DEFAULT_255_2_778
10
11.9310572
20
1.6831605
40
0.2157002
50
270.4156135
51
291.1322504
0
ARC
8
DEFAULT_255_2_778
10
8.6546145
20
1.7690896
40
0.0945299
50
345.7157567
51
351.4152339
0
LINE
8
DEFAULT_255_2_778
10
8.7480852
20
1.7549789
11
8.7481592
21
1.7554181
0
ARC
8
DEFAULT_255_2_778
10
8.7792573
20
1.7542386
40
0.0311204
50
139.7024222
51
177.8279601
0
ARC
8
DEFAULT_255_2_778
10
8.3915508
20
2.1334497
40
0.5112887
50
315.3872749
51
341.9661968
0
ARC
8
DEFAULT_255_2_778
10
7.449342
20
-1.7412614
40
3.9814698
50
63.4765733
51
68.9761264
0
ARC
8
DEFAULT_255_2_778
10
9.1745612
20
1.6998021
40
0.1323362
50
0.0370515
51
66.5039057
0
ARC
8
DEFAULT_255_2_778
10
9.174218
20
1.69989
40
0.1326794
50
355.1472829
51
359.9990207
0
ARC
8
DEFAULT_255_2_778
10
9.173955
20
1.6913282
40
0.1324936
50
294.6058884
51
358.8486551
0
ARC
8
DEFAULT_255_2_778
10
9.1685821
20
1.6862941
40
0.1303407
50
270.6444497
51
297.6761106
0
ARC
8
DEFAULT_255_2_778
10
9.1682297
20
1.6960543
40
0.1401044
50
270.0063684
51
270.7436663
0
ARC
8
DEFAULT_255_2_778
10
9.1728466
20
1.7432049
40
0.1873115
50
244.9110484
51
268.5923722
0
ARC
8
DEFAULT_255_2_778
10
8.4866766
20
1.0475748
40
0.7281755
50
63.7340792
51
64.4256323
0
ARC
8
DEFAULT_255_2_778
10
12.1957916
20
8.7671431
40
7.8362443
50
244.3105581
51
244.3282668
0
ARC
8
DEFAULT_255_2_778
10
8.8348584
20
1.8045639
40
0.1054507
50
213.8890737
51
250.0243577
0
ARC
8
DEFAULT_255_2_778
10
12.8060478
20
9.4656976
40
0.6159515
50
139.4216792
51
164.3877504
0
ARC
8
DEFAULT_255_2_778
10
13.1279348
20
12.3623878
40
2.8801677
50
243.8797426
51
251.4743566
0
ARC
8
DEFAULT_255_2_778
10
11.911435
20
9.8990157
40
0.1330284
50
180.3279626
51
247.2174832
0
ARC
8
DEFAULT_255_2_778
10
11.9211621
20
9.8979863
40
0.1427536
50
166.5000541
51
179.8924457
0
ARC
8
DEFAULT_255_2_778
10
11.9326092
20
9.8954881
40
0.154468
50
160.9262099
51
166.5902426
0
ARC
8
DEFAULT_255_2_778
10
11.9159161
20
9.9048451
40
0.1356758
50
88.1220182
51
162.357204
0
ARC
8
DEFAULT_255_2_778
10
11.9198618
20
9.8549982
40
0.1854505
50
79.0395246
51
89.8453498
0
ARC
8
DEFAULT_255_2_778
10
12.2232093
20
11.3306833
40
1.3211043
50
258.291837
51
258.3993514
0
ARC
8
DEFAULT_255_2_778
10
11.9403716
20
9.936208
40
0.1018167
50
68.5397214
51
80.2867783
0
ARC
8
DEFAULT_255_2_778
10
12.2579859
20
9.8101061
40
0.094836
50
45.2119905
51
63.0804201
0
ARC
8
DEFAULT_255_2_778
10
9.7717601
20
7.0293876
40
3.8248193
50
48.1024624
51
48.1262098
0
ARC
8
DEFAULT_255_2_778
10
12.4615649
20
10.0238878
40
0.2003753
50
227.4158945
51
231.8257041
0
ARC
8
DEFAULT_255_2_778
10
11.0916599
20
9.9998123
40
0.098112
50
179.8413212
51
190.5991008
0
ARC
8
DEFAULT_255_2_778
10
11.2058291
20
9.9911387
40
0.2124693
50
162.9575217
51
177.5870309
0
LINE
8
DEFAULT_255_2_778
10
11.0026897
20
10.0534094
11
11.0028948
21
10.0541976
0
ARC
8
DEFAULT_255_2_778
10
10.7395218
20
10.129507
40
0.2739286
50
344.0425556
51
352.5240245
0
ARC
8
DEFAULT_255_2_778
10
10.7460859
20
10.1201683
40
0.2663379
50
354.3324969
51
0.0893511
0
ARC
8
DEFAULT_255_2_778
10
10.4582741
20
10.106446
40
0.5543298
50
1.4614348
51
11.1114207
0
LINE
8
DEFAULT_255_2_778
10
11.0022127
20
10.2132751
11
11.0017131
21
10.2162257
0
ARC
8
DEFAULT_255_2_778
10
12.043889
20
10.4014269
40
1.0585037
50
187.2815866
51
190.0766265
0
ARC
8
DEFAULT_255_2_778
10
11.5533335
20
12.4951711
40
2.2842908
50
261.1353364
51
261.3423626
0
ARC
8
DEFAULT_255_2_778
10
10.9988155
20
8.8216913
40
1.4308108
50
80.4699865
51
81.5333407
0
ARC
8
DEFAULT_255_2_778
10
11.1866943
20
9.921197
40
0.31539
50
71.8917272
51
81.0598834
0
ARC
8
DEFAULT_255_2_778
10
11.2394403
20
10.0854002
40
0.1429283
50
1.288759
51
71.5297121
0
ARC
8
DEFAULT_255_2_778
10
11.2568398
20
10.0886029
40
0.1254927
50
355.6686833
51
0.0054207
0
ARC
8
DEFAULT_255_2_778
10
11.2583171
20
10.088488
40
0.1240109
50
351.3635461
51
355.6700719
0
ARC
8
DEFAULT_255_2_778
10
11.2444073
20
10.0872413
40
0.1376158
50
269.9929986
51
352.7465124
0
ARC
8
DEFAULT_255_2_778
10
11.2444031
20
10.0904464
40
0.140821
50
268.6241486
51
269.994884
0
ARC
8
DEFAULT_255_2_778
10
11.2982874
20
11.1038275
40
1.1555813
50
260.8005254
51
267.1595071
0
ARC
8
DEFAULT_255_2_778
10
10.7333573
20
7.3734318
40
2.617436
50
81.6481923
51
82.9122284
0
ARC
8
DEFAULT_255_2_778
10
12.9742248
20
9.2240383
40
0.0891185
50
180.11425
51
186.1660797
0
ARC
8
DEFAULT_255_2_778
10
12.943794
20
9.225504
40
0.0587106
50
131.070546
51
181.6040331
0
ARC
8
DEFAULT_255_2_778
10
12.6222897
20
9.5832925
40
0.4223144
50
312.0636891
51
340.0741258
0
ARC
8
DEFAULT_255_2_778
10
13.0320588
20
9.431865
40
0.0147815
50
111.2172633
51
149.5054755
0
ARC
8
DEFAULT_255_2_778
10
13.6355995
20
8.3510878
40
1.2525183
50
119.05819
51
119.0867175
0
ARC
8
DEFAULT_255_2_778
10
13.0083765
20
9.4813821
40
0.0401495
50
298.0465757
51
304.6811259
0
ARC
8
DEFAULT_255_2_778
10
12.3773661
20
8.3747963
40
1.257012
50
47.6894651
51
58.6565659
0
ARC
8
DEFAULT_255_2_778
10
13.1385165
20
9.1964188
40
0.1373991
50
6.1614877
51
51.7805557
0
ARC
8
DEFAULT_255_2_778
10
13.1395078
20
9.1963917
40
0.1364164
50
5.6639857
51
6.2174862
0
ARC
8
DEFAULT_255_2_778
10
13.1390262
20
9.1963296
40
0.136902
50
359.9991331
51
5.6699757
0
ARC
8
DEFAULT_255_2_778
10
13.1384889
20
9.1963674
40
0.1374392
50
320.6190907
51
359.9833461
0
ARC
8
DEFAULT_255_2_778
10
13.1377029
20
9.1897378
40
0.1339585
50
270.526238
51
323.0248433
0
ARC
8
DEFAULT_255_2_778
10
13.1395501
20
9.1972329
40
0.1414491
50
250.4725734
51
269.7501561
0
ARC
8
DEFAULT_255_2_778
10
13.1495593
20
9.2261197
40
0.1720203
50
237.2979903
51
250.5465677
0
ARC
8
DEFAULT_255_2_778
10
13.5843305
20
9.9346529
40
1.0032821
50
225.8592855
51
238.2656041
0
ARC
8
DEFAULT_255_2_778
10
10.9716295
20
1.4234991
40
0.9138418
50
169.0512436
51
181.2580273
0
ARC
8
DEFAULT_255_2_778
10
13.290246
20
1.4053039
40
3.2322387
50
180.033115
51
180.5923593
0
ARC
8
DEFAULT_255_2_778
10
19.9027856
20
1.4729559
40
9.8451243
50
180.5881986
51
180.759601
0
ARC
8
DEFAULT_255_2_778
10
-1.8754925
20
1.1861429
40
11.9350424
50
0.6328476
51
0.7503355
0
ARC
8
DEFAULT_255_2_778
10
10.1752625
20
2.8365834
40
1.5230749
50
256.6011117
51
265.6153996
0
ARC
8
DEFAULT_255_2_778
10
9.8464944
20
1.4961401
40
0.1432286
50
181.5062178
51
260.2837692
0
ARC
8
DEFAULT_255_2_778
10
9.8386907
20
1.4923267
40
0.1353754
50
171.4445421
51
179.9794474
0
ARC
8
DEFAULT_255_2_778
10
9.8461801
20
1.4907516
40
0.1430163
50
126.1960179
51
171.2669175
0
ARC
8
DEFAULT_255_2_778
10
9.8459739
20
1.4912725
40
0.1424743
50
90.0221671
51
126.2528119
0
ARC
8
DEFAULT_255_2_778
10
9.8459158
20
1.4918295
40
0.1419174
50
85.7112299
51
89.9988053
0
ARC
8
DEFAULT_255_2_778
10
9.8459115
20
1.4918826
40
0.1418647
50
80.9109047
51
85.7078677
0
ARC
8
DEFAULT_255_2_778
10
9.6564604
20
-0.0687903
40
1.7139012
50
79.4072411
51
82.8992995
0
ARC
8
DEFAULT_255_2_778
10
8.4797378
20
-6.585385
40
8.3358595
50
79.4104134
51
79.6908209
0
ARC
8
DEFAULT_255_2_778
10
10.8953009
20
6.3020617
40
4.7760166
50
259.3376875
51
260.1067849
0
ARC
8
DEFAULT_255_2_778
10
11.0765092
20
1.3019603
40
0.0650833
50
179.8202109
51
194.2262578
0
ARC
8
DEFAULT_255_2_778
10
11.1423619
20
1.296549
40
0.131056
50
160.6770399
51
177.5442263
0
ARC
8
DEFAULT_255_2_778
10
13.023342
20
0.7342891
40
2.0941389
50
163.1148368
51
163.1899214
0
ARC
8
DEFAULT_255_2_778
10
10.8872335
20
1.3898821
40
0.1404683
50
340.304389
51
357.2624973
0
ARC
8
DEFAULT_255_2_778
10
10.9542856
20
1.3831629
40
0.073256
50
0.0081224
51
1.3321875
0
ARC
8
DEFAULT_255_2_778
10
12.6921452
20
1.4214664
40
1.6650257
50
179.9277814
51
181.259571
0
ARC
8
DEFAULT_255_2_778
10
10.5879781
20
1.4467518
40
0.4397545
50
356.9775927
51
16.176476
0
ARC
8
DEFAULT_255_2_778
10
11.2467248
20
1.4475647
40
0.1405292
50
6.9486988
51
88.8595149
0
ARC
8
DEFAULT_255_2_778
10
11.2372204
20
1.4487183
40
0.1498419
50
0.0107148
51
6.0711276
0
ARC
8
DEFAULT_255_2_778
10
11.251875
20
1.445919
40
0.1352169
50
278.9975728
51
1.1981224
0
ARC
8
DEFAULT_255_2_778
10
11.8691207
20
-2.3405
40
3.7011841
50
99.2682108
51
99.7121409
0
ARC
8
DEFAULT_255_2_778
10
11.0972251
20
2.0524185
40
0.7592485
50
271.564225
51
281.2030945
0
ARC
8
DEFAULT_255_2_778
10
11.1175007
20
1.6449245
40
0.3514719
50
265.2378864
51
270.0733641
0
ARC
8
DEFAULT_255_2_778
10
11.0702062
20
1.2856019
40
0.0202567
50
26.5809312
51
80.7093077
0
ARC
8
DEFAULT_255_2_778
10
11.0773307
20
1.2856346
40
0.0203269
50
100.9299487
51
160.062763
0
ARC
8
DEFAULT_255_2_778
10
8.1257899
20
2.4110918
40
0.0761867
50
312.3964004
51
355.3126651
0
ARC
8
DEFAULT_255_2_778
10
7.3793038
20
3.0568737
40
1.0627518
50
318.3914236
51
318.6549463
0
ARC
8
DEFAULT_255_2_778
10
8.4788306
20
2.0672683
40
0.416614
50
137.0436827
51
166.8616525
0
ARC
8
DEFAULT_255_2_778
10
7.9954959
20
2.4395895
40
0.1685835
50
192.1589048
51
231.8775644
0
ARC
8
DEFAULT_255_2_778
10
7.9546958
20
2.4261375
40
0.1259479
50
180.0196025
51
190.0854934
0
ARC
8
DEFAULT_255_2_778
10
7.9418732
20
2.4261228
40
0.1131253
50
179.6113131
51
180.0143941
0
ARC
8
DEFAULT_255_2_778
10
7.967514
20
2.4240469
40
0.1387927
50
143.7245597
51
178.8261313
0
ARC
8
DEFAULT_255_2_778
10
7.9748051
20
2.4227504
40
0.1454744
50
96.8407692
51
145.0120619
0
ARC
8
DEFAULT_255_2_778
10
7.9670592
20
2.4583655
40
0.1092448
50
90.0249505
51
95.0317648
0
ARC
8
DEFAULT_255_2_778
10
7.9675813
20
2.4713086
40
0.0963034
50
66.862971
51
90.338913
0
ARC
8
DEFAULT_255_2_778
10
7.8369252
20
2.1451415
40
0.4476467
50
35.4645925
51
67.8887887
0
ARC
8
DEFAULT_255_2_778
10
9.7117277
20
10.2417282
40
0.3324202
50
359.8578477
51
4.7172531
0
ARC
8
DEFAULT_255_2_778
10
9.4355156
20
10.2445144
40
0.608642
50
355.6504888
51
359.6600762
0
ARC
8
DEFAULT_255_2_778
10
7.5448461
20
10.3768922
40
2.5039316
50
355.4389248
51
355.9111775
0
ARC
8
DEFAULT_255_2_778
10
10.8470995
20
10.1040217
40
0.8096177
50
174.7732927
51
179.258694
0
ARC
8
DEFAULT_255_2_778
10
10.3371107
20
10.1123259
40
0.2995691
50
179.5848644
51
189.2318671
0
ARC
8
DEFAULT_255_2_778
10
7.0494495
20
9.5609039
40
3.0340191
50
9.3347505
51
9.5498728
0
ARC
8
DEFAULT_255_2_778
10
10.3969119
20
10.0996312
40
0.3566787
50
187.5075261
51
199.1261019
0
ARC
8
DEFAULT_255_2_778
10
10.0841153
20
7.9818954
40
1.9955617
50
94.9328135
51
95.4163737
0
ARC
8
DEFAULT_255_2_778
10
9.7784275
20
11.1801893
40
1.2173091
50
274.3057631
51
275.5306034
0
ARC
8
DEFAULT_255_2_778
10
9.8397517
20
10.3613729
40
0.3961996
50
270.2497184
51
274.3527412
0
ARC
8
DEFAULT_255_2_778
10
9.841182
20
10.2194868
40
0.2543099
50
266.8306411
51
270.0667841
0
ARC
8
DEFAULT_255_2_778
10
9.8341185
20
10.1036607
40
0.1382718
50
189.4467562
51
267.0995553
0
ARC
8
DEFAULT_255_2_778
10
9.833227
20
10.104965
40
0.137614
50
180.01092
51
190.0433725
0
ARC
8
DEFAULT_255_2_778
10
9.8330909
20
10.1048266
40
0.1374777
50
112.0309735
51
179.9532625
0
ARC
8
DEFAULT_255_2_778
10
9.8569281
20
10.0728371
40
0.1763623
50
97.5610567
51
115.3130812
0
LINE
8
DEFAULT_255_2_778
10
14.1826219
20
8.107666
11
14.1821219
21
8.107966
0
LINE
8
DEFAULT_255_2_778
10
9.1775219
20
9.789666
11
8.9021219
21
9.680366
0
LINE
8
DEFAULT_255_2_778
10
8.7957219
20
9.943066
11
9.0780219
21
10.056066
0
LINE
8
DEFAULT_255_2_778
10
9.1542219
20
10.070666
11
9.1540219
21
10.070666
0
LINE
8
DEFAULT_255_2_778
10
7.4135219
20
3.265266
11
7.5704219
21
3.051466
0
LINE
8
DEFAULT_255_2_778
10
7.3445219
20
2.880866
11
7.1735219
21
3.113366
0
LINE
8
DEFAULT_255_2_778
10
7.2733219
20
3.359966
11
7.2733219
21
3.359766
0
LINE
8
DEFAULT_255_2_778
10
11.9027219
20
1.745466
11
12.1877219
21
1.851866
0
LINE
8
DEFAULT_255_2_778
10
12.3006219
20
1.592066
11
12.0088219
21
1.481966
0
LINE
8
DEFAULT_255_2_778
10
11.9326219
20
1.467466
11
11.9331219
21
1.467466
0
LINE
8
DEFAULT_255_2_778
10
9.0934219
20
1.573566
11
8.8727219
21
1.671466
0
LINE
8
DEFAULT_255_2_778
10
8.8727219
20
1.671466
11
8.8089219
21
1.700566
0
LINE
8
DEFAULT_255_2_778
10
8.7473219
20
1.745766
11
8.7462219
21
1.745766
0
LINE
8
DEFAULT_255_2_778
10
11.9776219
20
10.030966
11
12.3009219
21
9.894666
0
LINE
8
DEFAULT_255_2_778
10
12.3377219
20
9.866366
11
12.3382219
21
9.866366
0
LINE
8
DEFAULT_255_2_778
10
10.9939219
20
10.267266
11
11.2013219
21
10.238166
0
LINE
8
DEFAULT_255_2_778
10
11.0563219
20
9.970866
11
10.9955219
21
9.981466
0
LINE
8
DEFAULT_255_2_778
10
10.9955219
20
9.981466
11
10.9952219
21
9.981766
0
LINE
8
DEFAULT_255_2_778
10
12.8856219
20
9.214666
11
12.8856219
21
9.214466
0
LINE
8
DEFAULT_255_2_778
10
10.0747219
20
1.597066
11
10.0744219
21
1.597066
0
LINE
8
DEFAULT_255_2_778
10
11.0103219
20
1.569266
11
11.1722219
21
1.584666
0
LINE
8
DEFAULT_255_2_778
10
11.1722219
20
1.584666
11
11.2495219
21
1.588066
0
LINE
8
DEFAULT_255_2_778
10
11.0582219
20
1.292566
11
11.0132219
21
1.286166
0
LINE
8
DEFAULT_255_2_778
10
11.0132219
20
1.286166
11
11.0134219
21
1.285966
0
LINE
8
DEFAULT_255_2_778
10
8.0731219
20
2.161966
11
7.8914219
21
2.306966
0
LINE
8
DEFAULT_255_2_778
10
8.2015219
20
2.404866
11
8.2017219
21
2.404866
0
LINE
8
DEFAULT_255_2_778
10
10.0599219
20
9.982766
11
9.9125219
21
9.970066
0
LINE
8
DEFAULT_255_2_778
10
9.8337219
20
10.247666
11
10.0430219
21
10.269066
0
LINE
8
DEFAULT_255_2_778
10
10.0430219
20
10.269066
11
10.0430219
21
10.269066
0
ARC
8
DEFAULT_255_2_778
10
11.0773381
20
1.2853459
40
0.0203492
50
100.7957663
51
159.9933154
0
ARC
8
DEFAULT_255_2_778
10
11.0702919
20
1.2853176
40
0.0202768
50
26.6353238
51
80.8208964
0
ARC
8
DEFAULT_255_2_778
10
11.070201
20
1.3139948
40
0.0267482
50
273.1792406
51
312.9230898
0
ARC
8
DEFAULT_255_2_778
10
11.0722711
20
1.3094359
40
0.0221559
50
230.6298176
51
268.4826353
0
LINE
8
DEFAULT_255_2_778
10
11.0582169
20
1.2923079
11
11.0582169
21
1.2923079
0
ARC
8
DEFAULT_255_2_778
10
13.1361144
20
2.1113382
40
0.2166103
50
89.9962865
51
95.2108276
0
ARC
8
DEFAULT_255_2_778
10
13.1176022
20
2.043837
40
0.2847148
50
4.8083577
51
86.26915
0
ARC
8
DEFAULT_255_2_778
10
13.1795845
20
2.0550063
40
0.2220937
50
0.0091233
51
3.2771998
0
ARC
8
DEFAULT_255_2_778
10
13.1832272
20
2.0550519
40
0.218451
50
358.9511601
51
359.9973028
0
ARC
8
DEFAULT_255_2_778
10
13.1241307
20
2.0453649
40
0.2775692
50
276.1654723
51
1.1742727
0
ARC
8
DEFAULT_255_2_778
10
13.1177812
20
2.1006099
40
0.3331768
50
270.6295069
51
276.2307386
0
ARC
8
DEFAULT_255_2_778
10
13.1174088
20
2.0953425
40
0.327914
50
270.0009928
51
270.7046719
0
ARC
8
DEFAULT_255_2_778
10
13.1138773
20
2.0442519
40
0.2768461
50
179.5030119
51
270.7320747
0
ARC
8
DEFAULT_255_2_778
10
13.0993497
20
2.0526001
40
0.2623755
50
179.9992273
51
181.2987367
0
ARC
8
DEFAULT_255_2_778
10
13.1139661
20
2.0509511
40
0.2769968
50
92.2953736
51
179.6581802
0
ARC
8
DEFAULT_255_2_778
10
13.1028691
20
2.0911442
40
0.2365816
50
86.7839186
51
89.9992803
0
LINE
8
DEFAULT_255_2_778
10
13.1161417
20
2.3273533
11
13.1164417
21
2.3270533
0
ARC
8
DEFAULT_255_2_778
10
7.9244953
20
9.4852024
40
0.2480777
50
270.0145883
51
274.5295526
0
ARC
8
DEFAULT_255_2_778
10
7.939307
20
9.511596
40
0.2748673
50
189.2191695
51
266.9242026
0
ARC
8
DEFAULT_255_2_778
10
7.9231493
20
9.5178271
40
0.2600635
50
180.1602979
51
191.1449209
0
ARC
8
DEFAULT_255_2_778
10
7.9453807
20
9.518105
40
0.2822957
50
90.1611262
51
180.2040867
0
ARC
8
DEFAULT_255_2_778
10
7.9501468
20
9.5596701
40
0.2407936
50
89.9987659
51
91.3230986
0
ARC
8
DEFAULT_255_2_778
10
7.9400666
20
9.5114673
40
0.2891724
50
2.6292204
51
88.0013007
0
ARC
8
DEFAULT_255_2_778
10
8.0001958
20
9.524721
40
0.2287388
50
357.940173
51
0.0028197
0
ARC
8
DEFAULT_255_2_778
10
7.9380382
20
9.5215118
40
0.2907918
50
292.1172727
51
359.0123596
0
ARC
8
DEFAULT_255_2_778
10
7.9640346
20
9.4761256
40
0.2390598
50
270.0411455
51
290.4404466
0
ARC
8
DEFAULT_255_2_778
10
7.964224
20
9.475902
40
0.2388361
50
265.2115672
51
269.9957354
0
LINE
8
DEFAULT_255_2_778
10
7.9442868
20
9.2378995
11
7.9440868
21
9.2378995
0
ENDSEC
0
EOF