0
SECTION
2
HEADER
9
$MEASUREMENT
70
1
0
ENDSEC
0
SECTION
2
TABLES
0
TABLE
2
LTYPE
0
LTYPE
72
65
70
64
2
CONTINUOUS
3
______
73
0
40
0
0
ENDTAB
0
TABLE
2
LAYER
0
LAYER
2
DEFAULT_255_2_778
70
0
62
255
6
CONTINUOUS
0
ENDTAB
0
ENDSEC
0
SECTION
2
ENTITIES
0
ARC
8
DEFAULT_255_2_778
10
2.0590442
20
10.0579347
40
2.2068832
50
282.0133096
51
289.7235139
0
ARC
8
DEFAULT_255_2_778
10
2.166793
20
9.7580378
40
1.8882173
50
289.7169074
51
299.347983
0
ARC
8
DEFAULT_255_2_778
10
2.2515942
20
9.6052526
40
1.7134789
50
299.3802244
51
311.5379122
0
ARC
8
DEFAULT_255_2_778
10
2.2011512
20
9.6516035
40
1.7816367
50
311.7637169
51
329.5896941
0
ARC
8
DEFAULT_255_2_778
10
1.6370601
20
9.9622088
40
2.4254109
50
330.0069662
51
347.9193046
0
ARC
8
DEFAULT_255_2_778
10
0.7153676
20
10.1920722
40
3.3749498
50
347.3782024
51
353.0289665
0
ARC
8
DEFAULT_255_2_778
10
0.1342103
20
10.2666328
40
3.9608616
50
352.9786877
51
356.406126
0
ARC
8
DEFAULT_255_2_778
10
-0.3281439
20
10.2967044
40
4.4241916
50
356.3927823
51
358.9713677
0
ARC
8
DEFAULT_255_2_778
10
-0.6304543
20
10.3034874
40
4.7265753
50
358.9549451
51
0.0032166
0
ARC
8
DEFAULT_255_2_778
10
-0.8633994
20
10.303072
40
4.9595204
50
0.0078641
51
1.6056184
0
ARC
8
DEFAULT_255_2_778
10
-1.1141978
20
10.2963491
40
5.2104087
50
1.602242
51
2.7662657
0
ARC
8
DEFAULT_255_2_778
10
-1.3095965
20
10.2870949
40
5.4060264
50
2.7642857
51
3.5558323
0
ARC
8
DEFAULT_255_2_778
10
-1.5194754
20
10.2738665
40
5.6163218
50
3.5577293
51
4.5520533
0
ARC
8
DEFAULT_255_2_778
10
-1.8203913
20
10.249977
40
5.9181844
50
4.5513954
51
5.2798013
0
ARC
8
DEFAULT_255_2_778
10
-2.1060899
20
10.2239204
40
6.2050685
50
5.2766268
51
5.4928018
0
ARC
8
DEFAULT_255_2_778
10
-2.4328877
20
10.1922644
40
6.533396
50
5.494813
51
5.8994886
0
ARC
8
DEFAULT_255_2_778
10
-3.0896497
20
10.1245914
40
7.1936353
50
5.8979767
51
6.1526388
0
ARC
8
DEFAULT_255_2_778
10
-4.5127074
20
9.9707662
40
8.6249826
50
6.1554244
51
6.4103224
0
ARC
8
DEFAULT_255_2_778
10
-9.8887898
20
9.3661355
40
14.0349586
50
6.4128608
51
6.547414
0
ARC
8
DEFAULT_255_2_778
10
-34.1291277
20
6.5902665
40
38.4337172
50
6.5380974
51
6.5531131
0
ARC
8
DEFAULT_255_2_778
10
2.6777688
20
10.8046308
40
1.386406
50
7.1204586
51
13.1720566
0
ARC
8
DEFAULT_255_2_778
10
2.2479118
20
10.7049996
40
1.8276573
50
13.1424574
51
18.4758378
0
ARC
8
DEFAULT_255_2_778
10
1.8255022
20
10.5645549
40
2.2728025
50
18.4592553
51
23.6141903
0
ARC
8
DEFAULT_255_2_778
10
1.4779727
20
10.4134721
40
2.6517513
50
23.5973307
51
28.9493778
0
LINE
8
DEFAULT_255_2_778
10
3.7983816
20
11.697017
11
3.7982612
21
11.6972351
0
ARC
8
DEFAULT_255_2_778
10
1.2881063
20
10.3095373
40
2.868202
50
28.9352894
51
39.791061
0
ARC
8
DEFAULT_255_2_778
10
1.8004077
20
10.8033378
40
2.1591466
50
38.4227088
51
71.366811
0
ARC
8
DEFAULT_255_2_778
10
2.0372161
20
11.369498
40
1.5476118
50
72.9775901
51
89.9295251
0
ARC
8
DEFAULT_255_2_778
10
2.03921
20
11.38634
40
1.5307687
50
90.0033775
51
93.7086332
0
ARC
8
DEFAULT_255_2_778
10
2.0402079
20
11.3698472
40
1.5472915
50
93.7060076
51
94.9431372
0
ARC
8
DEFAULT_255_2_778
10
2.0360004
20
11.4377234
40
1.4793062
50
95.0073059
51
106.6318811
0
ARC
8
DEFAULT_255_2_778
10
2.0217159
20
11.4958739
40
1.4195029
50
106.7512391
51
123.3661159
0
ARC
8
DEFAULT_255_2_778
10
2.3136224
20
11.1196991
40
1.8945782
50
124.4821548
51
150.2489165
0
ARC
8
DEFAULT_255_2_778
10
3.1506481
20
10.5797535
40
2.8897076
50
149.189762
51
155.6408593
0
ARC
8
DEFAULT_255_2_778
10
3.7677192
20
10.299151
40
3.5675817
50
155.6230518
51
161.1293376
0
ARC
8
DEFAULT_255_2_778
10
4.2937069
20
10.1155533
40
4.1246812
50
161.0792229
51
164.6155724
0
ARC
8
DEFAULT_255_2_778
10
4.5446024
20
10.0450037
40
4.3853032
50
164.5964895
51
166.9983681
0
ARC
8
DEFAULT_255_2_778
10
4.528489
20
10.0480695
40
4.3689132
50
166.9900018
51
168.9541488
0
ARC
8
DEFAULT_255_2_778
10
4.2357059
20
10.1048373
40
4.0706777
50
168.9488064
51
170.4896076
0
ARC
8
DEFAULT_255_2_778
10
3.7297433
20
10.1897282
40
3.5576431
50
170.4916324
51
171.5354089
0
ARC
8
DEFAULT_255_2_778
10
3.016894
20
10.2952071
40
2.8370325
50
171.5232873
51
172.5946463
0
ARC
8
DEFAULT_255_2_778
10
2.0509364
20
10.4206499
40
1.8629639
50
172.5914468
51
173.4089769
0
ARC
8
DEFAULT_255_2_778
10
0.9612875
20
10.5460345
40
0.7661252
50
173.3704129
51
174.0550859
0
ARC
8
DEFAULT_255_2_778
10
1.726987
20
10.3212104
40
1.5576915
50
168.7393891
51
172.3416977
0
ARC
8
DEFAULT_255_2_778
10
1.9930478
20
10.2850341
40
1.8262002
50
172.3292393
51
175.4272155
0
ARC
8
DEFAULT_255_2_778
10
2.2721413
20
10.2628018
40
2.1061779
50
175.4296468
51
178.6568027
0
ARC
8
DEFAULT_255_2_778
10
2.4817959
20
10.2566854
40
2.3159184
50
178.6271109
51
180.0058673
0
ARC
8
DEFAULT_255_2_778
10
2.7276995
20
10.2586863
40
2.5618228
50
180.0500534
51
184.1626236
0
ARC
8
DEFAULT_255_2_778
10
3.0486353
20
10.2816924
40
2.883582
50
184.1556579
51
188.4775075
0
ARC
8
DEFAULT_255_2_778
10
3.2619667
20
10.3129618
40
3.0991924
50
188.4678608
51
193.4965096
0
ARC
8
DEFAULT_255_2_778
10
3.307926
20
10.3231482
40
3.14626
50
193.4815553
51
195.4661012
0
ARC
8
DEFAULT_255_2_778
10
2.8106758
20
10.1397651
40
2.6184857
50
194.5001797
51
222.7297884
0
ARC
8
DEFAULT_255_2_778
10
2.0937648
20
9.5091688
40
1.6641466
50
223.5300234
51
252.0704694
0
ARC
8
DEFAULT_255_2_778
10
2.0678054
20
9.4762291
40
1.6248802
50
252.583825
51
266.3924363
0
ARC
8
DEFAULT_255_2_778
10
2.081403
20
9.6320207
40
1.7812225
50
266.271237
51
270.0171627
0
ARC
8
DEFAULT_255_2_778
10
2.0813233
20
9.7398382
40
1.88904
50
270.018598
51
273.5973449
0
ARC
8
DEFAULT_255_2_778
10
2.0732193
20
9.8688278
40
2.0182839
50
273.5971949
51
276.9200753
0
ARC
8
DEFAULT_255_2_778
10
2.0549468
20
10.0191959
40
2.1697582
50
276.9206659
51
280.0919603
0
ARC
8
DEFAULT_255_2_778
10
2.0295155
20
10.1644869
40
2.3172575
50
280.0815418
51
282.1790782
0
ARC
8
DEFAULT_255_2_778
10
5.9158668
20
13.0245191
40
1.4351763
50
270.8030918
51
310.1845131
0
ARC
8
DEFAULT_255_2_778
10
5.5169991
20
13.5464561
40
2.091536
50
309.3062971
51
325.3932955
0
ARC
8
DEFAULT_255_2_778
10
4.9913911
20
13.9161549
40
2.7341211
50
325.2722944
51
338.2751485
0
ARC
8
DEFAULT_255_2_778
10
4.4610239
20
14.1320072
40
3.3067178
50
338.2022793
51
350.081104
0
ARC
8
DEFAULT_255_2_778
10
4.0815893
20
14.2029
40
3.6926952
50
350.0116846
51
0.0602615
0
ARC
8
DEFAULT_255_2_778
10
4.1133623
20
14.212171
40
3.6609241
50
359.9156882
51
11.6614592
0
ARC
8
DEFAULT_255_2_778
10
4.5350663
20
14.3020571
40
3.2297571
50
11.6119228
51
23.5575103
0
ARC
8
DEFAULT_255_2_778
10
5.072562
20
14.5404046
40
2.6417991
50
23.4780678
51
36.793748
0
ARC
8
DEFAULT_255_2_778
10
5.5820661
20
14.9270442
40
2.0022224
50
36.6661424
51
53.4152717
0
ARC
8
DEFAULT_255_2_778
10
5.9207817
20
15.4082034
40
1.4140621
50
52.8157671
51
89.3840756
0
ARC
8
DEFAULT_255_2_778
10
5.9562094
20
15.3856908
40
1.4366354
50
90.8067184
51
130.1553669
0
ARC
8
DEFAULT_255_2_778
10
6.3546287
20
14.8636639
40
2.0927923
50
129.2758439
51
145.3538313
0
ARC
8
DEFAULT_255_2_778
10
6.8784984
20
14.4947188
40
2.7335223
50
145.2343628
51
158.2747578
0
ARC
8
DEFAULT_255_2_778
10
7.4046233
20
14.2804538
40
3.3015906
50
158.2001812
51
170.0736557
0
ARC
8
DEFAULT_255_2_778
10
7.7781932
20
14.2105987
40
3.6816127
50
170.0049832
51
180.0593689
0
ARC
8
DEFAULT_255_2_778
10
7.7580212
20
14.2014187
40
3.6614427
50
179.9160437
51
191.6428232
0
ARC
8
DEFAULT_255_2_778
10
7.3381047
20
14.1120289
40
3.2321277
50
191.5930602
51
203.550464
0
ARC
8
DEFAULT_255_2_778
10
6.8029568
20
13.874888
40
2.6468041
50
203.4732431
51
216.7373659
0
ARC
8
DEFAULT_255_2_778
10
6.2933704
20
13.4888028
40
2.0074981
50
216.6062182
51
233.359341
0
ARC
8
DEFAULT_255_2_778
10
5.9515762
20
13.003963
40
1.4145652
50
232.7478765
51
269.3683735
0
ARC
8
DEFAULT_255_2_778
10
10.544057
20
13.1786434
40
1.776702
50
262.5888403
51
266.2343519
0
ARC
8
DEFAULT_255_2_778
10
10.5395886
20
13.1116548
40
1.7095646
50
266.2363366
51
269.9898566
0
ARC
8
DEFAULT_255_2_778
10
10.5406609
20
13.0389492
40
1.6368595
50
269.9518735
51
291.171714
0
ARC
8
DEFAULT_255_2_778
10
10.3492014
20
13.4398714
40
2.0801423
50
292.1010286
51
318.9957234
0
ARC
8
DEFAULT_255_2_778
10
9.3864801
20
14.2922622
40
3.365957
50
318.7981038
51
340.7524691
0
ARC
8
DEFAULT_255_2_778
10
9.1849483
20
14.3924838
40
3.5893724
50
340.3025643
51
344.6571923
0
ARC
8
DEFAULT_255_2_778
10
9.4342963
20
14.324451
40
3.3309101
50
344.6508665
51
348.5240823
0
ARC
8
DEFAULT_255_2_778
10
9.7139077
20
14.2667752
40
3.0454137
50
348.540871
51
350.9945958
0
ARC
8
DEFAULT_255_2_778
10
10.9140964
20
14.0790914
40
1.8306431
50
350.9165918
51
0.0861752
0
ARC
8
DEFAULT_255_2_778
10
10.7279866
20
14.0806083
40
2.0167512
50
0.035128
51
5.4136805
0
ARC
8
DEFAULT_255_2_778
10
10.0957867
20
13.9599197
40
2.6582063
50
6.7179295
51
44.9650328
0
ARC
8
DEFAULT_255_2_778
10
10.3889521
20
14.2813932
40
2.2236956
50
44.442438
51
60.5568145
0
ARC
8
DEFAULT_255_2_778
10
10.6905473
20
14.8122736
40
1.6131306
50
60.6165724
51
76.7534667
0
ARC
8
DEFAULT_255_2_778
10
10.8701802
20
15.5471135
40
0.8567056
50
77.186254
51
90.1185423
0
ARC
8
DEFAULT_255_2_778
10
10.8712104
20
15.4131253
40
0.9906958
50
90.162092
51
101.0100877
0
ARC
8
DEFAULT_255_2_778
10
10.9091909
20
15.2117504
40
1.1956184
50
100.9536572
51
108.4335158
0
ARC
8
DEFAULT_255_2_778
10
10.951409
20
15.0768612
40
1.3369385
50
108.322066
51
108.5421883
0
ARC
8
DEFAULT_255_2_778
10
11.0512201
20
14.818177
40
1.613982
50
108.9812369
51
121.4604165
0
ARC
8
DEFAULT_255_2_778
10
11.4460804
20
14.1663385
40
2.3760845
50
121.3788065
51
131.2329211
0
ARC
8
DEFAULT_255_2_778
10
12.0722186
20
13.4527308
40
3.3254446
50
131.2419552
51
141.6119174
0
ARC
8
DEFAULT_255_2_778
10
12.4169436
20
13.1610051
40
3.7768332
50
141.3905488
51
153.2519262
0
ARC
8
DEFAULT_255_2_778
10
12.0816374
20
13.3395125
40
3.3970768
50
153.3952099
51
154.2462098
0
ARC
8
DEFAULT_255_2_778
10
11.8136515
20
13.465031
40
3.1011735
50
154.1835678
51
159.031172
0
ARC
8
DEFAULT_255_2_778
10
11.3167815
20
13.6553427
40
2.5691036
50
159.0289082
51
163.7894939
0
ARC
8
DEFAULT_255_2_778
10
10.8331798
20
13.7954341
40
2.0656198
50
163.776069
51
169.0161526
0
ARC
8
DEFAULT_255_2_778
10
10.4292478
20
13.8745916
40
1.6540057
50
169.041972
51
173.8431805
0
ARC
8
DEFAULT_255_2_778
10
13.6042701
20
13.5322097
40
4.8474351
50
173.8445327
51
178.6847261
0
ARC
8
DEFAULT_255_2_778
10
13.0712621
20
13.5497606
40
4.3141678
50
178.7552694
51
179.9950139
0
ARC
8
DEFAULT_255_2_778
10
12.1973358
20
13.5275404
40
3.4403155
50
179.6236842
51
191.1190208
0
ARC
8
DEFAULT_255_2_778
10
10.9953509
20
13.2850215
40
2.2141328
50
190.959449
51
207.7232762
0
ARC
8
DEFAULT_255_2_778
10
10.3934724
20
12.9659325
40
1.5329084
50
207.6311729
51
241.4471108
0
ARC
8
DEFAULT_255_2_778
10
10.4750646
20
13.1369224
40
1.7221297
50
241.7817897
51
255.4094027
0
ARC
8
DEFAULT_255_2_778
10
10.5865541
20
13.544211
40
2.1443755
50
255.267958
51
262.7916454
0
ARC
8
DEFAULT_255_2_778
10
14.4589615
20
9.5661059
40
1.2436297
50
0.2155189
51
5.033197
0
ARC
8
DEFAULT_255_2_778
10
13.8644719
20
9.5156771
40
1.8402522
50
4.9733594
51
9.1590176
0
ARC
8
DEFAULT_255_2_778
10
13.3768575
20
9.4383898
40
2.3339523
50
9.1267554
51
13.25369
0
ARC
8
DEFAULT_255_2_778
10
13.0884721
20
9.3715455
40
2.6299817
50
13.2307658
51
17.7978065
0
ARC
8
DEFAULT_255_2_778
10
13.0313453
20
9.3545152
40
2.6895803
50
17.7712629
51
23.4046155
0
ARC
8
DEFAULT_255_2_778
10
13.1152866
20
9.3904837
40
2.598258
50
23.4119846
51
26.3071713
0
ARC
8
DEFAULT_255_2_778
10
13.3308811
20
9.5035636
40
2.3548845
50
26.1655574
51
37.4321186
0
ARC
8
DEFAULT_255_2_778
10
13.6395916
20
9.7419856
40
1.9648282
50
37.3830142
51
52.7541758
0
ARC
8
DEFAULT_255_2_778
10
13.7478482
20
9.8758018
40
1.7927912
50
52.9199406
51
66.7214982
0
ARC
8
DEFAULT_255_2_778
10
13.7177444
20
9.7997688
40
1.8745332
50
66.7947066
51
77.9147829
0
ARC
8
DEFAULT_255_2_778
10
13.6651035
20
9.5525254
40
2.1273182
50
77.9225999
51
86.8081236
0
ARC
8
DEFAULT_255_2_778
10
13.6462516
20
9.2865287
40
2.3939552
50
86.7121032
51
90.0208033
0
ARC
8
DEFAULT_255_2_778
10
13.6380763
20
9.3700496
40
2.3104458
50
89.818818
51
98.0633385
0
ARC
8
DEFAULT_255_2_778
10
13.5645237
20
9.8800368
40
1.7951838
50
98.0221444
51
109.0425492
0
ARC
8
DEFAULT_255_2_778
10
13.4620862
20
10.176755
40
1.4812808
50
109.0417184
51
124.9588424
0
ARC
8
DEFAULT_255_2_778
10
13.63382
20
10.0175337
40
1.7108909
50
126.6172755
51
162.4374299
0
ARC
8
DEFAULT_255_2_778
10
15.086443
20
9.4742223
40
3.2607201
50
161.0375127
51
172.6231373
0
ARC
8
DEFAULT_255_2_778
10
16.7134135
20
9.2332093
40
4.9052615
50
172.2712835
51
176.8519956
0
ARC
8
DEFAULT_255_2_778
10
18.0963287
20
9.1499058
40
6.2906687
50
176.7861036
51
179.1517443
0
ARC
8
DEFAULT_255_2_778
10
19.1572037
20
9.1301277
40
7.3517213
50
179.1200213
51
180.0073557
0
ARC
8
DEFAULT_255_2_778
10
22.5111596
20
9.1140644
40
10.7056878
50
179.9190819
51
181.1500323
0
ARC
8
DEFAULT_255_2_778
10
17.4960465
20
9.0066278
40
5.6894328
50
181.081965
51
184.396432
0
ARC
8
DEFAULT_255_2_778
10
15.9203675
20
8.8944956
40
4.1098043
50
184.5216855
51
186.3494567
0
ARC
8
DEFAULT_255_2_778
10
14.0324079
20
8.6108137
40
2.2032672
50
184.4468985
51
210.663334
0
ARC
8
DEFAULT_255_2_778
10
13.3234083
20
8.2436307
40
1.4068842
50
212.5264982
51
233.4414938
0
ARC
8
DEFAULT_255_2_778
10
13.4002289
20
8.3553088
40
1.5423547
50
233.6203354
51
246.4651968
0
ARC
8
DEFAULT_255_2_778
10
13.5544744
20
8.7075409
40
1.9268785
50
246.4424019
51
255.8643223
0
ARC
8
DEFAULT_255_2_778
10
13.697413
20
9.269301
40
2.5065373
50
255.8319083
51
263.1583335
0
ARC
8
DEFAULT_255_2_778
10
13.793292
20
10.0530067
40
3.2960845
50
263.1264108
51
268.9167939
0
ARC
8
DEFAULT_255_2_778
10
13.8132256
20
10.6623345
40
3.9056894
50
268.7934042
51
270.0064343
0
ARC
8
DEFAULT_255_2_778
10
13.8135257
20
10.8626838
40
4.1060387
50
270.0019332
51
270.6432982
0
ARC
8
DEFAULT_255_2_778
10
13.8119232
20
11.0071698
40
4.2505336
50
270.6430314
51
271.2720362
0
ARC
8
DEFAULT_255_2_778
10
13.8573419
20
9.1911693
40
2.4339775
50
271.1521377
51
277.6898036
0
ARC
8
DEFAULT_255_2_778
10
13.9207018
20
8.7289036
40
1.967391
50
277.66259
51
286.0019737
0
ARC
8
DEFAULT_255_2_778
10
14.0128347
20
8.4087189
40
1.6342146
50
285.9915453
51
296.5987909
0
ARC
8
DEFAULT_255_2_778
10
14.0903113
20
8.2516401
40
1.4590714
50
296.6401664
51
311.1513967
0
ARC
8
DEFAULT_255_2_778
10
13.9153165
20
8.4101573
40
1.6938087
50
312.0801148
51
339.531489
0
ARC
8
DEFAULT_255_2_778
10
13.0758749
20
8.7627362
40
2.6038056
50
338.7223027
51
347.9595746
0
ARC
8
DEFAULT_255_2_778
10
12.2420362
20
8.9487726
40
3.4581173
50
347.8269688
51
353.0005437
0
ARC
8
DEFAULT_255_2_778
10
11.4215173
20
9.0528774
40
4.2852087
50
352.9558783
51
356.2489059
0
ARC
8
DEFAULT_255_2_778
10
10.5803558
20
9.1098126
40
5.1282932
50
356.2289902
51
358.3863134
0
ARC
8
DEFAULT_255_2_778
10
9.5856851
20
9.1386226
40
6.1233809
50
358.3789376
51
359.846827
0
ARC
8
DEFAULT_255_2_778
10
8.809187
20
9.143463
40
6.8998898
50
359.8238707
51
0.0010212
0
ARC
8
DEFAULT_255_2_778
10
8.2195487
20
9.1428785
40
7.4895283
50
0.0054124
51
0.516944
0
ARC
8
DEFAULT_255_2_778
10
6.8025779
20
9.1297112
40
8.9065601
50
0.5194048
51
0.977806
0
ARC
8
DEFAULT_255_2_778
10
4.105561
20
9.0839841
40
11.6039647
50
0.9763027
51
1.2523838
0
ARC
8
DEFAULT_255_2_778
10
-2.7381825
20
8.9338894
40
18.4493541
50
1.2538706
51
1.4170003
0
ARC
8
DEFAULT_255_2_778
10
-20.6215379
20
8.496761
40
36.3380507
50
1.4087394
51
1.4100726
0
ARC
8
DEFAULT_255_2_778
10
-20.0617024
20
8.5067746
40
35.7781385
50
1.4161032
51
1.4174504
0
ARC
8
DEFAULT_255_2_778
10
-19.5086406
20
8.516712
40
35.2250005
50
1.4235444
51
1.4249058
0
ARC
8
DEFAULT_255_2_778
10
-1.9765749
20
8.9597174
40
17.6873415
50
1.4025438
51
1.4052412
0
ARC
8
DEFAULT_255_2_778
10
41.5129242
20
10.0334882
40
25.8154119
50
181.4132747
51
181.4206167
0
ARC
8
DEFAULT_255_2_778
10
-17.7040653
20
8.5736873
40
33.4195681
50
1.4112879
51
1.4126795
0
ARC
8
DEFAULT_255_2_778
10
-17.2079116
20
8.5827075
40
32.9233429
50
1.4182734
51
1.4196788
0
ARC
8
DEFAULT_255_2_778
10
-0.4980737
20
8.9953317
40
16.2084112
50
1.424973
51
1.4278133
0
LINE
8
DEFAULT_255_2_778
10
15.7053051
20
9.3992042
11
15.7040706
21
9.4484386
0
ARC
8
DEFAULT_255_2_778
10
32.1172289
20
9.8585886
40
16.4182822
50
181.3117794
51
181.431472
0
ARC
8
DEFAULT_255_2_778
10
22.3273683
20
9.6358747
40
6.6258889
50
180.966424
51
181.324426
0
ARC
8
DEFAULT_255_2_778
10
18.9214386
20
9.5788117
40
3.2194814
50
180.3354919
51
180.9733854
0
ARC
8
DEFAULT_255_2_778
10
17.8288848
20
9.5712217
40
2.1269024
50
180.006407
51
180.3033664
0
ARC
8
DEFAULT_255_2_778
10
6.766833
20
3.2730818
40
2.4280094
50
160.8571937
51
161.9816404
0
ARC
8
DEFAULT_255_2_778
10
6.6247806
20
3.3193455
40
2.2786133
50
161.9830213
51
163.6538665
0
ARC
8
DEFAULT_255_2_778
10
6.5534037
20
3.3404639
40
2.204178
50
163.6584528
51
164.5386162
0
ARC
8
DEFAULT_255_2_778
10
6.4095496
20
3.3788381
40
2.0553001
50
164.5005803
51
168.6670323
0
ARC
8
DEFAULT_255_2_778
10
6.0393341
20
3.4495419
40
1.6784125
50
168.5500785
51
176.3999967
0
ARC
8
DEFAULT_255_2_778
10
5.7295228
20
3.4731347
40
1.3677374
50
176.5714579
51
179.966897
0
ARC
8
DEFAULT_255_2_778
10
5.5484162
20
3.472337
40
1.1866316
50
179.9233311
51
185.5149112
0
ARC
8
DEFAULT_255_2_778
10
5.3164097
20
3.4472885
40
0.9532954
50
185.3564991
51
196.6288053
0
ARC
8
DEFAULT_255_2_778
10
5.3994226
20
3.3766652
40
1.0167449
50
191.4698136
51
263.2423626
0
ARC
8
DEFAULT_255_2_778
10
5.5185768
20
3.6339176
40
1.1323203
50
105.7203947
51
157.3769302
0
ARC
8
DEFAULT_255_2_778
10
15.5833234
20
7.4500901
40
3.1619591
50
231.931536
51
232.2079361
0
ARC
8
DEFAULT_255_2_778
10
18.3504894
20
10.9866767
40
7.6524658
50
231.6405109
51
231.9476288
0
ARC
8
DEFAULT_255_2_778
10
20.6862896
20
13.939689
40
11.4176011
50
231.3412553
51
231.6457477
0
ARC
8
DEFAULT_255_2_778
10
22.5154536
20
16.2272042
40
14.3465203
50
231.0426387
51
231.3436832
0
ARC
8
DEFAULT_255_2_778
10
24.2806707
20
18.4094446
40
17.1533271
50
230.5915781
51
231.0406622
0
ARC
8
DEFAULT_255_2_778
10
25.8898894
20
20.3685104
40
19.6885832
50
230.0813062
51
230.5926088
0
ARC
8
DEFAULT_255_2_778
10
27.0295338
20
21.7312664
40
21.4650665
50
229.5188494
51
230.0824365
0
ARC
8
DEFAULT_255_2_778
10
27.6700734
20
22.4825584
40
22.452351
50
228.9869466
51
229.5202023
0
ARC
8
DEFAULT_255_2_778
10
27.9329093
20
22.7850739
40
22.8530983
50
228.2232144
51
228.9874344
0
ARC
8
DEFAULT_255_2_778
10
27.7737531
20
22.6080032
40
22.6150139
50
227.3023483
51
228.2250391
0
ARC
8
DEFAULT_255_2_778
10
27.0979869
20
21.877502
40
21.6198806
50
226.1275758
51
227.3057267
0
ARC
8
DEFAULT_255_2_778
10
25.7693652
20
20.500415
40
19.7063518
50
224.4074648
51
226.1374212
0
ARC
8
DEFAULT_255_2_778
10
24.5432184
20
19.2921679
40
17.9849372
50
223.7365991
51
224.391073
0
ARC
8
DEFAULT_255_2_778
10
23.1864766
20
18.0043315
40
16.1143202
50
221.6300893
51
223.7631968
0
ARC
8
DEFAULT_255_2_778
10
20.1710867
20
15.3606443
40
12.1042485
50
216.6367431
51
221.7586427
0
ARC
8
DEFAULT_255_2_778
10
17.8692119
20
13.6130144
40
9.2143085
50
214.9326224
51
216.4580367
0
ARC
8
DEFAULT_255_2_778
10
5.8827821
20
5.4956359
40
5.2647324
50
32.6602693
51
35.493251
0
ARC
8
DEFAULT_255_2_778
10
6.3413855
20
5.82347
40
4.701002
50
35.485343
51
38.8940935
0
ARC
8
DEFAULT_255_2_778
10
6.7510395
20
6.1543557
40
4.1744075
50
38.8897527
51
42.7332342
0
ARC
8
DEFAULT_255_2_778
10
7.0917069
20
6.4693929
40
3.7104005
50
42.7296923
51
47.0187202
0
ARC
8
DEFAULT_255_2_778
10
7.3626891
20
6.7604299
40
3.31274
50
47.0157276
51
51.7983828
0
ARC
8
DEFAULT_255_2_778
10
7.5712321
20
7.0258758
40
2.9751727
50
51.7930179
51
57.3380999
0
ARC
8
DEFAULT_255_2_778
10
7.7194499
20
7.2571603
40
2.7004709
50
57.3372596
51
63.6091538
0
ARC
8
DEFAULT_255_2_778
10
7.8089366
20
7.4369361
40
2.4996547
50
63.6149233
51
70.4692544
0
ARC
8
DEFAULT_255_2_778
10
7.8473722
20
7.5428105
40
2.3870227
50
70.4891517
51
76.0740693
0
ARC
8
DEFAULT_255_2_778
10
7.8591906
20
7.5895045
40
2.3388569
50
76.0797844
51
82.2685156
0
ARC
8
DEFAULT_255_2_778
10
7.8590167
20
7.5846573
40
2.3436835
50
82.2802446
51
89.7758192
0
ARC
8
DEFAULT_255_2_778
10
7.8584567
20
7.584963
40
2.3433801
50
89.7620988
51
90.0011336
0
ARC
8
DEFAULT_255_2_778
10
7.8700233
20
7.3881013
40
2.5402683
50
90.2619319
51
110.7119846
0
ARC
8
DEFAULT_255_2_778
10
8.017781
20
6.9841506
40
2.9703728
50
110.6221476
51
128.0638285
0
ARC
8
DEFAULT_255_2_778
10
8.0302078
20
6.9535836
40
3.0021143
50
127.8908835
51
139.1489742
0
ARC
8
DEFAULT_255_2_778
10
7.7510501
20
7.1924099
40
2.6347416
50
139.1066929
51
148.8379597
0
ARC
8
DEFAULT_255_2_778
10
0.3167829
20
11.6547517
40
6.0359663
50
324.3591628
51
329.1082949
0
ARC
8
DEFAULT_255_2_778
10
-0.3323705
20
12.1173325
40
6.8330713
50
320.9825068
51
324.3787035
0
ARC
8
DEFAULT_255_2_778
10
-0.9472365
20
12.6144025
40
7.623728
50
318.2434524
51
320.9892195
0
ARC
8
DEFAULT_255_2_778
10
-1.2950913
20
12.9204752
40
8.0870561
50
318.0985876
51
318.2670826
0
ARC
8
DEFAULT_255_2_778
10
-1.7290473
20
13.3168871
40
8.6747931
50
315.1688114
51
318.0640471
0
ARC
8
DEFAULT_255_2_778
10
-2.7019605
20
14.2827026
40
10.04569
50
313.0379107
51
315.1743994
0
ARC
8
DEFAULT_255_2_778
10
-2.7660217
20
14.3436385
40
10.1339501
50
313.0295868
51
313.0675077
0
ARC
8
DEFAULT_255_2_778
10
-2.6723589
20
14.2421417
40
9.9958426
50
312.9959053
51
313.0341229
0
ARC
8
DEFAULT_255_2_778
10
-3.5958825
20
15.232406
40
11.3499175
50
312.9632567
51
312.9967156
0
ARC
8
DEFAULT_255_2_778
10
-3.4887227
20
15.1175095
40
11.1928047
50
312.928949
51
312.9626768
0
ARC
8
DEFAULT_255_2_778
10
-3.3826562
20
15.0036871
40
11.037223
50
312.8942302
51
312.9282308
0
ARC
8
DEFAULT_255_2_778
10
-3.2784262
20
14.8916885
40
10.8842277
50
312.8592792
51
312.8935534
0
ARC
8
DEFAULT_255_2_778
10
-4.4685951
20
16.1741957
40
12.6338927
50
312.8302164
51
312.8595689
0
ARC
8
DEFAULT_255_2_778
10
-4.3475038
20
16.0447009
40
12.4566036
50
312.7970776
51
312.8266712
0
ARC
8
DEFAULT_255_2_778
10
-2.9784521
20
14.5660425
40
10.4414774
50
312.7622274
51
312.7973228
0
ARC
8
DEFAULT_255_2_778
10
-2.8808698
20
14.4600931
40
10.2974374
50
312.7284794
51
312.7638544
0
ARC
8
DEFAULT_255_2_778
10
-3.9969792
20
15.6675955
40
11.9417495
50
312.7007877
51
312.7311106
0
ARC
8
DEFAULT_255_2_778
10
-3.8838351
20
15.5453704
40
11.7751947
50
312.6689493
51
312.6995182
0
ARC
8
DEFAULT_255_2_778
10
-3.7718522
20
15.424303
40
11.6102782
50
312.636728
51
312.6675468
0
ARC
8
DEFAULT_255_2_778
10
-3.661872
20
15.3052446
40
11.4481964
50
312.6043355
51
312.6354046
0
ARC
8
DEFAULT_255_2_778
10
-5.1719154
20
16.9472661
40
13.6789958
50
312.5781733
51
312.6040208
0
ARC
8
DEFAULT_255_2_778
10
-3.448671
20
15.0726627
40
11.132683
50
312.5436634
51
312.5752337
0
ARC
8
DEFAULT_255_2_778
10
-4.9094835
20
16.6645374
40
13.2932474
50
312.5170475
51
312.543329
0
ARC
8
DEFAULT_255_2_778
10
-4.7813418
20
16.5262621
40
13.1047285
50
312.4861642
51
312.5126649
0
ARC
8
DEFAULT_255_2_778
10
-4.656256
20
16.3903445
40
12.920013
50
312.4574807
51
312.4842
0
ARC
8
DEFAULT_255_2_778
10
-4.5334692
20
16.256756
40
12.7385678
50
312.4286914
51
312.4556296
0
ARC
8
DEFAULT_255_2_778
10
-4.4119486
20
16.1244497
40
12.5589236
50
312.3995553
51
312.4267156
0
ARC
8
DEFAULT_255_2_778
10
-2.9546847
20
14.5287317
40
10.3979204
50
312.3661494
51
312.3987585
0
ARC
8
DEFAULT_255_2_778
10
-4.1736583
20
15.8646511
40
12.2063942
50
312.3404733
51
312.3680852
0
ARC
8
DEFAULT_255_2_778
10
-4.0594582
20
15.7390798
40
12.0366599
50
312.3134248
51
312.3412587
0
ARC
8
DEFAULT_255_2_778
10
-3.9464236
20
15.6147041
40
11.868594
50
312.2860504
51
312.3141096
0
ARC
8
DEFAULT_255_2_778
10
-2.5846781
20
14.1169437
40
9.8443318
50
312.254341
51
312.2879674
0
ARC
8
DEFAULT_255_2_778
10
-3.7247786
20
15.3704832
40
11.5387904
50
312.2305731
51
312.2590898
0
ARC
8
DEFAULT_255_2_778
10
-3.6161383
20
15.2506081
40
11.3770104
50
312.2024668
51
312.2312158
0
ARC
8
DEFAULT_255_2_778
10
-3.5110964
20
15.1337452
40
11.2198792
50
312.1770157
51
312.2059927
0
ARC
8
DEFAULT_255_2_778
10
-2.2377348
20
13.7271238
40
9.3225039
50
312.147164
51
312.1818296
0
ARC
8
DEFAULT_255_2_778
10
-5.2018039
20
17.0009556
40
13.7388009
50
312.1269866
51
312.1503681
0
ARC
8
DEFAULT_255_2_778
10
-5.0700237
20
16.8561332
40
13.542997
50
312.100902
51
312.1244793
0
ARC
8
DEFAULT_255_2_778
10
-4.9396206
20
16.7127301
40
13.3491695
50
312.0745009
51
312.098277
0
ARC
8
DEFAULT_255_2_778
10
-3.1489662
20
14.7287168
40
10.6765769
50
312.0466881
51
312.0762374
0
ARC
8
DEFAULT_255_2_778
10
-4.6874414
20
16.4340174
40
12.9733041
50
312.0241482
51
312.0483203
0
ARC
8
DEFAULT_255_2_778
10
-4.5655611
20
16.2986185
40
12.7911293
50
312.0002343
51
312.0246033
0
ARC
8
DEFAULT_255_2_778
10
-4.4449339
20
16.1645294
40
12.6107663
50
311.9760305
51
312.0005995
0
ARC
8
DEFAULT_255_2_778
10
-2.7693971
20
14.3016428
40
10.1052184
50
311.947254
51
311.9777304
0
ARC
8
DEFAULT_255_2_778
10
-4.2085537
20
15.9014208
40
12.2570689
50
311.9270576
51
311.9520325
0
ARC
8
DEFAULT_255_2_778
10
-4.0927658
20
15.7723662
40
12.0836851
50
311.9022869
51
311.9274678
0
ARC
8
DEFAULT_255_2_778
10
-6.6974964
20
18.6756962
40
15.984191
50
311.8820644
51
311.900986
0
ARC
8
DEFAULT_255_2_778
10
-4.0808645
20
15.7580637
40
12.0650914
50
311.8555981
51
311.8805151
0
ARC
8
DEFAULT_255_2_778
10
-3.9708921
20
15.6343514
40
11.8995673
50
311.8335543
51
311.8586658
0
ARC
8
DEFAULT_255_2_778
10
-6.2356356
20
18.1650533
40
15.2956701
50
311.8123682
51
311.8317865
0
ARC
8
DEFAULT_255_2_778
10
-3.7542556
20
15.3904401
40
11.5733423
50
311.7886615
51
311.8141707
0
ARC
8
DEFAULT_255_2_778
10
-5.9417033
20
17.8385711
40
14.8563702
50
311.767292
51
311.7870443
0
ARC
8
DEFAULT_255_2_778
10
-3.5430775
20
15.1522842
40
11.2550451
50
311.7430245
51
311.7689397
0
ARC
8
DEFAULT_255_2_778
10
-3.4396375
20
15.0354692
40
11.0990155
50
311.7199689
51
311.7460899
0
ARC
8
DEFAULT_255_2_778
10
-3.3401076
20
14.922003
40
10.9480876
50
311.7000371
51
311.7263584
0
ARC
8
DEFAULT_255_2_778
10
-5.3846307
20
17.2160689
40
14.0210036
50
311.681385
51
311.7018135
0
ARC
8
DEFAULT_255_2_778
10
-9.8680365
20
22.2539346
40
20.7649651
50
311.6630714
51
311.676782
0
ARC
8
DEFAULT_255_2_778
10
-3.0467712
20
14.5879912
40
10.5035641
50
311.6360614
51
311.6630028
0
ARC
8
DEFAULT_255_2_778
10
-9.4487081
20
21.7894278
40
20.1392004
50
311.6222915
51
311.6362578
0
ARC
8
DEFAULT_255_2_778
10
-5.2014359
20
17.0112019
40
13.7461759
50
311.5968462
51
311.6171843
0
ARC
8
DEFAULT_255_2_778
10
-9.0411229
20
21.3373057
40
19.5304971
50
311.5809027
51
311.5951308
0
ARC
8
DEFAULT_255_2_778
10
-8.841948
20
21.1161135
40
19.2328535
50
311.5600281
51
311.574389
0
ARC
8
DEFAULT_255_2_778
10
-4.8238563
20
16.5845737
40
13.1764591
50
311.5377215
51
311.5585564
0
ARC
8
DEFAULT_255_2_778
10
-4.7033787
20
16.4474808
40
12.9939523
50
311.5199329
51
311.5409326
0
ARC
8
DEFAULT_255_2_778
10
-4.58137
20
16.3096874
40
12.8099056
50
311.4987136
51
311.5198862
0
ARC
8
DEFAULT_255_2_778
10
-4.4647679
20
16.1767177
40
12.6330544
50
311.4808877
51
311.5022267
0
ARC
8
DEFAULT_255_2_778
10
-5.0118982
20
16.7947525
40
13.4584745
50
311.4532945
51
311.4831419
0
ARC
8
DEFAULT_255_2_778
10
-4.8249714
20
16.5823551
40
13.1755363
50
311.4252933
51
311.4555048
0
ARC
8
DEFAULT_255_2_778
10
-6.3090545
20
18.2637702
40
15.4182265
50
311.4008158
51
311.4263983
0
ARC
8
DEFAULT_255_2_778
10
-6.0928199
20
18.0185021
40
15.0912497
50
311.3749291
51
311.4008284
0
ARC
8
DEFAULT_255_2_778
10
-5.877228
20
17.7746731
40
14.7657776
50
311.3463199
51
311.3725495
0
ARC
8
DEFAULT_255_2_778
10
-5.6701431
20
17.539223
40
14.4522161
50
311.3200642
51
311.3466193
0
ARC
8
DEFAULT_255_2_778
10
-5.4700964
20
17.3106523
40
14.1484684
50
311.2959214
51
311.3227998
0
ARC
8
DEFAULT_255_2_778
10
-7.4556652
20
19.5703655
40
17.1565887
50
311.275581
51
311.2975451
0
ARC
8
DEFAULT_255_2_778
10
-7.210348
20
19.2918251
40
16.7854216
50
311.2512228
51
311.2734682
0
ARC
8
DEFAULT_255_2_778
10
-6.9704414
20
19.0191234
40
16.422212
50
311.2267427
51
311.2492731
0
ARC
8
DEFAULT_255_2_778
10
-6.7358452
20
18.7521557
40
16.0668152
50
311.2021439
51
311.2249629
0
ARC
8
DEFAULT_255_2_778
10
-6.8244186
20
18.8530656
40
16.2010838
50
311.1803238
51
311.2027476
0
ARC
8
DEFAULT_255_2_778
10
-9.3953123
20
21.7935636
40
20.1069795
50
311.1591296
51
311.1770327
0
ARC
8
DEFAULT_255_2_778
10
-9.1002761
20
21.4583058
40
19.6603904
50
311.1366809
51
311.1548239
0
ARC
8
DEFAULT_255_2_778
10
-8.8198521
20
21.1379441
40
19.2346335
50
311.1169743
51
311.1353498
0
ARC
8
DEFAULT_255_2_778
10
-5.9516915
20
17.8521638
40
14.8731317
50
311.0932031
51
311.1167504
0
ARC
8
DEFAULT_255_2_778
10
-8.757253
20
21.0691078
40
19.1416096
50
311.0748804
51
311.0930099
0
ARC
8
DEFAULT_255_2_778
10
-6.9378145
20
18.9812243
40
16.3722028
50
311.0512465
51
311.0757431
0
ARC
8
DEFAULT_255_2_778
10
-6.670923
20
18.6743561
40
15.9655098
50
311.0273333
51
311.0521865
0
ARC
8
DEFAULT_255_2_778
10
-4.897541
20
16.6346101
40
13.2626509
50
311.0024631
51
311.0320627
0
ARC
8
DEFAULT_255_2_778
10
-8.6501946
20
20.9493242
40
18.9809692
50
310.9856556
51
311.0061176
0
ARC
8
DEFAULT_255_2_778
10
-8.3369421
20
20.5891399
40
18.5036226
50
310.9641709
51
310.9849372
0
ARC
8
DEFAULT_255_2_778
10
-8.4320988
20
20.6990927
40
18.6490335
50
310.9430826
51
310.9634675
0
ARC
8
DEFAULT_255_2_778
10
-8.6242674
20
20.9205615
40
18.9422523
50
310.9218911
51
310.9431619
0
ARC
8
DEFAULT_255_2_778
10
-8.2937769
20
20.5392185
40
18.4376273
50
310.900509
51
310.9221124
0
ARC
8
DEFAULT_255_2_778
10
-11.481355
20
24.2195289
40
23.3064402
50
310.8827515
51
310.8996468
0
ARC
8
DEFAULT_255_2_778
10
-8.0760264
20
20.2855711
40
18.1033366
50
310.8612519
51
310.8834698
0
ARC
8
DEFAULT_255_2_778
10
-10.9404674
20
23.5975629
40
22.4821847
50
310.8421738
51
310.8601377
0
ARC
8
DEFAULT_255_2_778
10
-10.3414966
20
22.9053543
40
21.5668058
50
310.8222812
51
310.8410027
0
ARC
8
DEFAULT_255_2_778
10
-10.5592858
20
23.1574844
40
21.8999752
50
310.8039677
51
310.8222518
0
ARC
8
DEFAULT_255_2_778
10
-10.1584155
20
22.6920204
40
21.2856844
50
310.7873486
51
310.8059311
0
ARC
8
DEFAULT_255_2_778
10
-14.7483474
20
28.0128376
40
28.312673
50
310.7722854
51
310.7860856
0
ARC
8
DEFAULT_255_2_778
10
-14.193008
20
27.3721748
40
27.4648251
50
310.7536908
51
310.7677436
0
ARC
8
DEFAULT_255_2_778
10
-9.5117864
20
21.9390012
40
20.2931301
50
310.7368503
51
310.7556375
0
ARC
8
DEFAULT_255_2_778
10
-13.1672229
20
26.183367
40
25.8946348
50
310.7222293
51
310.736773
0
ARC
8
DEFAULT_255_2_778
10
-13.5485192
20
26.6271343
40
26.4797125
50
310.7070269
51
310.7210758
0
ARC
8
DEFAULT_255_2_778
10
-23.3142686
20
37.9803553
40
41.4552087
50
310.6960839
51
310.7049483
0
ARC
8
DEFAULT_255_2_778
10
-8.5840925
20
20.8528876
40
18.864763
50
310.6762284
51
310.6954703
0
ARC
8
DEFAULT_255_2_778
10
-13.0031294
20
25.9923649
40
25.6428242
50
310.6657999
51
310.679783
0
ARC
8
DEFAULT_255_2_778
10
-12.5389293
20
25.4503515
40
24.9292002
50
310.6541064
51
310.6683144
0
ARC
8
DEFAULT_255_2_778
10
-22.3623078
20
36.8906898
40
40.0083284
50
310.6443482
51
310.6530932
0
ARC
8
DEFAULT_255_2_778
10
-21.5950621
20
35.9987199
40
38.8317763
50
310.6337275
51
310.6426277
0
ARC
8
DEFAULT_255_2_778
10
-12.1061067
20
24.9410482
40
24.2608334
50
310.6194984
51
310.6335702
0
ARC
8
DEFAULT_255_2_778
10
-22.5297739
20
37.091526
40
40.269798
50
310.6135794
51
310.6219538
0
ARC
8
DEFAULT_255_2_778
10
-81.6790585
20
106.0875236
40
131.1493089
50
310.6057966
51
310.6083366
0
ARC
8
DEFAULT_255_2_778
10
974.9937409
20
-1128.5893652
40
1493.9613294
50
130.5536783
51
130.5602273
0
ARC
8
DEFAULT_255_2_778
10
9.1927448
20
-0.202045
40
8.6904824
50
130.4901288
51
131.5208016
0
ARC
8
DEFAULT_255_2_778
10
4.7896559
20
4.7627697
40
2.054486
50
131.3667564
51
134.5113892
0
ARC
8
DEFAULT_255_2_778
10
3.7271803
20
5.84077
40
0.540906
50
134.3069606
51
140.8211056
0
ARC
8
DEFAULT_255_2_778
10
3.2081214
20
6.2634164
40
0.1284614
50
319.0671799
51
320.948846
0
ARC
8
DEFAULT_255_2_778
10
3.1835838
20
6.2846661
40
0.1609213
50
317.5526217
51
319.0752578
0
ARC
8
DEFAULT_255_2_778
10
3.1593809
20
6.3067318
40
0.193673
50
316.6068172
51
317.568182
0
ARC
8
DEFAULT_255_2_778
10
3.13682
20
6.3280788
40
0.2247323
50
315.7450759
51
316.6036113
0
ARC
8
DEFAULT_255_2_778
10
3.1140113
20
6.3503181
40
0.2565885
50
314.964917
51
315.7424747
0
ARC
8
DEFAULT_255_2_778
10
3.0868171
20
6.3775572
40
0.2950787
50
314.2655435
51
314.9633306
0
ARC
8
DEFAULT_255_2_778
10
3.0566762
20
6.4085413
40
0.3383047
50
313.6314341
51
314.2584072
0
ARC
8
DEFAULT_255_2_778
10
3.0309966
20
6.4354704
40
0.3755152
50
313.0513399
51
313.63222
0
ARC
8
DEFAULT_255_2_778
10
2.9950283
20
6.4739732
40
0.4282047
50
312.5282417
51
313.0512768
0
ARC
8
DEFAULT_255_2_778
10
2.9610146
20
6.5110394
40
0.4785121
50
312.0497225
51
312.5295836
0
ARC
8
DEFAULT_255_2_778
10
2.9238775
20
6.552197
40
0.5339477
50
311.6105446
51
312.050832
0
ARC
8
DEFAULT_255_2_778
10
2.8766026
20
6.6054387
40
0.6051487
50
311.212402
51
311.6096288
0
ARC
8
DEFAULT_255_2_778
10
2.8319158
20
6.6565754
40
0.6730595
50
310.8412818
51
311.2060255
0
ARC
8
DEFAULT_255_2_778
10
2.7940028
20
6.7003954
40
0.7310043
50
310.5061069
51
310.8432683
0
ARC
8
DEFAULT_255_2_778
10
2.7500963
20
6.7516797
40
0.7985163
50
310.2120678
51
310.5113507
0
ARC
8
DEFAULT_255_2_778
10
2.694746
20
6.8170498
40
0.884172
50
309.9413928
51
310.2162607
0
ARC
8
DEFAULT_255_2_778
10
2.6384559
20
6.8841909
40
0.9717878
50
309.7075193
51
309.9445078
0
ARC
8
DEFAULT_255_2_778
10
2.5904639
20
6.9419151
40
1.0468565
50
309.4867229
51
309.7098649
0
ARC
8
DEFAULT_255_2_778
10
2.5098404
20
7.039717
40
1.1736057
50
309.2864672
51
309.4882255
0
ARC
8
DEFAULT_255_2_778
10
2.4530824
20
7.1091674
40
1.2632986
50
309.0945184
51
309.284391
0
ARC
8
DEFAULT_255_2_778
10
2.3932067
20
7.1828558
40
1.3582463
50
308.9158072
51
309.0945986
0
ARC
8
DEFAULT_255_2_778
10
2.329677
20
7.2615909
40
1.4594154
50
308.7463002
51
308.914667
0
ARC
8
DEFAULT_255_2_778
10
2.2300218
20
7.3857994
40
1.6186601
50
308.6143433
51
308.7457617
0
ARC
8
DEFAULT_255_2_778
10
2.2106952
20
7.4101196
40
1.6497242
50
308.4815453
51
308.6116858
0
ARC
8
DEFAULT_255_2_778
10
2.1772212
20
7.4520063
40
1.7033432
50
308.3590589
51
308.4862261
0
ARC
8
DEFAULT_255_2_778
10
1.996135
20
7.6806482
40
1.9950097
50
308.252545
51
308.3620495
0
ARC
8
DEFAULT_255_2_778
10
1.9807215
20
7.7002525
40
2.0199477
50
308.1425515
51
308.2515926
0
ARC
8
DEFAULT_255_2_778
10
1.8496585
20
7.8671615
40
2.2321648
50
308.0428844
51
308.1423367
0
ARC
8
DEFAULT_255_2_778
10
1.696763
20
8.0626843
40
2.4803707
50
307.9508972
51
308.0410747
0
ARC
8
DEFAULT_255_2_778
10
1.6881402
20
8.0740723
40
2.4946533
50
307.8558994
51
307.9462116
0
ARC
8
DEFAULT_255_2_778
10
1.6825605
20
8.0809676
40
2.5035218
50
307.7692623
51
307.8598814
0
ARC
8
DEFAULT_255_2_778
10
1.5082556
20
8.3058342
40
2.7880339
50
307.688542
51
307.7704572
0
ARC
8
DEFAULT_255_2_778
10
1.2999195
20
8.5755292
40
3.1288262
50
307.6147678
51
307.6882282
0
ARC
8
DEFAULT_255_2_778
10
1.3076971
20
8.5653023
40
3.1159781
50
307.5420433
51
307.6162592
0
ARC
8
DEFAULT_255_2_778
10
0.9915998
20
8.9767984
40
3.6348677
50
307.4763634
51
307.5403587
0
ARC
8
DEFAULT_255_2_778
10
1.0119471
20
8.9504048
40
3.6015418
50
307.4099964
51
307.4749475
0
ARC
8
DEFAULT_255_2_778
10
0.7873034
20
9.2440099
40
3.9712292
50
307.3517422
51
307.4109643
0
ARC
8
DEFAULT_255_2_778
10
0.414675
20
9.732535
40
4.5856465
50
307.2979499
51
307.3495013
0
ARC
8
DEFAULT_255_2_778
10
0.3559555
20
9.8098809
40
4.6827565
50
307.2452921
51
307.2960232
0
ARC
8
DEFAULT_255_2_778
10
-0.1469548
20
10.4721392
40
5.514324
50
307.1970727
51
307.2403563
0
ARC
8
DEFAULT_255_2_778
10
0.3618185
20
9.8019706
40
4.6729107
50
307.1443831
51
307.19569
0
ARC
8
DEFAULT_255_2_778
10
0.0324057
20
10.2364219
40
5.2181268
50
307.100958
51
307.1471012
0
ARC
8
DEFAULT_255_2_778
10
-0.7760761
20
11.3057486
40
6.5586873
50
307.0622021
51
307.099064
0
ARC
8
DEFAULT_255_2_778
10
-1.7258679
20
12.5641962
40
8.1353276
50
307.0286581
51
307.0584919
0
ARC
8
DEFAULT_255_2_778
10
0.0223848
20
10.2467906
40
5.23244
50
306.9808391
51
307.027396
0
ARC
8
DEFAULT_255_2_778
10
-1.5691115
20
12.3589769
40
7.8770933
50
306.9553648
51
306.9863997
0
ARC
8
DEFAULT_255_2_778
10
-1.338103
20
12.0523954
40
7.4932222
50
306.9204494
51
306.9531833
0
ARC
8
DEFAULT_255_2_778
10
-2.5325863
20
13.6421765
40
9.4817379
50
306.894278
51
306.9202289
0
ARC
8
DEFAULT_255_2_778
10
-2.1751758
20
13.1656009
40
8.8860313
50
306.868248
51
306.8960218
0
ARC
8
DEFAULT_255_2_778
10
0.0493454
20
10.1981902
40
5.17739
50
306.8444223
51
306.8762457
0
ARC
8
DEFAULT_255_2_778
10
-1.3200168
20
12.0234656
40
7.4592274
50
306.8325796
51
306.8547082
0
ARC
8
DEFAULT_255_2_778
10
-4.7937968
20
16.6612035
40
13.2536867
50
306.8207753
51
306.8332511
0
ARC
8
DEFAULT_255_2_778
10
-1.3851653
20
12.1070528
40
7.5651847
50
306.8042453
51
306.8261389
0
ARC
8
DEFAULT_255_2_778
10
261.3138736
20
-339.0484549
40
430.9789701
50
126.8000485
51
126.8004335
0
ARC
8
DEFAULT_255_2_778
10
-5.0088117
20
16.9494395
40
13.6132853
50
306.7816018
51
306.793807
0
ARC
8
DEFAULT_255_2_778
10
-5.0891439
20
17.0582978
40
13.7485727
50
306.7659951
51
306.7780981
0
ARC
8
DEFAULT_255_2_778
10
-5.1525252
20
17.1426533
40
13.8540858
50
306.7551378
51
306.7671657
0
ARC
8
DEFAULT_255_2_778
10
-36.0377959
20
58.4976446
40
65.4693477
50
306.7513673
51
306.753916
0
ARC
8
DEFAULT_255_2_778
10
-36.6250079
20
59.2909657
40
66.4563427
50
306.7452483
51
306.7477624
0
ARC
8
DEFAULT_255_2_778
10
594.0175776
20
-786.9327538
40
988.9131242
50
126.6917037
51
126.6975347
0
ARC
8
DEFAULT_255_2_778
10
11.0343242
20
-4.7320807
40
13.3582223
50
126.6934287
51
127.3506936
0
ARC
8
DEFAULT_255_2_778
10
8.0689694
20
-0.8445831
40
8.4688496
50
127.3591051
51
128.6238958
0
ARC
8
DEFAULT_255_2_778
10
7.0753062
20
0.399602
40
6.8765672
50
128.6265421
51
130.4560816
0
ARC
8
DEFAULT_255_2_778
10
6.4633805
20
1.116271
40
5.9341941
50
130.450337
51
133.081847
0
ARC
8
DEFAULT_255_2_778
10
6.0416207
20
1.5693418
40
5.3152012
50
133.0971768
51
135.2373989
0
ARC
8
DEFAULT_255_2_778
10
5.6228581
20
1.9804186
40
4.7283997
50
135.2010067
51
139.5729771
0
ARC
8
DEFAULT_255_2_778
10
5.0739002
20
2.4437283
40
4.0100697
50
139.5258092
51
146.4182873
0
ARC
8
DEFAULT_255_2_778
10
4.5203958
20
2.8090164
40
3.3468966
50
146.3868433
51
155.8830064
0
ARC
8
DEFAULT_255_2_778
10
4.1262986
20
2.9879409
40
2.914091
50
155.9277989
51
166.3189852
0
ARC
8
DEFAULT_255_2_778
10
3.9815798
20
3.0263253
40
2.7644015
50
166.3825516
51
175.6488577
0
ARC
8
DEFAULT_255_2_778
10
4.0130607
20
3.02429
40
2.795946
50
175.6562151
51
180.0082582
0
ARC
8
DEFAULT_255_2_778
10
4.081168
20
3.0242178
40
2.8640533
50
180.0066166
51
183.2168301
0
ARC
8
DEFAULT_255_2_778
10
4.1709675
20
3.0293828
40
2.9540012
50
183.2191138
51
186.5193009
0
ARC
8
DEFAULT_255_2_778
10
4.2904411
20
3.0430743
40
3.0742568
50
186.5200137
51
189.639584
0
ARC
8
DEFAULT_255_2_778
10
4.4324594
20
3.0671846
40
3.2183072
50
189.6393867
51
192.5205326
0
ARC
8
DEFAULT_255_2_778
10
4.4941155
20
3.0801636
40
3.2813109
50
192.5083793
51
192.6999289
0
ARC
8
DEFAULT_255_2_778
10
5.6205938
20
3.32911
40
4.4349619
50
192.6379844
51
196.4209882
0
ARC
8
DEFAULT_255_2_778
10
5.1163931
20
3.1801687
40
3.9092228
50
196.4161198
51
200.6915711
0
ARC
8
DEFAULT_255_2_778
10
4.7046331
20
3.0246748
40
3.4690812
50
200.6920056
51
205.2616986
0
ARC
8
DEFAULT_255_2_778
10
4.3768394
20
2.8697424
40
3.1065171
50
205.2574775
51
210.460118
0
ARC
8
DEFAULT_255_2_778
10
4.1252685
20
2.7218468
40
2.8146934
50
210.4610863
51
216.1552195
0
ARC
8
DEFAULT_255_2_778
10
3.9483217
20
2.5927018
40
2.5956304
50
216.1578612
51
222.4308928
0
ARC
8
DEFAULT_255_2_778
10
3.8407738
20
2.4949219
40
2.450278
50
222.4400606
51
228.8974867
0
ARC
8
DEFAULT_255_2_778
10
3.7924624
20
2.4403568
40
2.3774009
50
228.910327
51
234.3764348
0
ARC
8
DEFAULT_255_2_778
10
3.7776978
20
2.4200591
40
2.3523019
50
234.3807959
51
241.45496
0
ARC
8
DEFAULT_255_2_778
10
3.7825132
20
2.4292613
40
2.3626866
50
241.4590145
51
247.8471261
0
ARC
8
DEFAULT_255_2_778
10
3.7867352
20
2.4392011
40
2.3734847
50
247.8432085
51
253.2548412
0
ARC
8
DEFAULT_255_2_778
10
3.7769278
20
2.4054966
40
2.3383838
50
253.247019
51
257.7756745
0
ARC
8
DEFAULT_255_2_778
10
3.7525219
20
2.2916101
40
2.2219121
50
257.7689259
51
261.3565237
0
ARC
8
DEFAULT_255_2_778
10
3.7198589
20
2.0747117
40
2.0025684
50
261.3478046
51
264.3577357
0
ARC
8
DEFAULT_255_2_778
10
3.6861403
20
1.7291914
40
1.655407
50
264.3433624
51
266.9483312
0
ARC
8
DEFAULT_255_2_778
10
3.6601105
20
1.2301933
40
1.1557309
50
266.9199751
51
269.1802103
0
ARC
8
DEFAULT_255_2_778
10
3.6526279
20
0.7830364
40
0.7085135
50
269.2678787
51
269.9805039
0
ARC
8
DEFAULT_255_2_778
10
3.6524786
20
0.581508
40
0.5069852
50
269.9896296
51
270.3527535
0
ARC
8
DEFAULT_255_2_778
10
3.6532782
20
0.4577739
40
0.3832486
50
270.3470975
51
270.6929988
0
ARC
8
DEFAULT_255_2_778
10
3.6551398
20
0.3059882
40
0.2314515
50
270.6866567
51
271.0330584
0
ARC
8
DEFAULT_255_2_778
10
3.6573502
20
0.182115
40
0.1075586
50
271.0454892
51
271.2957551
0
ARC
8
DEFAULT_255_2_778
10
4.365022
20
10.3786778
40
10.3282
50
266.0846307
51
268.6272031
0
ARC
8
DEFAULT_255_2_778
10
4.3650422
20
10.3790715
40
10.3285939
50
268.6271434
51
270.000037
0
ARC
8
DEFAULT_255_2_778
10
4.3650183
20
10.3816321
40
10.3311544
50
270.0001693
51
282.4567915
0
ARC
8
DEFAULT_255_2_778
10
7.8811104
20
-5.7605597
40
6.1896568
50
90.5542631
51
102.0068703
0
ARC
8
DEFAULT_255_2_778
10
7.8810995
20
-5.7586348
40
6.1877318
50
90.0000103
51
90.554335
0
ARC
8
DEFAULT_255_2_778
10
7.8811638
20
-5.7590086
40
6.1881056
50
74.5814699
51
90.0006048
0
ARC
8
DEFAULT_255_2_778
10
4.8916108
20
-16.5920809
40
17.4261162
50
74.5705799
51
74.5755807
0
ARC
8
DEFAULT_255_2_778
10
8.8484916
20
-2.2572765
40
2.5552211
50
74.5472652
51
74.581336
0
ARC
8
DEFAULT_255_2_778
10
8.850062
20
-2.2546047
40
2.5522276
50
74.5311875
51
74.565264
0
ARC
8
DEFAULT_255_2_778
10
4.8623333
20
-16.6766015
40
17.5153814
50
74.5369219
51
74.5418823
0
ARC
8
DEFAULT_255_2_778
10
4.8431884
20
-16.732942
40
17.5747872
50
74.5207993
51
74.5257378
0
ARC
8
DEFAULT_255_2_778
10
19.5188842
20
36.2443166
40
37.3976238
50
254.5141397
51
254.5168449
0
ARC
8
DEFAULT_255_2_778
10
16.7965573
20
26.3901421
40
27.1743293
50
254.5018941
51
254.5050808
0
ARC
8
DEFAULT_255_2_778
10
16.7106033
20
26.0460526
40
26.8197848
50
254.485652
51
254.4888773
0
ARC
8
DEFAULT_255_2_778
10
16.6894165
20
25.9612629
40
26.7324174
50
254.484034
51
254.4872664
0
ARC
8
DEFAULT_255_2_778
10
4.7960625
20
-16.8675798
40
17.7171233
50
74.4649021
51
74.469774
0
ARC
8
DEFAULT_255_2_778
10
8.8666019
20
-2.2262622
40
2.5204965
50
74.4412573
51
74.4754654
0
ARC
8
DEFAULT_255_2_778
10
4.7846854
20
-16.8989606
40
17.7504052
50
74.4469396
51
74.4517916
0
ARC
8
DEFAULT_255_2_778
10
8.8710257
20
-2.2186287
40
2.5119564
50
74.4232269
51
74.4574748
0
ARC
8
DEFAULT_255_2_778
10
12.2582767
20
9.9319464
40
10.1019228
50
254.422907
51
254.4328327
0
ARC
8
DEFAULT_255_2_778
10
8.87554
20
-2.2102474
40
2.5026707
50
74.3968996
51
74.4311899
0
ARC
8
DEFAULT_255_2_778
10
4.7487659
20
-16.9997234
40
17.8571119
50
74.4025585
51
74.4073587
0
ARC
8
DEFAULT_255_2_778
10
12.6240742
20
11.2016061
40
11.4231797
50
254.3894514
51
254.3988224
0
ARC
8
DEFAULT_255_2_778
10
8.351206
20
-4.0986778
40
4.4625401
50
74.3688855
51
74.3912396
0
ARC
8
DEFAULT_255_2_778
10
8.3546411
20
-4.0903701
40
4.4536142
50
74.3602783
51
74.3826461
0
ARC
8
DEFAULT_255_2_778
10
8.3580852
20
-4.0820242
40
4.444649
50
74.3516472
51
74.3740287
0
ARC
8
DEFAULT_255_2_778
10
8.3615381
20
-4.073641
40
4.4356452
50
74.3429919
51
74.3653872
0
ARC
8
DEFAULT_255_2_778
10
18.212604
20
31.0626748
40
32.055507
50
254.3375971
51
254.3406916
0
ARC
8
DEFAULT_255_2_778
10
18.1296194
20
30.7350668
40
31.7176609
50
254.3252966
51
254.3284196
0
ARC
8
DEFAULT_255_2_778
10
18.0661132
20
30.4845769
40
31.4593288
50
254.3165493
51
254.3196933
0
ARC
8
DEFAULT_255_2_778
10
18.0030969
20
30.2360826
40
31.2030516
50
254.3077773
51
254.3109425
0
ARC
8
DEFAULT_255_2_778
10
17.9224676
20
29.9179993
40
30.8750166
50
254.2953736
51
254.2985676
0
ARC
8
DEFAULT_255_2_778
10
19.1057768
20
34.1075792
40
35.2284951
50
254.2898647
51
254.2928597
0
ARC
8
DEFAULT_255_2_778
10
12.891153
20
11.9939764
40
12.2582332
50
254.2739472
51
254.2831141
0
ARC
8
DEFAULT_255_2_778
10
8.3886296
20
-4.0055285
40
4.3627437
50
74.2583804
51
74.2808753
0
ARC
8
DEFAULT_255_2_778
10
8.3917592
20
-3.9972174
40
4.3538953
50
74.2458416
51
74.2683476
0
ARC
8
DEFAULT_255_2_778
10
12.8496643
20
11.8050007
40
12.065088
50
254.2459305
51
254.2551994
0
ARC
8
DEFAULT_255_2_778
10
17.5230852
20
28.3466593
40
29.2542501
50
254.2367048
51
254.2400432
0
ARC
8
DEFAULT_255_2_778
10
19.8926585
20
36.7193025
40
37.9557441
50
254.2303489
51
254.2332853
0
ARC
8
DEFAULT_255_2_778
10
19.179323
20
34.1656236
40
35.3043172
50
254.2212891
51
254.2243418
0
ARC
8
DEFAULT_255_2_778
10
2.8835165
20
-23.4988385
40
24.6184958
50
74.2094982
51
74.2134449
0
ARC
8
DEFAULT_255_2_778
10
12.5829472
20
10.7944218
40
11.0200599
50
254.201713
51
254.2114595
0
ARC
8
DEFAULT_255_2_778
10
17.2335019
20
27.2127449
40
28.08432
50
254.1953928
51
254.1988406
0
ARC
8
DEFAULT_255_2_778
10
18.9019285
20
33.086124
40
34.1900713
50
254.1886828
51
254.1918134
0
ARC
8
DEFAULT_255_2_778
10
17.1367648
20
26.8355276
40
27.6950168
50
254.1827736
51
254.1862577
0
ARC
8
DEFAULT_255_2_778
10
12.7253259
20
11.2458681
40
11.4932194
50
254.1669327
51
254.1765131
0
ARC
8
DEFAULT_255_2_778
10
19.282005
20
34.3479612
40
35.5077301
50
254.1622054
51
254.1653004
0
ARC
8
DEFAULT_255_2_778
10
16.9378353
20
26.0559769
40
26.8907663
50
254.1496189
51
254.1531876
0
ARC
8
DEFAULT_255_2_778
10
17.9877919
20
29.7426247
40
30.7240117
50
254.146933
51
254.1502741
0
ARC
8
DEFAULT_255_2_778
10
18.4905409
20
31.4900035
40
32.5422665
50
254.1390069
51
254.1422606
0
ARC
8
DEFAULT_255_2_778
10
12.656643
20
10.9412873
40
11.1814595
50
254.1266106
51
254.136367
0
ARC
8
DEFAULT_255_2_778
10
12.6434093
20
10.8831779
40
11.1219462
50
254.1201166
51
254.1299058
0
ARC
8
DEFAULT_255_2_778
10
18.8615187
20
32.7236966
40
33.8303833
50
254.1152491
51
254.118461
0
ARC
8
DEFAULT_255_2_778
10
18.7979846
20
32.4794991
40
33.5781212
50
254.1087084
51
254.1119379
0
ARC
8
DEFAULT_255_2_778
10
12.6016075
20
10.6994292
40
10.9337729
50
254.097155
51
254.1070527
0
ARC
8
DEFAULT_255_2_778
10
16.5516863
20
24.5575021
40
25.3438144
50
254.0976006
51
254.1013289
0
ARC
8
DEFAULT_255_2_778
10
18.6112731
20
31.7624387
40
32.8373431
50
254.0889325
51
254.0922155
0
ARC
8
DEFAULT_255_2_778
10
18.5330604
20
31.4605134
40
32.5255438
50
254.0789382
51
254.0822458
0
ARC
8
DEFAULT_255_2_778
10
17.4213593
20
27.5562402
40
28.4660824
50
254.0788228
51
254.0823584
0
ARC
8
DEFAULT_255_2_778
10
2.9785686
20
-23.0747817
40
24.1846021
50
74.070944
51
74.0748202
0
ARC
8
DEFAULT_255_2_778
10
3.0042205
20
-22.9908982
40
24.0968995
50
74.0709731
51
74.0748563
0
ARC
8
DEFAULT_255_2_778
10
17.2556019
20
26.915592
40
27.8045427
50
254.0555077
51
254.059107
0
LINE
8
DEFAULT_255_2_778
10
9.6192077
20
0.1802582
11
9.6201013
21
0.180003
0
ARC
8
DEFAULT_255_2_778
10
8.3574464
20
-4.2424584
40
4.5991806
50
74.0437579
51
74.0654513
0
ARC
8
DEFAULT_255_2_778
10
18.1971388
20
30.1815053
40
31.2034565
50
254.0486566
51
254.0520606
0
ARC
8
DEFAULT_255_2_778
10
18.1216451
20
29.8905509
40
30.9029586
50
254.0384228
51
254.0418524
0
ARC
8
DEFAULT_255_2_778
10
18.0474312
20
29.6209012
40
30.6232965
50
254.0366467
51
254.0400935
0
ARC
8
DEFAULT_255_2_778
10
18.0324244
20
29.5550993
40
30.5559049
50
254.0332215
51
254.0366751
0
ARC
8
DEFAULT_255_2_778
10
17.9579959
20
29.2684302
40
30.2598219
50
254.0228871
51
254.0263668
0
ARC
8
DEFAULT_255_2_778
10
2.1070047
20
-26.090537
40
27.3237625
50
74.0134295
51
74.0170342
0
ARC
8
DEFAULT_255_2_778
10
17.8705731
20
28.9401098
40
29.9201206
50
254.0175851
51
254.0210893
0
ARC
8
DEFAULT_255_2_778
10
18.82959
20
32.2603773
40
33.3761059
50
254.0074443
51
254.0121478
0
ARC
8
DEFAULT_255_2_778
10
17.731565
20
28.4119887
40
29.3741399
50
254.003523
51
254.0070724
0
ARC
8
DEFAULT_255_2_778
10
17.6591437
20
28.1333707
40
29.0863531
50
253.9929955
51
253.9965719
0
ARC
8
DEFAULT_255_2_778
10
18.6190615
20
31.4660263
40
32.5544968
50
253.9896721
51
253.9944564
0
ARC
8
DEFAULT_255_2_778
10
270.367494
20
908.6230268
40
945.1232209
50
253.9865394
51
253.9867585
0
ARC
8
DEFAULT_255_2_778
10
237.709207
20
794.3432477
40
826.2686414
50
253.9774607
51
253.9777102
0
LINE
8
DEFAULT_255_2_778
10
9.6497288
20
0.1715143
11
9.650588
21
0.1712675
0
ARC
8
DEFAULT_255_2_778
10
208.9644931
20
693.7674961
40
721.6659623
50
253.9673063
51
253.9675902
0
ARC
8
DEFAULT_255_2_778
10
1.9154497
20
-26.7568339
40
28.0170485
50
73.9623715
51
73.9658941
0
ARC
8
DEFAULT_255_2_778
10
1.9235849
20
-26.7214637
40
27.9808074
50
73.954853
51
73.9583722
0
ARC
8
DEFAULT_255_2_778
10
1.7292584
20
-27.4124532
40
28.6985901
50
73.9598186
51
73.963297
0
ARC
8
DEFAULT_255_2_778
10
1.7260157
20
-27.4099396
40
28.6970704
50
73.9487393
51
73.9522098
0
ARC
8
DEFAULT_255_2_778
10
1.7713204
20
-27.2615563
40
28.5419455
50
73.9502985
51
73.9537796
0
ARC
8
DEFAULT_255_2_778
10
1.8165295
20
-27.1134733
40
28.3871354
50
73.9518653
51
73.9553571
0
ARC
8
DEFAULT_255_2_778
10
1.7122682
20
-27.4733983
40
28.7618564
50
73.9470078
51
73.9504733
0
ARC
8
DEFAULT_255_2_778
10
1.6769748
20
-27.5960529
40
28.8894877
50
73.9435524
51
73.9470078
0
ARC
8
DEFAULT_255_2_778
10
1.6578992
20
-27.655336
40
28.9517341
50
73.9362774
51
73.9397238
0
ARC
8
DEFAULT_255_2_778
10
163.7555788
20
535.2005803
40
556.7806624
50
253.9339373
51
253.9342061
0
ARC
8
DEFAULT_255_2_778
10
156.2595266
20
508.9860977
40
529.5155358
50
253.9286517
51
253.9289333
0
ARC
8
DEFAULT_255_2_778
10
19.0879476
20
32.8306655
40
33.9955688
50
253.9237816
51
253.9296097
0
ARC
8
DEFAULT_255_2_778
10
1.7965427
20
-27.17581
40
28.4525683
50
73.916444
51
73.9199059
0
ARC
8
DEFAULT_255_2_778
10
34.5329093
20
86.3794744
40
89.7272621
50
253.9191309
51
253.9213225
0
ARC
8
DEFAULT_255_2_778
10
172.0539698
20
562.5494945
40
585.3580919
50
253.8955902
51
253.9067325
0
ARC
8
DEFAULT_255_2_778
10
18.5427754
20
30.4854864
40
31.5911781
50
253.9181222
51
254.0836221
0
ARC
8
DEFAULT_255_2_778
10
14.9243364
20
17.7892619
40
18.38939
50
254.0773308
51
254.5014684
0
ARC
8
DEFAULT_255_2_778
10
13.554918
20
12.85112
40
13.264885
50
254.5018293
51
255.1656739
0
ARC
8
DEFAULT_255_2_778
10
13.1247752
20
11.2374046
40
11.5948275
50
255.1787926
51
255.2309321
0
ARC
8
DEFAULT_255_2_778
10
12.7966878
20
9.9760964
40
10.291555
50
255.2070508
51
256.4716357
0
ARC
8
DEFAULT_255_2_778
10
12.3410029
20
8.0765387
40
8.3381054
50
256.4625945
51
258.4188753
0
ARC
8
DEFAULT_255_2_778
10
12.0442229
20
6.6213731
40
6.8529849
50
258.4072196
51
261.1958686
0
ARC
8
DEFAULT_255_2_778
10
11.8317727
20
5.2069259
40
5.4226906
50
261.1267233
51
266.4112628
0
ARC
8
DEFAULT_255_2_778
10
11.7620423
20
4.1985617
40
4.4119439
50
266.4953604
51
269.957893
0
ARC
8
DEFAULT_255_2_778
10
11.7595723
20
3.7528135
40
3.9661944
50
269.988843
51
271.9135121
0
ARC
8
DEFAULT_255_2_778
10
11.8495291
20
2.6262129
40
2.8377002
50
270.8577
51
295.1546477
0
ARC
8
DEFAULT_255_2_778
10
12.0813969
20
2.0447426
40
2.2131299
50
296.1199172
51
309.5627061
0
ARC
8
DEFAULT_255_2_778
10
12.0402423
20
2.0899312
40
2.2741812
50
309.6369179
51
319.5371171
0
ARC
8
DEFAULT_255_2_778
10
11.8471785
20
2.2541378
40
2.5276321
50
319.5452107
51
327.4627851
0
ARC
8
DEFAULT_255_2_778
10
11.5226136
20
2.4616857
40
2.9128831
50
327.4548139
51
333.9148166
0
ARC
8
DEFAULT_255_2_778
10
11.1780684
20
2.6341387
40
3.2981638
50
333.8559552
51
337.0328422
0
ARC
8
DEFAULT_255_2_778
10
9.6549619
20
3.2837322
40
4.9540068
50
336.989148
51
339.6335007
0
ARC
8
DEFAULT_255_2_778
10
10.0277735
20
3.145602
40
4.5564287
50
339.6303277
51
342.6225291
0
ARC
8
DEFAULT_255_2_778
10
10.3698269
20
3.0385324
40
4.1980092
50
342.622845
51
345.747518
0
ARC
8
DEFAULT_255_2_778
10
10.6768455
20
2.9607033
40
3.8812794
50
345.74526
51
349.221262
0
ARC
8
DEFAULT_255_2_778
10
10.9484293
20
2.9089679
40
3.6048118
50
349.2217692
51
352.881993
0
ARC
8
DEFAULT_255_2_778
10
11.1813763
20
2.8799163
40
3.3700603
50
352.8813552
51
356.8660273
0
ARC
8
DEFAULT_255_2_778
10
11.3525704
20
2.8699952
40
3.1985798
50
356.8758228
51
359.9893854
0
ARC
8
DEFAULT_255_2_778
10
11.5062056
20
2.8707349
40
3.0449448
50
359.9749315
51
5.2545879
0
ARC
8
DEFAULT_255_2_778
10
11.6411874
20
2.8828934
40
2.9094168
50
5.2595995
51
10.6873762
0
ARC
8
DEFAULT_255_2_778
10
11.7209078
20
2.897669
40
2.8283392
50
10.6927408
51
16.1870433
0
ARC
8
DEFAULT_255_2_778
10
11.755558
20
2.9074876
40
2.7923256
50
16.1917677
51
21.3973131
0
ARC
8
DEFAULT_255_2_778
10
11.7625764
20
2.910129
40
2.7848273
50
21.3993946
51
26.4164661
0
ARC
8
DEFAULT_255_2_778
10
11.7624742
20
2.9101009
40
2.7849312
50
26.4160484
51
30.6310993
0
ARC
8
DEFAULT_255_2_778
10
11.7703424
20
2.9147542
40
2.7757899
50
30.6312013
51
32.990505
0
ARC
8
DEFAULT_255_2_778
10
11.7968786
20
2.9322373
40
2.7440128
50
32.986012
51
36.6449582
0
ARC
8
DEFAULT_255_2_778
10
11.8626878
20
2.9813387
40
2.6619046
50
36.6424193
51
39.6407131
0
ARC
8
DEFAULT_255_2_778
10
11.9743457
20
3.0741441
40
2.5167139
50
39.63545
51
42.4169326
0
ARC
8
DEFAULT_255_2_778
10
12.1435175
20
3.228941
40
2.287408
50
42.4126754
51
44.8308252
0
ARC
8
DEFAULT_255_2_778
10
12.362368
20
3.4466069
40
1.9787434
50
44.8286906
51
46.8219501
0
ARC
8
DEFAULT_255_2_778
10
12.6377971
20
3.7407151
40
1.5758034
50
46.8075031
51
48.7095993
0
ARC
8
DEFAULT_255_2_778
10
12.9826442
20
4.1339383
40
1.0527892
50
48.6895082
51
50.3648595
0
ARC
8
DEFAULT_255_2_778
10
13.3753013
20
4.608844
40
0.4365797
50
50.2931136
51
51.6821853
0
ARC
8
DEFAULT_255_2_778
10
5.4614526
20
3.9772252
40
2.60797
50
253.0141912
51
258.7705966
0
ARC
8
DEFAULT_255_2_778
10
5.4070924
20
3.7988084
40
2.4214559
50
246.8368943
51
253.0110477
0
ARC
8
DEFAULT_255_2_778
10
5.3553884
20
3.6774204
40
2.2895153
50
240.3934674
51
246.8315915
0
ARC
8
DEFAULT_255_2_778
10
5.3126524
20
3.6016936
40
2.2025623
50
234.2850104
51
240.3868116
0
ARC
8
DEFAULT_255_2_778
10
5.2794651
20
3.5550699
40
2.1453338
50
229.8299111
51
234.2777748
0
ARC
8
DEFAULT_255_2_778
10
5.2371648
20
3.5055862
40
2.0802356
50
224.1123655
51
229.8410154
0
ARC
8
DEFAULT_255_2_778
10
5.1515328
20
3.4229675
40
1.9612458
50
219.1553232
51
224.1207619
0
ARC
8
DEFAULT_255_2_778
10
4.9926707
20
3.2941402
40
1.7567137
50
214.89295
51
219.1687587
0
ARC
8
DEFAULT_255_2_778
10
4.7183942
20
3.1038093
40
1.4228685
50
210.9446544
51
214.9245565
0
ARC
8
DEFAULT_255_2_778
10
4.293448
20
2.8503589
40
0.9280813
50
207.0562894
51
211.0147909
0
ARC
8
DEFAULT_255_2_778
10
3.860548
20
2.6289556
40
0.4418493
50
203.7384382
51
207.0223655
0
ARC
8
DEFAULT_255_2_778
10
2.9314844
20
2.2320603
40
0.5684843
50
22.6608999
51
22.9991151
0
ARC
8
DEFAULT_255_2_778
10
2.7423737
20
2.151844
40
0.7739047
50
22.9955028
51
23.2526721
0
ARC
8
DEFAULT_255_2_778
10
2.5540366
20
2.0710341
40
0.9788465
50
23.2464087
51
23.3848664
0
ARC
8
DEFAULT_255_2_778
10
2.3944304
20
2.0022209
40
1.1526549
50
23.3755338
51
23.4952414
0
ARC
8
DEFAULT_255_2_778
10
1.7994305
20
1.7433532
40
1.8015287
50
23.5014563
51
23.5793014
0
ARC
8
DEFAULT_255_2_778
10
33.7273267
20
15.820981
40
33.0921826
50
203.7214091
51
203.8052784
0
ARC
8
DEFAULT_255_2_778
10
5.8242023
20
3.5551191
40
2.6120994
50
202.1173218
51
203.6248318
0
ARC
8
DEFAULT_255_2_778
10
5.523216
20
3.4316082
40
2.2867591
50
200.0230973
51
202.0897693
0
ARC
8
DEFAULT_255_2_778
10
5.5377204
20
3.4365635
40
2.3020835
50
197.5708612
51
200.015368
0
ARC
8
DEFAULT_255_2_778
10
5.6334014
20
3.4665049
40
2.4023395
50
194.1714709
51
197.5627487
0
ARC
8
DEFAULT_255_2_778
10
5.7724254
20
3.5014931
40
2.5456984
50
190.4484757
51
194.1689249
0
ARC
8
DEFAULT_255_2_778
10
5.9300849
20
3.5305545
40
2.7060139
50
186.6539474
51
190.4482162
0
ARC
8
DEFAULT_255_2_778
10
6.1119785
20
3.5515792
40
2.8891184
50
182.5181231
51
186.6501137
0
ARC
8
DEFAULT_255_2_778
10
6.2835529
20
3.5599145
40
3.0608935
50
179.9903678
51
182.5328926
0
ARC
8
DEFAULT_255_2_778
10
6.4383853
20
3.5597288
40
3.2157259
50
177.1541469
51
179.9875219
0
ARC
8
DEFAULT_255_2_778
10
6.6189256
20
3.550764
40
3.3964885
50
174.4063588
51
177.1543153
0
ARC
8
DEFAULT_255_2_778
10
6.8166212
20
3.531412
40
3.595129
50
171.7517514
51
174.4065176
0
ARC
8
DEFAULT_255_2_778
10
6.9566772
20
3.5118844
40
3.7365378
50
170.8792544
51
171.7635156
0
ARC
8
DEFAULT_255_2_778
10
5.8709392
20
3.3024276
40
2.7242102
50
157.3827305
51
162.8839653
0
ARC
8
DEFAULT_255_2_778
10
5.6181393
20
3.4075768
40
2.4504143
50
151.4820834
51
157.3790489
0
ARC
8
DEFAULT_255_2_778
10
5.4434171
20
3.5023338
40
2.2516515
50
145.0463015
51
151.4780537
0
ARC
8
DEFAULT_255_2_778
10
5.3359455
20
3.5771317
40
2.1207133
50
138.0152928
51
145.0391016
0
ARC
8
DEFAULT_255_2_778
10
5.2884419
20
3.6192552
40
2.0572251
50
130.9296614
51
138.0023342
0
ARC
8
DEFAULT_255_2_778
10
5.2822653
20
3.6259631
40
2.0481107
50
126.9318695
51
130.9220544
0
ARC
8
DEFAULT_255_2_778
10
5.2938571
20
3.6099551
40
2.0678719
50
119.35761
51
126.9220953
0
ARC
8
DEFAULT_255_2_778
10
5.3106419
20
3.580493
40
2.1017792
50
113.0748291
51
119.3626581
0
ARC
8
DEFAULT_255_2_778
10
5.3060656
20
3.5923957
40
2.0890354
50
107.9486516
51
113.0873044
0
ARC
8
DEFAULT_255_2_778
10
5.2725106
20
3.6973152
40
1.9788817
50
103.9617196
51
107.9605365
0
ARC
8
DEFAULT_255_2_778
10
5.2148332
20
3.9311614
40
1.7380281
50
100.6850237
51
103.9764707
0
ARC
8
DEFAULT_255_2_778
10
5.1458129
20
4.2973833
40
1.3653588
50
98.266993
51
100.688278
0
ARC
8
DEFAULT_255_2_778
10
5.0727727
20
4.8060109
40
0.8515149
50
96.0773853
51
98.3243495
0
ARC
8
DEFAULT_255_2_778
10
5.013124
20
5.3648383
40
0.2895132
50
94.9222959
51
96.04779
0
ARC
8
DEFAULT_255_2_778
10
9.6308968
20
3.6893777
40
2.3268823
50
250.8795513
51
255.6014684
0
ARC
8
DEFAULT_255_2_778
10
9.518813
20
3.3671652
40
1.9857321
50
245.3881132
51
250.8898796
0
ARC
8
DEFAULT_255_2_778
10
9.4009956
20
3.110595
40
1.7034038
50
239.0244676
51
245.3968602
0
ARC
8
DEFAULT_255_2_778
10
9.2878103
20
2.9220405
40
1.4834864
50
231.9579613
51
239.0244645
0
ARC
8
DEFAULT_255_2_778
10
9.1900068
20
2.7967815
40
1.3245672
50
224.3919151
51
231.9508862
0
ARC
8
DEFAULT_255_2_778
10
9.1382191
20
2.7443867
40
1.2509085
50
222.2574536
51
224.3364409
0
ARC
8
DEFAULT_255_2_778
10
9.0899049
20
2.7022266
40
1.1867992
50
212.7334118
51
222.3195163
0
ARC
8
DEFAULT_255_2_778
10
9.0256525
20
2.6606505
40
1.1102689
50
204.1500164
51
212.7215264
0
ARC
8
DEFAULT_255_2_778
10
8.9488427
20
2.626395
40
1.0261668
50
197.177313
51
204.1593762
0
ARC
8
DEFAULT_255_2_778
10
8.8093318
20
2.5837448
40
0.880283
50
191.5864262
51
197.206854
0
ARC
8
DEFAULT_255_2_778
10
8.571588
20
2.5353715
40
0.6376684
50
187.4459657
51
191.6189829
0
ARC
8
DEFAULT_255_2_778
10
8.223379
20
2.4907867
40
0.2866195
50
184.3426072
51
187.6290694
0
ARC
8
DEFAULT_255_2_778
10
9.420161
20
2.8767591
40
0.3749644
50
193.0512294
51
217.8471268
0
ARC
8
DEFAULT_255_2_778
10
9.4952171
20
2.942089
40
0.4743483
50
218.5158964
51
240.9696504
0
ARC
8
DEFAULT_255_2_778
10
9.5981715
20
3.1153564
40
0.675834
50
240.4662685
51
251.2884893
0
ARC
8
DEFAULT_255_2_778
10
9.6177559
20
3.1655617
40
0.7296727
50
251.0966393
51
256.6388845
0
ARC
8
DEFAULT_255_2_778
10
9.576064
20
2.987026
40
0.5463354
50
256.5661048
51
259.9297925
0
ARC
8
DEFAULT_255_2_778
10
9.5177101
20
2.6587501
40
0.2129134
50
259.944428
51
261.4844859
0
LINE
8
DEFAULT_255_2_778
10
2.5183824
20
7.8993839
11
2.5183824
21
7.8993839
0
LINE
8
DEFAULT_255_2_778
10
5.9359824
20
11.5894839
11
5.9359824
21
11.5894839
0
LINE
8
DEFAULT_255_2_778
10
10.3174824
20
11.4167839
11
10.3148824
21
11.4167839
0
LINE
8
DEFAULT_255_2_778
10
15.7019824
20
9.5709839
11
15.7025824
21
9.5707839
0
LINE
8
DEFAULT_255_2_778
10
5.2797824
20
2.3669839
11
6.2441824
21
2.3669839
0
LINE
8
DEFAULT_255_2_778
10
6.2441824
20
2.3669839
11
6.2441824
21
4.7238839
0
LINE
8
DEFAULT_255_2_778
10
6.2441824
20
4.7238839
11
5.2117824
21
4.7238839
0
LINE
8
DEFAULT_255_2_778
10
4.4733824
20
4.0694839
11
4.4730824
21
4.0692839
0
LINE
8
DEFAULT_255_2_778
10
13.6459824
20
4.9513839
11
13.6456824
21
4.9513839
0
LINE
8
DEFAULT_255_2_778
10
7.3467824
20
1.4191839
11
4.9535824
21
1.4191839
0
LINE
8
DEFAULT_255_2_778
10
4.9882824
20
5.6532839
11
6.2619824
21
5.6532839
0
LINE
8
DEFAULT_255_2_778
10
6.2619824
20
5.6532839
11
6.2619824
21
7.2191839
0
LINE
8
DEFAULT_255_2_778
10
6.2619824
20
7.2191839
11
7.3467824
21
7.2026839
0
LINE
8
DEFAULT_255_2_778
10
7.3467824
20
7.2026839
11
7.3467824
21
1.4191839
0
LINE
8
DEFAULT_255_2_778
10
11.8038824
20
1.4355839
11
9.0522824
21
1.4355839
0
LINE
8
DEFAULT_255_2_778
10
7.9375824
20
2.4690839
11
7.9375824
21
5.5117839
0
LINE
8
DEFAULT_255_2_778
10
7.9375824
20
5.5117839
11
9.0548824
21
5.5297839
0
LINE
8
DEFAULT_255_2_778
10
9.0548824
20
5.5297839
11
9.0548824
21
2.7920839
0
LINE
8
DEFAULT_255_2_778
10
9.4861824
20
2.4481839
11
10.6238824
21
2.4481839
0
LINE
8
DEFAULT_255_2_778
10
10.6238824
20
2.4481839
11
10.6238824
21
5.5120839
0
LINE
8
DEFAULT_255_2_778
10
10.6238824
20
5.5120839
11
11.8144824
21
5.5120839
0
LINE
8
DEFAULT_255_2_778
10
11.8144824
20
5.5120839
11
11.8038824
21
1.4355839
0
ENDSEC
0
EOF