0
SECTION
2
HEADER
9
$MEASUREMENT
70
1
0
ENDSEC
0
SECTION
2
TABLES
0
TABLE
2
LTYPE
0
LTYPE
72
65
70
64
2
CONTINUOUS
3
______
73
0
40
0
0
ENDTAB
0
TABLE
2
LAYER
0
LAYER
2
DEFAULT_255_2_778
70
0
62
255
6
CONTINUOUS
0
ENDTAB
0
ENDSEC
0
SECTION
2
ENTITIES
0
ARC
8
DEFAULT_255_2_778
10
16.98914
20
8.0902666
40
3.381412
50
194.3503755
51
205.8900838
0
ARC
8
DEFAULT_255_2_778
10
17.1725421
20
8.1400577
40
3.5714335
50
180.9062537
51
194.3949933
0
ARC
8
DEFAULT_255_2_778
10
17.1642209
20
8.1402348
40
3.563116
50
180.000342
51
180.9112181
0
ARC
8
DEFAULT_255_2_778
10
17.1417855
20
8.140413
40
3.5406804
50
176.2848146
51
180.0032271
0
ARC
8
DEFAULT_255_2_778
10
16.9630894
20
8.1612578
40
3.3610219
50
156.0252717
51
176.4420252
0
ARC
8
DEFAULT_255_2_778
10
16.762893
20
8.242187
40
3.1452219
50
141.4695439
51
155.8904766
0
ARC
8
DEFAULT_255_2_778
10
16.7918612
20
8.2156538
40
3.1844126
50
130.4427973
51
141.4207629
0
ARC
8
DEFAULT_255_2_778
10
16.9268225
20
8.0568239
40
3.3928384
50
121.9658179
51
130.4374223
0
ARC
8
DEFAULT_255_2_778
10
15.7571509
20
10.7285086
40
0.6597503
50
161.7438065
51
173.0897407
0
ARC
8
DEFAULT_255_2_778
10
16.1387375
20
10.6771426
40
1.0447577
50
172.8110179
51
180.1854115
0
ARC
8
DEFAULT_255_2_778
10
16.4350421
20
10.6764484
40
1.3410593
50
180.1147856
51
187.513261
0
ARC
8
DEFAULT_255_2_778
10
16.3703625
20
10.6599179
40
1.2747983
50
187.1567808
51
200.7443288
0
ARC
8
DEFAULT_255_2_778
10
17.9373138
20
11.4230995
40
3.0146622
50
203.7617958
51
209.5619392
0
ARC
8
DEFAULT_255_2_778
10
22.0782263
20
13.7566978
40
7.7678475
50
209.4648657
51
211.4629594
0
ARC
8
DEFAULT_255_2_778
10
-10.8642212
20
-6.3854212
40
30.8444542
50
30.9131672
51
31.437994
0
ARC
8
DEFAULT_255_2_778
10
10.7374797
20
6.5403871
40
5.6708638
50
26.9845001
51
30.9936638
0
ARC
8
DEFAULT_255_2_778
10
12.5264273
20
7.4603126
40
3.6592734
50
21.0677735
51
26.8586338
0
ARC
8
DEFAULT_255_2_778
10
12.8926184
20
7.6058928
40
3.2652308
50
14.9540738
51
20.9938382
0
ARC
8
DEFAULT_255_2_778
10
12.852555
20
7.5962265
40
3.3064318
50
11.0840895
51
14.9367588
0
ARC
8
DEFAULT_255_2_778
10
12.5025988
20
7.5358965
40
3.6614673
50
5.1140354
51
10.9577404
0
ARC
8
DEFAULT_255_2_778
10
12.5397513
20
7.5397094
40
3.6241227
50
359.9993898
51
5.1063519
0
ARC
8
DEFAULT_255_2_778
10
12.1191765
20
7.5905553
40
4.0450176
50
327.3861312
51
359.2792262
0
ARC
8
DEFAULT_255_2_778
10
11.1378759
20
8.1352947
40
5.1656645
50
318.945194
51
328.1631279
0
ARC
8
DEFAULT_255_2_778
10
5.6087345
20
7.6483583
40
9.8622629
50
342.8643227
51
345.9672213
0
ARC
8
DEFAULT_255_2_778
10
7.475607
20
7.1875708
40
7.9393748
50
345.9265391
51
350.3496142
0
ARC
8
DEFAULT_255_2_778
10
9.2687707
20
6.8825009
40
6.1204453
50
350.3510599
51
355.1574676
0
ARC
8
DEFAULT_255_2_778
10
10.5917421
20
6.7685288
40
4.7925754
50
355.1799823
51
359.9075186
0
ARC
8
DEFAULT_255_2_778
10
11.7794755
20
6.7755692
40
3.604866
50
359.7651474
51
8.3688344
0
ARC
8
DEFAULT_255_2_778
10
12.8153475
20
6.9315741
40
2.5573211
50
8.2886762
51
20.4219006
0
ARC
8
DEFAULT_255_2_778
10
13.5094892
20
7.2044436
40
1.811645
50
19.9945526
51
50.5944775
0
ARC
8
DEFAULT_255_2_778
10
13.1741085
20
6.7750775
40
2.3563438
50
50.9208993
51
50.9685421
0
ARC
8
DEFAULT_255_2_778
10
16.636868
20
6.3963611
40
2.9658249
50
131.8529001
51
134.9542308
0
ARC
8
DEFAULT_255_2_778
10
16.3440022
20
6.689549
40
2.5514222
50
134.951913
51
138.4583288
0
ARC
8
DEFAULT_255_2_778
10
16.0908138
20
6.9134812
40
2.2134134
50
138.4506085
51
142.7200599
0
ARC
8
DEFAULT_255_2_778
10
15.9671204
20
7.0097794
40
2.0566642
50
142.76744
51
143.4010693
0
ARC
8
DEFAULT_255_2_778
10
15.7877398
20
7.1363414
40
1.8372027
50
143.2345046
51
153.8031253
0
ARC
8
DEFAULT_255_2_778
10
16.0102732
20
7.0758609
40
2.0640459
50
155.0238041
51
179.1480388
0
ARC
8
DEFAULT_255_2_778
10
18.619828
20
6.9047751
40
4.6777264
50
177.5277509
51
180.1038334
0
ARC
8
DEFAULT_255_2_778
10
21.5057814
20
6.9017084
40
7.5636739
50
180.0409845
51
181.1079581
0
ARC
8
DEFAULT_255_2_778
10
27.1947997
20
7.0111193
40
13.2537443
50
181.1053029
51
181.7317633
0
LINE
8
DEFAULT_255_2_778
10
13.9471089
20
6.6105862
11
13.9471089
21
6.6137862
0
ARC
8
DEFAULT_255_2_778
10
28.9064876
20
0.5954929
40
0.8115237
50
336.5221695
51
0.999093
0
ARC
8
DEFAULT_255_2_778
10
29.0093193
20
0.5668152
40
0.7059322
50
304.6009239
51
335.3319096
0
ARC
8
DEFAULT_255_2_778
10
28.8103169
20
0.8618677
40
1.0618095
50
285.5403471
51
304.3989295
0
ARC
8
DEFAULT_255_2_778
10
28.624378
20
1.4991918
40
1.7256709
50
274.7685275
51
285.8189632
0
ARC
8
DEFAULT_255_2_778
10
28.5426574
20
2.3207161
40
2.551179
50
269.8749168
51
275.0637248
0
ARC
8
DEFAULT_255_2_778
10
28.524749
20
2.9681276
40
3.1986082
50
263.5825693
51
270.2210245
0
ARC
8
DEFAULT_255_2_778
10
28.3934207
20
1.8383178
40
2.0612035
50
254.0193835
51
263.7000154
0
ARC
8
DEFAULT_255_2_778
10
28.2016072
20
1.1647853
40
1.3608916
50
242.7119848
51
253.9759838
0
ARC
8
DEFAULT_255_2_778
10
28.5326179
20
2.1420063
40
2.1178679
50
243.1990611
51
270.1209281
0
ARC
8
DEFAULT_255_2_778
10
28.5497379
20
2.1018034
40
2.0776988
50
269.6511548
51
277.7523706
0
ARC
8
DEFAULT_255_2_778
10
28.677926
20
1.1958063
40
1.1627006
50
277.5155988
51
290.4877999
0
ARC
8
DEFAULT_255_2_778
10
28.8265448
20
0.7847867
40
0.7256764
50
290.8543029
51
302.2324142
0
ARC
8
DEFAULT_255_2_778
10
28.946162
20
0.6130373
40
0.5166855
50
301.1700418
51
330.7372291
0
ARC
8
DEFAULT_255_2_778
10
29.0115933
20
0.5622029
40
0.4349312
50
332.3661424
51
0.743032
0
ARC
8
DEFAULT_255_2_778
10
28.966292
20
0.5710626
40
0.4802067
50
359.6158626
51
52.188854
0
ARC
8
DEFAULT_255_2_778
10
28.6070705
20
0.1768881
40
1.0127207
50
49.8037721
51
61.1154549
0
ARC
8
DEFAULT_255_2_778
10
28.0616859
20
-0.7882824
40
2.1212951
50
60.8098643
51
67.1717248
0
ARC
8
DEFAULT_255_2_778
10
27.40273
20
-2.3201694
40
3.7888701
50
66.9749228
51
70.2686342
0
ARC
8
DEFAULT_255_2_778
10
27.0028128
20
-3.4032824
40
4.943417
50
70.1438532
51
70.4602981
0
ARC
8
DEFAULT_255_2_778
10
31.1341646
20
8.150539
40
7.3268489
50
248.0864473
51
250.2324516
0
ARC
8
DEFAULT_255_2_778
10
29.8609611
20
4.9949977
40
3.9241347
50
245.0024393
51
248.1381516
0
ARC
8
DEFAULT_255_2_778
10
28.9605761
20
3.077133
40
1.8054489
50
239.6750874
51
245.1798849
0
ARC
8
DEFAULT_255_2_778
10
28.5594227
20
2.3767716
40
0.9983972
50
237.3708703
51
239.2533668
0
ARC
8
DEFAULT_255_2_778
10
28.5592869
20
2.3794702
40
1.0005978
50
220.4413252
51
237.4607371
0
ARC
8
DEFAULT_255_2_778
10
28.4400071
20
2.2688779
40
0.8381072
50
213.8411063
51
219.9767624
0
ARC
8
DEFAULT_255_2_778
10
28.3079221
20
2.1339379
40
0.654387
50
182.3975262
51
210.4662951
0
ARC
8
DEFAULT_255_2_778
10
28.5835389
20
2.1647593
40
0.9312513
50
179.964077
51
183.5828804
0
ARC
8
DEFAULT_255_2_778
10
28.2699992
20
2.1809593
40
0.6179086
50
123.2750766
51
181.4481676
0
ARC
8
DEFAULT_255_2_778
10
28.4128347
20
2.013129
40
0.837037
50
124.7781905
51
125.1465374
0
ARC
8
DEFAULT_255_2_778
10
28.5001305
20
1.8587607
40
1.0137555
50
104.4932682
51
123.8540782
0
ARC
8
DEFAULT_255_2_778
10
28.6689713
20
1.2393578
40
1.6557237
50
93.5756687
51
104.7857531
0
ARC
8
DEFAULT_255_2_778
10
28.7282462
20
0.530288
40
2.3671571
50
89.9263773
51
93.9372179
0
ARC
8
DEFAULT_255_2_778
10
28.742499
20
0.5169637
40
2.3805058
50
90.0000152
51
90.2698379
0
ARC
8
DEFAULT_255_2_778
10
28.7422614
20
0.5186562
40
2.3788134
50
67.3775718
51
89.994292
0
ARC
8
DEFAULT_255_2_778
10
28.5312309
20
0.0131543
40
2.6567353
50
67.3419144
51
76.4702649
0
ARC
8
DEFAULT_255_2_778
10
28.7190288
20
0.8068132
40
1.8411688
50
76.3740987
51
89.6278402
0
ARC
8
DEFAULT_255_2_778
10
28.7187545
20
0.9409424
40
1.7070445
50
89.589391
51
99.1549793
0
ARC
8
DEFAULT_255_2_778
10
28.5939021
20
1.682329
40
0.9552521
50
98.8368838
51
114.8415212
0
ARC
8
DEFAULT_255_2_778
10
28.4866216
20
1.9362306
40
0.6798375
50
115.6263841
51
119.7875935
0
ARC
8
DEFAULT_255_2_778
10
28.3540708
20
2.1390203
40
0.4382254
50
117.9183692
51
150.2530853
0
ARC
8
DEFAULT_255_2_778
10
28.2854166
20
2.1917443
40
0.3526526
50
152.1563224
51
180.6663344
0
ARC
8
DEFAULT_255_2_778
10
28.3935052
20
2.1659113
40
0.4612296
50
177.299384
51
230.397015
0
ARC
8
DEFAULT_255_2_778
10
28.6889488
20
2.5468907
40
0.9432242
50
231.3220305
51
241.0618322
0
ARC
8
DEFAULT_255_2_778
10
29.3009711
20
3.626885
40
2.1845483
50
240.7199606
51
246.1040364
0
ARC
8
DEFAULT_255_2_778
10
30.1296445
20
5.475437
40
4.2103329
50
245.9838005
51
249.430991
0
ARC
8
DEFAULT_255_2_778
10
30.8384171
20
7.3213105
40
6.1875666
50
249.2914677
51
250.3400271
0
ARC
8
DEFAULT_255_2_778
10
26.8079935
20
-3.9486016
40
5.7813619
50
67.6041849
51
70.3018457
0
ARC
8
DEFAULT_255_2_778
10
27.8293938
20
-1.4819851
40
3.1116397
50
63.5607974
51
67.6883716
0
ARC
8
DEFAULT_255_2_778
10
28.5440028
20
-0.0496929
40
1.5109781
50
57.7542483
51
63.6419837
0
ARC
8
DEFAULT_255_2_778
10
28.8730544
20
0.4432671
40
0.9186097
50
40.8012575
51
58.707428
0
ARC
8
DEFAULT_255_2_778
10
29.0499749
20
0.6062556
40
0.678226
50
31.640344
51
40.1446168
0
ARC
8
DEFAULT_255_2_778
10
29.0775637
20
0.626321
40
0.6442173
50
358.5961903
51
31.4081959
0
LINE
8
DEFAULT_255_2_778
10
29.7215878
20
0.6105386
11
29.7215879
21
0.6101431
0
ARC
8
DEFAULT_255_2_778
10
25.7549583
20
1.2855313
40
1.6122616
50
77.3768393
51
90.4502785
0
ARC
8
DEFAULT_255_2_778
10
25.8807133
20
1.8165491
40
1.0666181
50
51.6257363
51
77.7350235
0
ARC
8
DEFAULT_255_2_778
10
25.9260839
20
1.8905449
40
0.9804963
50
38.4944017
51
51.0199277
0
ARC
8
DEFAULT_255_2_778
10
25.6836168
20
1.7102093
40
1.2825527
50
19.73699
51
38.0575959
0
ARC
8
DEFAULT_255_2_778
10
25.1098299
20
1.4978733
40
1.8943475
50
8.5267199
51
19.9212531
0
ARC
8
DEFAULT_255_2_778
10
24.2257014
20
1.3595422
40
2.7892199
50
0.7478849
51
8.6440522
0
ARC
8
DEFAULT_255_2_778
10
23.5702257
20
1.3369991
40
3.4449623
50
359.9957429
51
0.9804884
0
ARC
8
DEFAULT_255_2_778
10
24.2762214
20
1.3237481
40
2.7389973
50
351.7571447
51
0.2718383
0
ARC
8
DEFAULT_255_2_778
10
25.1676565
20
1.1909194
40
1.8377313
50
339.4766527
51
351.8710073
0
ARC
8
DEFAULT_255_2_778
10
25.6774785
20
0.9983057
40
1.2927409
50
320.6045561
51
339.5498018
0
ARC
8
DEFAULT_255_2_778
10
25.8333855
20
0.8697976
40
1.0906982
50
277.5164155
51
320.6234481
0
ARC
8
DEFAULT_255_2_778
10
25.7362951
20
1.3641932
40
1.5938592
50
269.8056228
51
278.6518722
0
ARC
8
DEFAULT_255_2_778
10
25.7157236
20
1.0449876
40
1.2747347
50
270.0008665
51
270.6816088
0
ARC
8
DEFAULT_255_2_778
10
25.7157555
20
1.0435896
40
1.2733365
50
243.559938
51
269.9994316
0
ARC
8
DEFAULT_255_2_778
10
25.5825714
20
0.7806982
40
0.9786443
50
210.7350838
51
243.6886115
0
ARC
8
DEFAULT_255_2_778
10
25.762847
20
1.738935
40
1.1990651
50
130.3005651
51
148.3711089
0
ARC
8
DEFAULT_255_2_778
10
25.5769779
20
1.945638
40
0.9212362
50
117.2485971
51
129.7992481
0
ARC
8
DEFAULT_255_2_778
10
25.6705339
20
1.7483073
40
1.1395262
50
96.3105074
51
116.887864
0
ARC
8
DEFAULT_255_2_778
10
25.733816
20
1.3162855
40
1.5759615
50
89.8737765
51
96.87085
0
ARC
8
DEFAULT_255_2_778
10
25.7192639
20
1.2145585
40
1.4281413
50
89.4895192
51
101.7307697
0
ARC
8
DEFAULT_255_2_778
10
25.5948233
20
1.7850072
40
0.8443272
50
101.3329815
51
124.0176074
0
ARC
8
DEFAULT_255_2_778
10
25.5047013
20
1.9341392
40
0.6703551
50
124.7640041
51
142.9920546
0
ARC
8
DEFAULT_255_2_778
10
25.6985198
20
1.8045494
40
0.9032288
50
143.8281656
51
161.2631153
0
ARC
8
DEFAULT_255_2_778
10
26.3627534
20
1.56954
40
1.6077772
50
160.9356884
51
171.1762379
0
ARC
8
DEFAULT_255_2_778
10
27.4583591
20
1.3920497
40
2.7176523
50
171.0217314
51
177.8174138
0
ARC
8
DEFAULT_255_2_778
10
28.5905424
20
1.3339601
40
3.8512556
50
177.5953073
51
180.0419079
0
ARC
8
DEFAULT_255_2_778
10
27.8446161
20
1.271432
40
3.1053538
50
179.7673154
51
185.9651884
0
ARC
8
DEFAULT_255_2_778
10
26.6336887
20
1.1411381
40
1.8874463
50
185.8515439
51
194.8107952
0
ARC
8
DEFAULT_255_2_778
10
25.861335
20
0.9315554
40
1.0871909
50
194.5375823
51
209.3690832
0
ARC
8
DEFAULT_255_2_778
10
25.5607679
20
0.7708956
40
0.746497
50
209.9367997
51
218.6027762
0
ARC
8
DEFAULT_255_2_778
10
25.5664934
20
0.7925455
40
0.7645956
50
219.6029941
51
256.0983042
0
ARC
8
DEFAULT_255_2_778
10
25.7044336
20
1.2818008
40
1.2727665
50
255.3621299
51
269.3820734
0
ARC
8
DEFAULT_255_2_778
10
25.7259345
20
1.7069796
40
1.6982366
50
268.8114033
51
270.0051745
0
ARC
8
DEFAULT_255_2_778
10
25.7393176
20
1.109002
40
1.1003384
50
269.3111008
51
286.7060485
0
ARC
8
DEFAULT_255_2_778
10
25.8294209
20
0.8008346
40
0.7792803
50
286.874129
51
324.8998891
0
ARC
8
DEFAULT_255_2_778
10
25.5146923
20
1.0246297
40
1.1654607
50
324.7953438
51
343.2980498
0
ARC
8
DEFAULT_255_2_778
10
24.8833733
20
1.2224639
40
1.8270199
50
343.0455553
51
353.9288621
0
ARC
8
DEFAULT_255_2_778
10
23.9785989
20
1.3280587
40
2.7379035
50
353.734018
51
0.1859244
0
ARC
8
DEFAULT_255_2_778
10
23.9167643
20
1.3489004
40
2.7997491
50
359.755299
51
6.7756086
0
ARC
8
DEFAULT_255_2_778
10
24.9424602
20
1.4750716
40
1.7663364
50
6.6368687
51
17.1196181
0
ARC
8
DEFAULT_255_2_778
10
25.5966291
20
1.6819148
40
1.0802765
50
16.8484668
51
34.5068996
0
ARC
8
DEFAULT_255_2_778
10
25.8320793
20
1.8327657
40
0.8008454
50
35.1561028
51
82.1628753
0
ARC
8
DEFAULT_255_2_778
10
25.7352523
20
1.3730688
40
1.2698868
50
80.6629753
51
90.2555712
0
ARC
8
DEFAULT_255_2_778
10
21.7156839
20
1.4366836
40
1.8683952
50
312.5866042
51
322.4097442
0
ARC
8
DEFAULT_255_2_778
10
22.19273
20
0.912061
40
1.1593262
50
297.4911198
51
312.7737353
0
ARC
8
DEFAULT_255_2_778
10
22.2295826
20
0.9072724
40
1.1384749
50
276.0028739
51
295.9569376
0
ARC
8
DEFAULT_255_2_778
10
22.1657194
20
1.363056
40
1.5985168
50
269.8734188
51
276.5709192
0
ARC
8
DEFAULT_255_2_778
10
22.1492885
20
1.1078638
40
1.3433826
50
256.9406535
51
270.5501735
0
ARC
8
DEFAULT_255_2_778
10
22.0230287
20
0.5956093
40
0.8158794
50
228.8324537
51
257.4494574
0
ARC
8
DEFAULT_255_2_778
10
21.9693376
20
0.5198049
40
0.7235338
50
226.8264213
51
228.0816239
0
ARC
8
DEFAULT_255_2_778
10
22.0033003
20
0.5511974
40
0.7696725
50
188.0919582
51
226.5815532
0
ARC
8
DEFAULT_255_2_778
10
22.3355517
20
0.6178891
40
1.1081708
50
179.7955642
51
189.0877677
0
ARC
8
DEFAULT_255_2_778
10
22.0092184
20
0.6449755
40
0.7821727
50
127.4926384
51
181.6947391
0
ARC
8
DEFAULT_255_2_778
10
22.1588138
20
0.4752991
40
1.0079699
50
124.1218791
51
128.3691052
0
ARC
8
DEFAULT_255_2_778
10
22.298604
20
0.2197624
40
1.2982249
50
107.494533
51
122.9028153
0
ARC
8
DEFAULT_255_2_778
10
22.5367716
20
-0.5115351
40
2.0673064
50
98.0039078
51
107.6971995
0
ARC
8
DEFAULT_255_2_778
10
22.6984978
20
-1.6084846
40
3.1760976
50
91.7187585
51
98.1375957
0
ARC
8
DEFAULT_255_2_778
10
22.7366461
20
-2.4117302
40
3.9801507
50
91.1323887
51
91.9208561
0
ARC
8
DEFAULT_255_2_778
10
21.6225214
20
1.7967382
40
1.6097158
50
359.5516902
51
9.8210833
0
ARC
8
DEFAULT_255_2_778
10
22.3132264
20
1.9214866
40
0.9078687
50
9.4988893
51
26.9408569
0
ARC
8
DEFAULT_255_2_778
10
22.5615519
20
2.0394857
40
0.6330733
50
27.6029778
51
38.4144792
0
ARC
8
DEFAULT_255_2_778
10
22.6267898
20
2.078715
40
0.5576681
50
39.4211592
51
77.1474142
0
ARC
8
DEFAULT_255_2_778
10
22.506633
20
1.6299774
40
1.0220379
50
76.1759758
51
90.6808715
0
ARC
8
DEFAULT_255_2_778
10
22.5061632
20
0.962659
40
1.6893245
50
90.3959865
51
108.7656834
0
ARC
8
DEFAULT_255_2_778
10
22.6910092
20
0.3850921
40
2.2956793
50
108.4965716
51
117.6209037
0
ARC
8
DEFAULT_255_2_778
10
22.605475
20
0.384162
40
2.517243
50
102.4429292
51
115.444182
0
ARC
8
DEFAULT_255_2_778
10
22.5066615
20
0.8067079
40
2.0833383
50
90.101032
51
102.2931062
0
ARC
8
DEFAULT_255_2_778
10
22.5158519
20
1.416483
40
1.4736163
50
78.3152077
51
90.5001742
0
ARC
8
DEFAULT_255_2_778
10
22.6407783
20
1.9935346
40
0.883239
50
56.6395041
51
78.6699628
0
ARC
8
DEFAULT_255_2_778
10
22.7313646
20
2.1471005
40
0.7052174
50
43.4555382
51
55.9256247
0
ARC
8
DEFAULT_255_2_778
10
22.6600807
20
2.0897577
40
0.7964374
50
17.7883557
51
42.9229709
0
ARC
8
DEFAULT_255_2_778
10
22.1430454
20
1.9130477
40
1.3427788
50
5.2929862
51
18.228138
0
ARC
8
DEFAULT_255_2_778
10
21.4307615
20
1.8332382
40
2.0594339
50
359.8471221
51
5.6758613
0
ARC
8
DEFAULT_255_2_778
10
22.191563
20
1.3577254
40
1.3405451
50
269.4454288
51
284.3721857
0
ARC
8
DEFAULT_255_2_778
10
22.3014384
20
0.9407354
40
0.9093366
50
284.1874709
51
314.4723567
0
ARC
8
DEFAULT_255_2_778
10
22.2837521
20
0.9421974
40
0.9228432
50
315.1923558
51
349.0850077
0
ARC
8
DEFAULT_255_2_778
10
21.8035131
20
1.0530189
40
1.4154916
50
348.3611559
51
0.2802761
0
ARC
8
DEFAULT_255_2_778
10
22.8729952
20
-2.7456558
40
4.0838105
50
92.571258
51
97.0790673
0
ARC
8
DEFAULT_255_2_778
10
22.665322
20
-1.1009954
40
2.4260962
50
96.9986774
51
103.3582174
0
ARC
8
DEFAULT_255_2_778
10
22.4042666
20
-0.0248129
40
1.3187273
50
103.1256444
51
113.5637861
0
ARC
8
DEFAULT_255_2_778
10
22.1971198
20
0.4637635
40
0.7880984
50
113.9595811
51
121.692172
0
ARC
8
DEFAULT_255_2_778
10
22.0712282
20
0.659233
40
0.5556568
50
121.2355749
51
179.1638984
0
ARC
8
DEFAULT_255_2_778
10
22.3941767
20
0.6135933
40
0.8801889
50
176.4991051
51
180.0358114
0
ARC
8
DEFAULT_255_2_778
10
22.188519
20
0.5996108
40
0.6746648
50
178.8591897
51
202.2290286
0
ARC
8
DEFAULT_255_2_778
10
22.0229303
20
0.5403289
40
0.4990164
50
203.1209443
51
227.5292972
0
ARC
8
DEFAULT_255_2_778
10
22.0750578
20
0.6178556
40
0.5915622
50
228.8753759
51
261.0081074
0
ARC
8
DEFAULT_255_2_778
10
22.1693767
20
1.0730823
40
1.0561653
50
259.8139901
51
270.4020517
0
ARC
8
DEFAULT_255_2_778
10
17.3848398
20
1.8029152
40
1.2106123
50
359.4097119
51
11.8716828
0
ARC
8
DEFAULT_255_2_778
10
17.929495
20
1.9238138
40
0.6527657
50
11.3216898
51
35.585938
0
ARC
8
DEFAULT_255_2_778
10
18.0574486
20
2.0039532
40
0.502159
50
36.6455578
51
42.7848247
0
ARC
8
DEFAULT_255_2_778
10
18.0336783
20
1.968373
40
0.5438633
50
43.8348802
51
76.8175883
0
ARC
8
DEFAULT_255_2_778
10
17.9113462
20
1.5090179
40
1.019113
50
76.0106926
51
90.3331639
0
ARC
8
DEFAULT_255_2_778
10
17.8963034
20
1.1241311
40
1.4040121
50
89.6279525
51
90.0006332
0
ARC
8
DEFAULT_255_2_778
10
17.8834305
20
1.183849
40
1.3443556
50
89.4520154
51
102.1679377
0
ARC
8
DEFAULT_255_2_778
10
17.7593738
20
1.730931
40
0.7834385
50
101.732282
51
125.9231704
0
ARC
8
DEFAULT_255_2_778
10
17.6800831
20
1.8559765
40
0.6357222
50
126.7482387
51
139.3459594
0
ARC
8
DEFAULT_255_2_778
10
17.7853647
20
1.7822469
40
0.7637337
50
140.2953495
51
161.1069414
0
ARC
8
DEFAULT_255_2_778
10
18.3552671
20
1.5773036
40
1.3693257
50
160.7150446
51
172.4069003
0
ARC
8
DEFAULT_255_2_778
10
19.3063431
20
1.4414332
40
2.3300331
50
172.1854256
51
179.4191126
0
ARC
8
DEFAULT_255_2_778
10
20.0372231
20
1.4193112
40
3.0611352
50
179.143763
51
180.005018
0
ARC
8
DEFAULT_255_2_778
10
17.7532414
20
1.9651137
40
0.9056777
50
114.0541098
51
147.7614653
0
ARC
8
DEFAULT_255_2_778
10
17.9333041
20
1.6456774
40
1.2712286
50
90.073131
51
115.5968243
0
ARC
8
DEFAULT_255_2_778
10
17.9523721
20
1.3681437
40
1.5488994
50
89.9994138
51
90.7653909
0
ARC
8
DEFAULT_255_2_778
10
17.9652757
20
1.1384812
40
1.7786086
50
79.6977164
51
90.4151695
0
ARC
8
DEFAULT_255_2_778
10
18.093054
20
1.8141446
40
1.0909972
50
62.113323
51
79.9540834
0
ARC
8
DEFAULT_255_2_778
10
18.2174722
20
2.0634751
40
0.8124541
50
46.3092232
51
61.6444957
0
ARC
8
DEFAULT_255_2_778
10
18.2223223
20
2.0804885
40
0.7968445
50
18.5944192
51
45.7163492
0
ARC
8
DEFAULT_255_2_778
10
17.7166222
20
1.8983996
40
1.334257
50
5.8051442
51
19.0810767
0
ARC
8
DEFAULT_255_2_778
10
16.9915382
20
1.8114416
40
2.0644597
50
359.8224209
51
6.1707416
0
ARC
8
DEFAULT_255_2_778
10
14.603514
20
1.5920247
40
1.8225263
50
257.3528146
51
270.4015841
0
ARC
8
DEFAULT_255_2_778
10
14.4757048
20
1.0630594
40
1.278443
50
223.7100749
51
257.7513656
0
ARC
8
DEFAULT_255_2_778
10
14.5313373
20
1.0943138
40
1.3403474
50
196.0421356
51
223.0325012
0
ARC
8
DEFAULT_255_2_778
10
15.0799116
20
1.2628231
40
1.9141541
50
183.7209714
51
196.3519994
0
ARC
8
DEFAULT_255_2_778
10
15.6845271
20
1.3167971
40
2.5210403
50
179.9444082
51
184.0532914
0
ARC
8
DEFAULT_255_2_778
10
15.6464947
20
1.3323064
40
2.4830412
50
170.3382736
51
180.3014347
0
ARC
8
DEFAULT_255_2_778
10
14.8977111
20
1.4640896
40
1.7227665
50
154.9535512
51
170.4794526
0
ARC
8
DEFAULT_255_2_778
10
14.591333
20
1.5999417
40
1.3877011
50
140.2902014
51
154.6798553
0
ARC
8
DEFAULT_255_2_778
10
14.4264607
20
1.7495778
40
1.1653052
50
94.2779573
51
140.7709128
0
ARC
8
DEFAULT_255_2_778
10
14.495367
20
1.2982396
40
1.6209049
50
89.9250304
51
95.5168858
0
ARC
8
DEFAULT_255_2_778
10
14.510879
20
1.5207525
40
1.3984547
50
74.1660758
51
90.5486537
0
ARC
8
DEFAULT_255_2_778
10
14.5975963
20
1.840777
40
1.0669193
50
41.099983
51
73.9570824
0
ARC
8
DEFAULT_255_2_778
10
14.4380781
20
1.6984729
40
1.2806758
50
12.2751794
51
41.2060996
0
ARC
8
DEFAULT_255_2_778
10
13.8858863
20
1.5655465
40
1.8485467
50
359.6000548
51
12.662231
0
ARC
8
DEFAULT_255_2_778
10
15.4608635
20
1.2962771
40
1.8223067
50
181.0921502
51
191.6700776
0
ARC
8
DEFAULT_255_2_778
10
14.7813136
20
1.1509318
40
1.1274146
50
191.4218537
51
208.9135769
0
ARC
8
DEFAULT_255_2_778
10
14.53105
20
1.0208989
40
0.8455073
50
209.399839
51
222.5312031
0
ARC
8
DEFAULT_255_2_778
10
14.5264853
20
1.0319247
40
0.8496707
50
223.2871955
51
260.4390576
0
ARC
8
DEFAULT_255_2_778
10
14.6243457
20
1.4791537
40
1.3071307
50
259.4651269
51
270.3174496
0
ARC
8
DEFAULT_255_2_778
10
14.621621
20
2.610669
40
2.4386463
50
270.2341711
51
292.5576705
0
ARC
8
DEFAULT_255_2_778
10
14.4977763
20
2.9627876
40
2.8114103
50
292.1356549
51
293.1286081
0
ARC
8
DEFAULT_255_2_778
10
14.5996354
20
2.2553639
40
2.4980808
50
285.0950401
51
293.6587884
0
ARC
8
DEFAULT_255_2_778
10
14.7471312
20
1.7400474
40
1.9621513
50
281.5228459
51
284.8553821
0
ARC
8
DEFAULT_255_2_778
10
14.7291552
20
1.7505719
40
1.9761153
50
273.9963481
51
281.9725905
0
ARC
8
DEFAULT_255_2_778
10
14.6238632
20
3.0814588
40
3.3111271
50
269.8498827
51
274.2088869
0
ARC
8
DEFAULT_255_2_778
10
14.4767765
20
1.6713665
40
0.8639839
50
89.0973122
51
111.4073684
0
ARC
8
DEFAULT_255_2_778
10
14.419809
20
1.8408333
40
0.6854725
50
112.1444139
51
138.2649812
0
ARC
8
DEFAULT_255_2_778
10
14.6153344
20
1.674937
40
0.9418362
50
138.6519843
51
162.9609181
0
ARC
8
DEFAULT_255_2_778
10
15.1052037
20
1.5147468
40
1.4571739
50
162.5828489
51
175.1777788
0
ARC
8
DEFAULT_255_2_778
10
13.7444893
20
1.6498567
40
1.4975517
50
359.5174038
51
10.9730335
0
ARC
8
DEFAULT_255_2_778
10
14.3550073
20
1.7737542
40
0.874629
50
10.6178421
51
30.924074
0
ARC
8
DEFAULT_255_2_778
10
14.5348464
20
1.871134
40
0.6703695
50
31.6832672
51
40.0785718
0
ARC
8
DEFAULT_255_2_778
10
14.5513242
20
1.8792754
40
0.6525344
50
40.463123
51
85.5760829
0
ARC
8
DEFAULT_255_2_778
10
14.4952311
20
1.5355191
40
1.0000258
50
83.8907992
51
90.1113323
0
ARC
8
DEFAULT_255_2_778
10
11.7103536
20
0.6418256
40
0.8780399
50
338.589228
51
0.8886378
0
ARC
8
DEFAULT_255_2_778
10
11.8487917
20
0.6014305
40
0.7345233
50
305.1897997
51
337.5805967
0
ARC
8
DEFAULT_255_2_778
10
11.6424569
20
0.8870506
40
1.0868612
50
285.6082565
51
305.4021203
0
ARC
8
DEFAULT_255_2_778
10
11.465302
20
1.4876035
40
1.712957
50
274.8145615
51
285.9105692
0
ARC
8
DEFAULT_255_2_778
10
11.3897773
20
2.2413168
40
2.4703789
50
269.88196
51
275.0928385
0
ARC
8
DEFAULT_255_2_778
10
11.3724055
20
2.859992
40
3.0890733
50
263.7004438
51
270.2278133
0
ARC
8
DEFAULT_255_2_778
10
11.2445736
20
1.7397675
40
1.9615908
50
254.1014616
51
263.8214136
0
ARC
8
DEFAULT_255_2_778
10
11.0545559
20
1.0752765
40
1.2704656
50
241.1734127
51
254.1340259
0
ARC
8
DEFAULT_255_2_778
10
11.4629031
20
2.40845
40
2.2659259
50
243.2209592
51
255.884315
0
ARC
8
DEFAULT_255_2_778
10
11.4086493
20
2.1241125
40
1.9770132
50
255.3994926
51
269.6185671
0
ARC
8
DEFAULT_255_2_778
10
11.407872
20
1.8606512
40
1.7135528
50
269.5859106
51
278.4920917
0
ARC
8
DEFAULT_255_2_778
10
11.5308846
20
1.0700167
40
0.9134342
50
278.1841949
51
293.0684605
0
ARC
8
DEFAULT_255_2_778
10
11.6444722
20
0.7833847
40
0.6052653
50
293.8074491
51
300.3266008
0
ARC
8
DEFAULT_255_2_778
10
11.7667778
20
0.5916406
40
0.378105
50
299.0001971
51
3.2145981
0
ARC
8
DEFAULT_255_2_778
10
11.7683506
20
0.6105531
40
0.3759443
50
0.3490127
51
54.0634939
0
ARC
8
DEFAULT_255_2_778
10
11.4236304
20
0.2134002
40
0.9009948
50
51.1354495
51
60.6723678
0
ARC
8
DEFAULT_255_2_778
10
10.7647869
20
-0.9288631
40
2.2196113
50
60.2872874
51
65.3291974
0
ARC
8
DEFAULT_255_2_778
10
9.8590754
20
-2.8768916
40
4.3678847
50
65.1990191
51
68.3080922
0
ARC
8
DEFAULT_255_2_778
10
9.1185082
20
-4.6993268
40
6.3350056
50
68.1767375
51
68.9882118
0
ARC
8
DEFAULT_255_2_778
10
13.7148267
20
7.4961985
40
6.6981584
50
247.4723409
51
249.6907984
0
ARC
8
DEFAULT_255_2_778
10
12.5301398
20
4.653906
40
3.6188635
50
244.003124
51
247.5566215
0
ARC
8
DEFAULT_255_2_778
10
11.6592495
20
2.8795076
40
1.6422795
50
238.1863987
51
244.1780432
0
ARC
8
DEFAULT_255_2_778
10
11.3240867
20
2.3229324
40
0.9926736
50
237.1341026
51
237.6904553
0
ARC
8
DEFAULT_255_2_778
10
11.2835779
20
2.2556695
40
0.9141969
50
218.0719199
51
236.9788729
0
ARC
8
DEFAULT_255_2_778
10
11.1096682
20
2.10805
40
0.6863177
50
210.6429579
51
217.3230456
0
ARC
8
DEFAULT_255_2_778
10
11.1125446
20
2.0870703
40
0.6783801
50
181.8778659
51
208.9943963
0
ARC
8
DEFAULT_255_2_778
10
11.3908078
20
2.1155034
40
0.95762
50
179.9736897
51
183.0326555
0
ARC
8
DEFAULT_255_2_778
10
11.1119804
20
2.1368275
40
0.6791136
50
180.0006434
51
181.7622622
0
ARC
8
DEFAULT_255_2_778
10
11.1103912
20
2.1366634
40
0.6775244
50
123.6068138
51
179.9867645
0
ARC
8
DEFAULT_255_2_778
10
11.3468223
20
1.8251879
40
1.068082
50
104.4159109
51
124.9219586
0
ARC
8
DEFAULT_255_2_778
10
11.5107171
20
1.2229366
40
1.6921968
50
93.1933902
51
104.7138212
0
ARC
8
DEFAULT_255_2_778
10
11.5623105
20
0.5710478
40
2.3459966
50
89.9443786
51
93.564594
0
ARC
8
DEFAULT_255_2_778
10
11.5597798
20
0.4895164
40
2.4275315
50
66.5969381
51
89.8865175
0
ARC
8
DEFAULT_255_2_778
10
11.2652143
20
-0.2819437
40
2.8442319
50
67.3509276
51
75.3792487
0
ARC
8
DEFAULT_255_2_778
10
11.5011284
20
0.6380739
40
1.8944613
50
75.2596028
51
87.061848
0
ARC
8
DEFAULT_255_2_778
10
11.5309352
20
1.0194901
40
1.5120531
50
87.4490019
51
89.9866359
0
ARC
8
DEFAULT_255_2_778
10
11.5195484
20
1.0034329
40
1.5281553
50
89.5598414
51
98.5635408
0
ARC
8
DEFAULT_255_2_778
10
11.4011756
20
1.7512692
40
0.771051
50
98.140302
51
114.1874141
0
ARC
8
DEFAULT_255_2_778
10
11.2941931
20
2.0088003
40
0.4923592
50
115.1097689
51
121.4247215
0
ARC
8
DEFAULT_255_2_778
10
11.188101
20
2.1497388
40
0.3172371
50
118.3440643
51
180.7036131
0
ARC
8
DEFAULT_255_2_778
10
11.2215538
20
2.1354593
40
0.3508196
50
178.3038711
51
214.2842282
0
ARC
8
DEFAULT_255_2_778
10
11.3482611
20
2.2622535
40
0.5279918
50
217.9100162
51
237.1744719
0
ARC
8
DEFAULT_255_2_778
10
11.6102195
20
2.6307351
40
0.9798511
50
235.9825269
51
240.9270819
0
ARC
8
DEFAULT_255_2_778
10
11.8879399
20
3.1546735
40
1.5727698
50
241.359334
51
245.8964647
0
ARC
8
DEFAULT_255_2_778
10
12.9968452
20
5.5924223
40
4.2508637
50
245.6717173
51
247.9366721
0
ARC
8
DEFAULT_255_2_778
10
14.639401
20
9.6192078
40
8.5997653
50
247.8721517
51
249.2511038
0
ARC
8
DEFAULT_255_2_778
10
16.048092
20
13.301004
40
12.5418355
50
249.1918745
51
249.5518815
0
ARC
8
DEFAULT_255_2_778
10
10.2538689
20
-2.365305
40
4.16182
50
66.0601637
51
70.1582533
0
ARC
8
DEFAULT_255_2_778
10
10.9911762
20
-0.7160946
40
2.3553099
50
59.9546426
51
66.1736784
0
ARC
8
DEFAULT_255_2_778
10
11.5818421
20
0.2948324
40
1.1844951
50
49.9238662
51
60.2033378
0
ARC
8
DEFAULT_255_2_778
10
11.8959721
20
0.6783828
40
0.688799
50
43.5025694
51
49.3779576
0
ARC
8
DEFAULT_255_2_778
10
11.8932848
20
0.6740987
40
0.6936984
50
358.8410558
51
43.6064419
0
ARC
8
DEFAULT_255_2_778
10
11.6403432
20
0.6506757
40
0.9465446
50
359.9980315
51
0.5685386
0
ARC
8
DEFAULT_255_2_778
10
8.015006
20
1.8003151
40
1.2117461
50
359.4102709
51
11.8583176
0
ARC
8
DEFAULT_255_2_778
10
8.5608475
20
1.9213718
40
0.6527078
50
11.3046695
51
35.5721811
0
ARC
8
DEFAULT_255_2_778
10
8.6893401
20
2.0018125
40
0.5014861
50
36.6369177
51
42.7844655
0
ARC
8
DEFAULT_255_2_778
10
8.6648025
20
1.9649061
40
0.5446628
50
43.88057
51
76.8153131
0
ARC
8
DEFAULT_255_2_778
10
8.5427101
20
1.5063862
40
1.0190444
50
76.0118383
51
90.3313727
0
ARC
8
DEFAULT_255_2_778
10
8.5277033
20
1.1225338
40
1.4029094
50
89.6278073
51
90.0006274
0
ARC
8
DEFAULT_255_2_778
10
8.5148186
20
1.1798701
40
1.3456346
50
89.4520311
51
102.1566833
0
ARC
8
DEFAULT_255_2_778
10
8.3904953
20
1.7284858
40
0.7831636
50
101.7173712
51
125.9160908
0
ARC
8
DEFAULT_255_2_778
10
8.3106857
20
1.8543269
40
0.6344981
50
126.7453025
51
139.3641614
0
ARC
8
DEFAULT_255_2_778
10
8.4167436
20
1.7796644
40
0.7637064
50
140.2953487
51
161.1080443
0
ARC
8
DEFAULT_255_2_778
10
8.9867853
20
1.5746883
40
1.3694406
50
160.7162832
51
172.4082607
0
ARC
8
DEFAULT_255_2_778
10
9.9385025
20
1.4387497
40
2.3307925
50
172.1867183
51
179.4194303
0
ARC
8
DEFAULT_255_2_778
10
10.6701159
20
1.4166114
40
3.062628
50
179.1439727
51
180.0050195
0
ARC
8
DEFAULT_255_2_778
10
8.3846414
20
1.9651137
40
0.9056777
50
114.0541098
51
147.7614653
0
ARC
8
DEFAULT_255_2_778
10
8.5647041
20
1.6456774
40
1.2712286
50
90.073131
51
115.5968243
0
ARC
8
DEFAULT_255_2_778
10
8.5837721
20
1.3681437
40
1.5488994
50
89.9994138
51
90.7653909
0
ARC
8
DEFAULT_255_2_778
10
8.5966757
20
1.1384812
40
1.7786086
50
79.6977164
51
90.4151695
0
ARC
8
DEFAULT_255_2_778
10
8.724454
20
1.8141446
40
1.0909972
50
62.113323
51
79.9540834
0
ARC
8
DEFAULT_255_2_778
10
8.8488722
20
2.0634751
40
0.8124541
50
46.3092232
51
61.6444957
0
ARC
8
DEFAULT_255_2_778
10
8.8537223
20
2.0804885
40
0.7968445
50
18.5944192
51
45.7163492
0
ARC
8
DEFAULT_255_2_778
10
8.3480222
20
1.8983996
40
1.334257
50
5.8051442
51
19.0810767
0
ARC
8
DEFAULT_255_2_778
10
7.6229382
20
1.8114416
40
2.0644597
50
359.8224209
51
6.1707416
0
ARC
8
DEFAULT_255_2_778
10
5.3059042
20
0.877343
40
1.2118808
50
179.4090046
51
191.8577221
0
ARC
8
DEFAULT_255_2_778
10
4.7597139
20
0.7562389
40
0.6524913
50
191.3056029
51
215.5779587
0
ARC
8
DEFAULT_255_2_778
10
4.6316281
20
0.6760553
40
0.5017507
50
216.6407182
51
222.7847513
0
ARC
8
DEFAULT_255_2_778
10
4.6562081
20
0.7129704
40
0.5449639
50
223.8778735
51
256.7973708
0
ARC
8
DEFAULT_255_2_778
10
4.7780969
20
1.1702834
40
1.0181275
50
255.9971722
51
270.3299129
0
ARC
8
DEFAULT_255_2_778
10
4.7930725
20
1.5550526
40
1.4029094
50
269.6278073
51
270.0006274
0
ARC
8
DEFAULT_255_2_778
10
4.80591
20
1.483
40
1.3309187
50
269.4480048
51
282.2176218
0
ARC
8
DEFAULT_255_2_778
10
4.9300626
20
0.9384007
40
0.7724042
50
281.7658936
51
306.2149138
0
ARC
8
DEFAULT_255_2_778
10
5.0093647
20
0.8145125
40
0.6256653
50
307.0586955
51
320.0478643
0
ARC
8
DEFAULT_255_2_778
10
4.8884961
20
0.9073961
40
0.7779923
50
320.5201338
51
341.5196325
0
ARC
8
DEFAULT_255_2_778
10
4.3120003
20
1.1110126
40
1.3893405
50
341.0916035
51
352.557037
0
ARC
8
DEFAULT_255_2_778
10
3.3340542
20
1.2460964
40
2.3765565
50
352.3819264
51
359.8844291
0
ARC
8
DEFAULT_255_2_778
10
2.6019454
20
1.2639096
40
3.1087426
50
359.5833384
51
0.0006175
0
ARC
8
DEFAULT_255_2_778
10
4.9240787
20
0.7201436
40
0.9145512
50
294.5310552
51
327.7438742
0
ARC
8
DEFAULT_255_2_778
10
4.7742567
20
1.0254588
40
1.2545478
50
273.4845428
51
294.9665659
0
ARC
8
DEFAULT_255_2_778
10
4.7335129
20
1.4054212
40
1.6363786
50
269.9571085
51
274.0999082
0
ARC
8
DEFAULT_255_2_778
10
4.7197021
20
1.6046344
40
1.8356344
50
260.1439715
51
270.3928455
0
ARC
8
DEFAULT_255_2_778
10
4.5932003
20
0.9055786
40
1.1252532
50
243.4303353
51
260.3972999
0
ARC
8
DEFAULT_255_2_778
10
4.4593503
20
0.6253864
40
0.8148019
50
226.684892
51
243.0357264
0
ARC
8
DEFAULT_255_2_778
10
4.4613159
20
0.6013625
40
0.7988715
50
198.6554888
51
225.4002089
0
ARC
8
DEFAULT_255_2_778
10
4.9636366
20
0.7823364
40
1.3327328
50
185.8246362
51
199.1191326
0
ARC
8
DEFAULT_255_2_778
10
5.6854291
20
0.8691534
40
2.0596511
50
179.8222488
51
186.1895676
0
ARC
8
DEFAULT_255_2_778
10
1.6035957
20
1.519876
40
1.3967305
50
74.1576419
51
90.5459109
0
ARC
8
DEFAULT_255_2_778
10
1.7005833
20
1.8663359
40
1.0369544
50
38.1189003
51
74.0870875
0
ARC
8
DEFAULT_255_2_778
10
1.4813042
20
1.6765676
40
1.3266845
50
18.3026846
51
38.7208
0
ARC
8
DEFAULT_255_2_778
10
0.8891496
20
1.4729668
40
1.9528344
50
6.7736478
51
18.518108
0
ARC
8
DEFAULT_255_2_778
10
0.0123679
20
1.3599766
40
2.8368366
50
359.8034123
51
6.9511307
0
ARC
8
DEFAULT_255_2_778
10
0.0986423
20
1.337416
40
2.7505755
50
351.6959321
51
0.2671965
0
ARC
8
DEFAULT_255_2_778
10
0.9769221
20
1.2053588
40
1.8624354
50
339.2333962
51
351.8136299
0
ARC
8
DEFAULT_255_2_778
10
1.4680841
20
1.0188866
40
1.3370671
50
321.4452479
51
339.2424016
0
ARC
8
DEFAULT_255_2_778
10
1.6662494
20
0.8614419
40
1.0839701
50
274.8595731
51
321.4248883
0
ARC
8
DEFAULT_255_2_778
10
1.5902913
20
1.3189403
40
1.5466994
50
269.9035616
51
276.2276836
0
ARC
8
DEFAULT_255_2_778
10
1.5751597
20
1.1602165
40
1.3880299
50
248.976217
51
270.517151
0
ARC
8
DEFAULT_255_2_778
10
1.5434295
20
1.0553653
40
1.2788002
50
247.0207027
51
248.6178706
0
ARC
8
DEFAULT_255_2_778
10
1.4723229
20
0.8140571
40
1.0292821
50
215.4731127
51
245.42053
0
ARC
8
DEFAULT_255_2_778
10
1.4876235
20
1.8686823
40
1.0339397
50
96.8569712
51
145.3767952
0
ARC
8
DEFAULT_255_2_778
10
1.5858302
20
1.370259
40
1.5409913
50
89.8231018
51
98.2698812
0
ARC
8
DEFAULT_255_2_778
10
1.5111667
20
1.2884062
40
1.2403022
50
89.4123345
51
102.7771503
0
ARC
8
DEFAULT_255_2_778
10
1.3883567
20
1.7995605
40
0.7146764
50
102.2382154
51
129.613036
0
ARC
8
DEFAULT_255_2_778
10
1.3277803
20
1.8878559
40
0.6081094
50
130.5204976
51
142.6312626
0
ARC
8
DEFAULT_255_2_778
10
1.4755502
20
1.7857189
40
0.7875861
50
143.2507213
51
161.607355
0
ARC
8
DEFAULT_255_2_778
10
2.1167357
20
1.5620212
40
1.4666341
50
161.2182924
51
171.689843
0
ARC
8
DEFAULT_255_2_778
10
3.2008002
20
1.3957293
40
2.5633625
50
171.5140611
51
178.3236964
0
ARC
8
DEFAULT_255_2_778
10
4.25377
20
1.3490321
40
3.6172826
50
178.0722472
51
180.0283364
0
ARC
8
DEFAULT_255_2_778
10
3.6550734
20
1.3347855
40
3.0186112
50
179.7635421
51
185.9067492
0
ARC
8
DEFAULT_255_2_778
10
2.4460322
20
1.2057726
40
1.8027167
50
185.7826108
51
194.7699087
0
ARC
8
DEFAULT_255_2_778
10
1.6846266
20
0.9999518
40
1.0140102
50
194.4925394
51
209.283192
0
ARC
8
DEFAULT_255_2_778
10
1.3995886
20
0.8488503
40
0.6915308
50
209.9151387
51
217.3674707
0
ARC
8
DEFAULT_255_2_778
10
1.3782679
20
0.8487206
40
0.6746296
50
218.4577631
51
255.7659464
0
ARC
8
DEFAULT_255_2_778
10
1.5135659
20
1.3140463
40
1.1590577
50
254.9389864
51
268.9795369
0
ARC
8
DEFAULT_255_2_778
10
1.5375942
20
1.7399947
40
1.5854518
50
268.3854622
51
270.010614
0
ARC
8
DEFAULT_255_2_778
10
1.5512843
20
1.0405073
40
0.8860654
50
269.1337132
51
289.3302325
0
ARC
8
DEFAULT_255_2_778
10
1.6133185
20
0.8367775
40
0.6733454
50
290.0875659
51
326.2045785
0
ARC
8
DEFAULT_255_2_778
10
1.2719199
20
1.050049
40
1.0757598
50
326.8789321
51
344.3057426
0
ARC
8
DEFAULT_255_2_778
10
0.6174113
20
1.2427165
40
1.7580051
50
344.0307527
51
354.343953
0
ARC
8
DEFAULT_255_2_778
10
-0.3081123
20
1.3439164
40
2.6890134
50
354.1417263
51
0.1795523
0
ARC
8
DEFAULT_255_2_778
10
-0.293806
20
1.3647066
40
2.6747225
50
359.7351587
51
6.7161287
0
ARC
8
DEFAULT_255_2_778
10
0.7515818
20
1.492178
40
1.6216065
50
6.5628485
51
17.1965263
0
ARC
8
DEFAULT_255_2_778
10
1.378017
20
1.6904103
40
0.9645768
50
16.9491259
51
34.5065212
0
ARC
8
DEFAULT_255_2_778
10
1.6256889
20
1.8483657
40
0.6710749
50
35.3723974
51
82.8416293
0
ARC
8
DEFAULT_255_2_778
10
1.535031
20
1.4079777
40
1.1198768
50
81.0468838
51
90.258017
0
LINE
8
DEFAULT_255_2_778
10
27.5776879
20
-0.0446569
11
27.5776879
21
0.2516431
0
LINE
8
DEFAULT_255_2_778
10
29.6572879
20
2.7144431
11
29.5546879
21
2.4648431
0
LINE
8
DEFAULT_255_2_778
10
24.7413879
20
0.2805431
11
24.7164879
21
0.2805431
0
LINE
8
DEFAULT_255_2_778
10
24.7164879
20
0.2805431
11
24.6389879
21
-0.1745569
0
LINE
8
DEFAULT_255_2_778
10
24.6389879
20
-0.1745569
11
24.4669879
21
-0.1745569
0
LINE
8
DEFAULT_255_2_778
10
24.4669879
20
-0.1745569
11
24.4669879
21
4.1394431
0
LINE
8
DEFAULT_255_2_778
10
24.4669879
20
4.1394431
11
24.7415879
21
4.1394431
0
LINE
8
DEFAULT_255_2_778
10
24.7415879
20
4.1394431
11
24.7415879
21
3.0551431
0
LINE
8
DEFAULT_255_2_778
10
24.7415879
20
3.0551431
11
24.7304879
21
2.6059431
0
LINE
8
DEFAULT_255_2_778
10
24.7304879
20
2.6059431
11
24.7225879
21
2.3677431
0
LINE
8
DEFAULT_255_2_778
10
24.7225879
20
2.3677431
11
24.7418879
21
2.3677431
0
LINE
8
DEFAULT_255_2_778
10
24.7392879
20
1.3311431
11
24.7392879
21
1.2840431
0
LINE
8
DEFAULT_255_2_778
10
23.2866879
20
-0.1801569
11
23.2173879
21
0.2969431
0
LINE
8
DEFAULT_255_2_778
10
23.2173879
20
0.2969431
11
23.1961879
21
0.2969431
0
LINE
8
DEFAULT_255_2_778
10
22.6579879
20
1.5676431
11
23.2321879
21
1.5843431
0
LINE
8
DEFAULT_255_2_778
10
23.2321879
20
1.5843431
11
23.2321879
21
1.7841431
0
LINE
8
DEFAULT_255_2_778
10
21.6266879
20
2.4191431
11
21.5239879
21
2.6572431
0
LINE
8
DEFAULT_255_2_778
10
23.4901879
20
1.8277431
11
23.4901879
21
-0.1769569
0
LINE
8
DEFAULT_255_2_778
10
23.4901879
20
-0.1769569
11
23.2876879
21
-0.1769569
0
LINE
8
DEFAULT_255_2_778
10
23.2189879
20
1.0599431
11
23.2189879
21
1.3562431
0
LINE
8
DEFAULT_255_2_778
10
23.2189879
20
1.3562431
11
22.6897879
21
1.3340431
0
LINE
8
DEFAULT_255_2_778
10
20.4437879
20
-0.1772569
11
20.1743879
21
-0.1772569
0
LINE
8
DEFAULT_255_2_778
10
20.1743879
20
-0.1772569
11
20.1743879
21
4.1394431
0
LINE
8
DEFAULT_255_2_778
10
20.1743879
20
4.1394431
11
20.4489879
21
4.1394431
0
LINE
8
DEFAULT_255_2_778
10
20.4489879
20
4.1394431
11
20.4489879
21
-0.1753569
0
LINE
8
DEFAULT_255_2_778
10
18.5953879
20
-0.1753569
11
18.5953879
21
1.7904431
0
LINE
8
DEFAULT_255_2_778
10
16.9760879
20
1.4190431
11
16.9760879
21
-0.1753569
0
LINE
8
DEFAULT_255_2_778
10
16.9760879
20
-0.1753569
11
16.5156879
21
-0.1753569
0
LINE
8
DEFAULT_255_2_778
10
16.5156879
20
-0.1753569
11
16.5156879
21
2.8641431
0
LINE
8
DEFAULT_255_2_778
10
16.5156879
20
2.8641431
11
16.8900879
21
2.8641431
0
LINE
8
DEFAULT_255_2_778
10
16.8900879
20
2.8641431
11
16.9649879
21
2.4482431
0
LINE
8
DEFAULT_255_2_778
10
16.9649879
20
2.4482431
11
16.9871879
21
2.4482431
0
LINE
8
DEFAULT_255_2_778
10
19.0559879
20
1.8050431
11
19.0559879
21
-0.1774569
0
LINE
8
DEFAULT_255_2_778
10
19.0559879
20
-0.1774569
11
18.5955879
21
-0.1774569
0
LINE
8
DEFAULT_255_2_778
10
15.7343879
20
1.5526431
11
15.7343879
21
1.2615431
0
LINE
8
DEFAULT_255_2_778
10
15.7343879
20
1.2615431
11
13.6388879
21
1.2615431
0
LINE
8
DEFAULT_255_2_778
10
15.6020879
20
0.3773431
11
15.6020879
21
-0.0327569
0
LINE
8
DEFAULT_255_2_778
10
13.6531879
20
1.6372431
11
15.2419879
21
1.6372431
0
LINE
8
DEFAULT_255_2_778
10
10.4419879
20
-0.0377569
11
10.4419879
21
0.3855431
0
LINE
8
DEFAULT_255_2_778
10
12.5239879
20
2.7173431
11
12.3604879
21
2.3429431
0
LINE
8
DEFAULT_255_2_778
10
9.2266879
20
-0.1780569
11
9.2266879
21
1.7878431
0
LINE
8
DEFAULT_255_2_778
10
7.6074879
20
1.4163431
11
7.6074879
21
-0.1806569
0
LINE
8
DEFAULT_255_2_778
10
7.6074879
20
-0.1806569
11
7.1470879
21
-0.1806569
0
LINE
8
DEFAULT_255_2_778
10
7.1470879
20
-0.1806569
11
7.1470879
21
2.8641431
0
LINE
8
DEFAULT_255_2_778
10
7.1470879
20
2.8641431
11
7.5214879
21
2.8641431
0
LINE
8
DEFAULT_255_2_778
10
7.5214879
20
2.8641431
11
7.5963879
21
2.4482431
0
LINE
8
DEFAULT_255_2_778
10
7.5963879
20
2.4482431
11
7.6185879
21
2.4482431
0
LINE
8
DEFAULT_255_2_778
10
9.6873879
20
1.8050431
11
9.6873879
21
-0.1774569
0
LINE
8
DEFAULT_255_2_778
10
9.6873879
20
-0.1774569
11
9.2269879
21
-0.1774569
0
LINE
8
DEFAULT_255_2_778
10
4.0940879
20
2.8615431
11
4.0940879
21
0.8898431
0
LINE
8
DEFAULT_255_2_778
10
5.7106879
20
1.2639431
11
5.7106879
21
2.8612431
0
LINE
8
DEFAULT_255_2_778
10
5.7106879
20
2.8612431
11
6.1710879
21
2.8612431
0
LINE
8
DEFAULT_255_2_778
10
6.1710879
20
2.8612431
11
6.1710879
21
-0.1753569
0
LINE
8
DEFAULT_255_2_778
10
6.1710879
20
-0.1753569
11
5.7889879
21
-0.1753569
0
LINE
8
DEFAULT_255_2_778
10
5.7889879
20
-0.1753569
11
5.7222879
21
0.2320431
0
LINE
8
DEFAULT_255_2_778
10
5.7222879
20
0.2320431
11
5.6974879
21
0.2320431
0
LINE
8
DEFAULT_255_2_778
10
3.6257879
20
0.8755431
11
3.6257879
21
2.8636431
0
LINE
8
DEFAULT_255_2_778
10
3.6257879
20
2.8636431
11
4.0913879
21
2.8636431
0
LINE
8
DEFAULT_255_2_778
10
0.6340879
20
0.2167431
11
0.6031879
21
0.2167431
0
LINE
8
DEFAULT_255_2_778
10
0.6031879
20
0.2167431
11
0.5060879
21
-0.1743569
0
LINE
8
DEFAULT_255_2_778
10
0.5060879
20
-0.1743569
11
0.1763879
21
-0.1743569
0
LINE
8
DEFAULT_255_2_778
10
0.1763879
20
-0.1743569
11
0.1763879
21
4.1394431
0
LINE
8
DEFAULT_255_2_778
10
0.1763879
20
4.1394431
11
0.6367879
21
4.1394431
0
LINE
8
DEFAULT_255_2_778
10
0.6367879
20
4.1394431
11
0.6367879
21
3.0911431
0
LINE
8
DEFAULT_255_2_778
10
0.6367879
20
3.0911431
11
0.6145879
21
2.4561431
0
LINE
8
DEFAULT_255_2_778
10
0.6145879
20
2.4561431
11
0.6367879
21
2.4561431
0
ENDSEC
0
EOF