0
SECTION
2
HEADER
9
$MEASUREMENT
70
1
0
ENDSEC
0
SECTION
2
TABLES
0
TABLE
2
LTYPE
0
LTYPE
72
65
70
64
2
CONTINUOUS
3
______
73
0
40
0
0
ENDTAB
0
TABLE
2
LAYER
0
LAYER
2
DEFAULT_255_2_778
70
0
62
255
6
CONTINUOUS
0
ENDTAB
0
ENDSEC
0
SECTION
2
ENTITIES
0
ARC
8
DEFAULT_255_2_778
10
8.0274852
20
3.3268445
40
1.74259
50
279.2698687
51
300.3007621
0
ARC
8
DEFAULT_255_2_778
10
12.0469003
20
5.8235729
40
1.9102913
50
299.9219007
51
359.9972995
0
ARC
8
DEFAULT_255_2_778
10
12.040237
20
5.8234757
40
1.9169544
50
0.0002149
51
0.5899005
0
ARC
8
DEFAULT_255_2_778
10
12.557025
20
10.5499942
40
1.4006215
50
358.3846633
51
0.0003652
0
ARC
8
DEFAULT_255_2_778
10
12.5549537
20
10.549898
40
1.4026929
50
0.0042922
51
21.3606814
0
ARC
8
DEFAULT_255_2_778
10
12.0559145
20
4.7053586
40
4.6123169
50
124.6505594
51
127.2001237
0
ARC
8
DEFAULT_255_2_778
10
11.5945721
20
5.3123808
40
3.8498785
50
127.1931851
51
130.209823
0
ARC
8
DEFAULT_255_2_778
10
11.1858579
20
5.7954346
40
3.2171161
50
130.2049245
51
133.6849573
0
ARC
8
DEFAULT_255_2_778
10
10.825416
20
6.171986
40
2.695859
50
133.6728044
51
137.9744693
0
ARC
8
DEFAULT_255_2_778
10
10.6389918
20
6.3434771
40
2.442569
50
138.0351714
51
138.7320269
0
ARC
8
DEFAULT_255_2_778
10
10.398073
20
6.5460578
40
2.1278784
50
138.5532554
51
147.5060086
0
ARC
8
DEFAULT_255_2_778
10
10.1180604
20
6.7257679
40
1.7951605
50
147.5427176
51
161.0735958
0
ARC
8
DEFAULT_255_2_778
10
10.6211436
20
6.5980927
40
2.3128457
50
162.124127
51
180.8801931
0
ARC
8
DEFAULT_255_2_778
10
12.2391915
20
6.5373601
40
3.9307015
50
179.6326199
51
180.0021615
0
LINE
8
DEFAULT_255_2_778
10
8.30819
20
6.5372118
11
8.30819
21
1.6070118
0
LINE
8
DEFAULT_255_2_778
10
8.90669
20
1.8223118
11
12.99979
21
4.1679118
0
LINE
8
DEFAULT_255_2_778
10
13.95709
20
5.8432118
11
13.95709
21
10.5105118
0
LINE
8
DEFAULT_255_2_778
10
13.86129
20
11.0608118
11
9.43349
21
8.4996118
0
LINE
8
DEFAULT_255_2_778
10
8.30849
20
6.5372118
11
8.30819
21
6.5372118
0
ARC
8
DEFAULT_255_2_778
10
11.9075508
20
10.4586787
40
2.0508886
50
2.0486638
51
17.7022833
0
ARC
8
DEFAULT_255_2_778
10
11.9965522
20
5.8500469
40
1.9605977
50
300.7784415
51
359.7325325
0
ARC
8
DEFAULT_255_2_778
10
7.7514342
20
4.0906579
40
2.5478473
50
282.6230143
51
296.9645682
0
ARC
8
DEFAULT_255_2_778
10
7.9424597
20
2.0716261
40
2.3626166
50
278.9060745
51
299.954101
0
ARC
8
DEFAULT_255_2_778
10
13.2297818
20
5.1452071
40
2.4023541
50
300.1231695
51
359.0411643
0
ARC
8
DEFAULT_255_2_778
10
13.2201997
20
5.145096
40
2.411933
50
359.0476141
51
359.9999877
0
ARC
8
DEFAULT_255_2_778
10
13.3318108
20
5.1451975
40
2.3003219
50
359.9974583
51
0.1095187
0
ARC
8
DEFAULT_255_2_778
10
13.3408786
20
11.2170584
40
2.2912662
50
0.2159547
51
20.3937231
0
LINE
8
DEFAULT_255_2_778
10
15.4885285
20
12.0154945
11
13.8613285
21
11.0822945
0
LINE
8
DEFAULT_255_2_778
10
13.9571285
20
10.5319945
11
13.9571285
21
5.8408945
0
LINE
8
DEFAULT_255_2_778
10
12.9998285
20
4.1655945
11
8.9067285
21
1.8197945
0
LINE
8
DEFAULT_255_2_778
10
8.3082285
20
1.6043945
11
8.3082285
21
-0.2625055
0
LINE
8
DEFAULT_255_2_778
10
9.1221285
20
0.0245945
11
14.4354285
21
3.0672945
0
LINE
8
DEFAULT_255_2_778
10
15.6321285
20
5.1495945
11
15.6321285
21
11.2256945
0
LINE
8
DEFAULT_255_2_778
10
15.4885285
20
12.0154945
11
15.4885285
21
12.0154945
0
ARC
8
DEFAULT_255_2_778
10
10.6159161
20
6.3442003
40
3.2074955
50
119.226062
51
147.0180106
0
ARC
8
DEFAULT_255_2_778
10
11.9989842
20
10.5638104
40
1.9198432
50
37.3213429
51
58.6910712
0
ARC
8
DEFAULT_255_2_778
10
7.9379824
20
12.8107051
40
1.9931521
50
60.912758
51
85.5114675
0
ARC
8
DEFAULT_255_2_778
10
7.9375258
20
12.8070839
40
1.9967979
50
85.5065385
51
90.0000961
0
LINE
8
DEFAULT_255_2_778
10
7.9375225
20
14.8038819
11
7.9371381
21
14.8038818
0
ARC
8
DEFAULT_255_2_778
10
7.9372516
20
12.8099377
40
1.9939441
50
90.003261
51
117.2295728
0
ARC
8
DEFAULT_255_2_778
10
7.940585
20
12.8032568
40
2.0014098
50
117.2269126
51
119.0735804
0
ARC
8
DEFAULT_255_2_778
10
3.9742863
20
10.4161235
40
2.0888606
50
120.9650802
51
141.0742293
0
ARC
8
DEFAULT_255_2_778
10
5.0716671
20
6.1687187
40
3.4409057
50
33.9544809
51
59.8322919
0
LINE
8
DEFAULT_255_2_778
10
9.049835
20
9.1433819
11
13.525735
21
11.7277819
0
LINE
8
DEFAULT_255_2_778
10
12.996635
20
12.2040819
11
8.906935
21
14.5524819
0
LINE
8
DEFAULT_255_2_778
10
6.968035
20
14.5524819
11
2.899535
21
12.2072819
0
LINE
8
DEFAULT_255_2_778
10
2.349235
20
11.7285819
11
6.800835
21
9.1435819
0
LINE
8
DEFAULT_255_2_778
10
7.925835
20
8.0905819
11
7.925335
21
8.0902819
0
ARC
8
DEFAULT_255_2_778
10
7.9373513
20
12.7872232
40
1.9931548
50
94.4887982
51
119.0872627
0
ARC
8
DEFAULT_255_2_778
10
7.9377938
20
12.7837261
40
1.9966757
50
89.9999113
51
94.4936007
0
ARC
8
DEFAULT_255_2_778
10
7.9380894
20
12.7868719
40
1.99353
50
62.7682485
51
90.0084082
0
ARC
8
DEFAULT_255_2_778
10
7.9348533
20
12.7804263
40
2.000742
50
60.92255
51
62.7703122
0
ARC
8
DEFAULT_255_2_778
10
12.1560816
20
10.7264475
40
1.6837051
50
35.5301771
51
59.9267783
0
ARC
8
DEFAULT_255_2_778
10
13.5401902
20
11.5025402
40
1.972996
50
35.1453981
51
63.0069989
0
ARC
8
DEFAULT_255_2_778
10
7.9260844
20
14.2949519
40
2.3760176
50
59.7768912
51
80.427301
0
ARC
8
DEFAULT_255_2_778
10
7.9253822
20
14.2906795
40
2.3803474
50
80.4277356
51
90.0008512
0
ARC
8
DEFAULT_255_2_778
10
7.9249573
20
14.2941317
40
2.3768952
50
89.9906097
51
115.8901528
0
ARC
8
DEFAULT_255_2_778
10
7.9280254
20
14.2881938
40
2.3835769
50
115.8941758
51
120.2122901
0
ARC
8
DEFAULT_255_2_778
10
2.6260599
20
11.2703921
40
2.325592
50
120.0104422
51
143.9798656
0
ARC
8
DEFAULT_255_2_778
10
3.5866465
20
10.8976128
40
1.4580386
50
118.1488424
51
146.3942022
0
LINE
8
DEFAULT_255_2_778
10
2.8995968
20
12.1835019
11
6.9683968
21
14.5290019
0
LINE
8
DEFAULT_255_2_778
10
8.9071968
20
14.5290019
11
12.9997968
21
12.1835019
0
LINE
8
DEFAULT_255_2_778
10
13.5262968
20
11.7049019
11
15.1534968
21
12.6383019
0
LINE
8
DEFAULT_255_2_778
10
14.4356968
20
13.2606019
11
9.1220968
21
16.3480019
0
LINE
8
DEFAULT_255_2_778
10
6.7285968
20
16.3480019
11
1.4628968
21
13.2842019
0
LINE
8
DEFAULT_255_2_778
10
0.7450968
20
12.6380019
11
2.3722968
21
11.7046019
0
LINE
8
DEFAULT_255_2_778
10
2.8987968
20
12.1832019
11
2.8995968
21
12.1835019
0
ARC
8
DEFAULT_255_2_778
10
3.8525704
20
5.8209884
40
1.9103306
50
180.000467
51
240.0774167
0
ARC
8
DEFAULT_255_2_778
10
3.8597415
20
5.8209656
40
1.9175015
50
179.410183
51
179.9997851
0
ARC
8
DEFAULT_255_2_778
10
3.8492977
20
10.5434221
40
1.9069923
50
180.0000199
51
180.3520581
0
ARC
8
DEFAULT_255_2_778
10
3.8552312
20
10.5430236
40
1.9129259
50
164.2924609
51
179.9880846
0
ARC
8
DEFAULT_255_2_778
10
2.4143329
20
11.2169349
40
2.1714187
50
159.0366617
51
179.7131902
0
ARC
8
DEFAULT_255_2_778
10
2.5876627
20
5.1046281
40
2.3448047
50
179.5167543
51
180.00043
0
ARC
8
DEFAULT_255_2_778
10
2.5778652
20
5.1048156
40
2.3350073
50
180.0050314
51
239.3678934
0
ARC
8
DEFAULT_255_2_778
10
2.584448
20
5.1154921
40
2.3475481
50
239.3624197
51
240.8130668
0
ARC
8
DEFAULT_255_2_778
10
7.9078029
20
2.0611156
40
2.3530269
50
240.0014602
51
261.1339162
0
ARC
8
DEFAULT_255_2_778
10
7.7434503
20
3.004119
40
1.4152769
50
236.9230281
51
261.945197
0
LINE
8
DEFAULT_255_2_778
10
6.9681414
20
1.8198045
11
2.8996414
21
4.1653045
0
LINE
8
DEFAULT_255_2_778
10
1.9423414
20
5.8407045
11
1.9423414
21
10.5317045
0
LINE
8
DEFAULT_255_2_778
10
2.0137414
20
11.0609045
11
0.3866414
21
11.9938045
0
LINE
8
DEFAULT_255_2_778
10
0.2429414
20
11.2278045
11
0.2429414
21
5.1244045
0
LINE
8
DEFAULT_255_2_778
10
1.4396414
20
3.0660045
11
6.7313414
21
0.0233045
0
LINE
8
DEFAULT_255_2_778
10
7.5451414
20
-0.2637955
11
7.5451414
21
1.6028045
0
LINE
8
DEFAULT_255_2_778
10
6.9710414
20
1.8182045
11
6.9681414
21
1.8198045
0
ARC
8
DEFAULT_255_2_778
10
3.9146102
20
10.5319256
40
1.9754482
50
164.5481859
51
179.9880428
0
ARC
8
DEFAULT_255_2_778
10
3.8814422
20
10.5322202
40
1.9422801
50
179.9965295
51
180.0938126
0
ARC
8
DEFAULT_255_2_778
10
3.8631352
20
5.8182868
40
1.9240717
50
179.4117698
51
179.9992045
0
ARC
8
DEFAULT_255_2_778
10
3.8493769
20
5.8184291
40
1.9103134
50
180.0034664
51
240.0846323
0
ARC
8
DEFAULT_255_2_778
10
8.1207593
20
4.0880034
40
2.5478473
50
243.0354318
51
257.3769857
0
ARC
8
DEFAULT_255_2_778
10
4.8498234
20
6.4839401
40
2.7146668
50
1.1271319
51
15.3184076
0
ARC
8
DEFAULT_255_2_778
10
5.633947
20
6.6712269
40
1.9091073
50
16.1143174
51
29.3943364
0
ARC
8
DEFAULT_255_2_778
10
5.5098126
20
6.6002037
40
2.0521205
50
29.4209306
51
35.474852
0
ARC
8
DEFAULT_255_2_778
10
5.2638479
20
6.424047
40
2.3546585
50
35.4921836
51
41.10104
0
ARC
8
DEFAULT_255_2_778
10
4.9090696
20
6.1147466
40
2.8253331
50
41.097926
51
45.8293688
0
ARC
8
DEFAULT_255_2_778
10
4.4738312
20
5.6679164
40
3.4491032
50
45.8155425
51
49.6190648
0
ARC
8
DEFAULT_255_2_778
10
3.9781564
20
5.0865254
40
4.2131113
50
49.6065744
51
52.6914417
0
ARC
8
DEFAULT_255_2_778
10
3.5296396
20
4.5026696
40
4.9493502
50
52.6582928
51
54.3374042
0
LINE
8
DEFAULT_255_2_778
10
6.4174649
20
8.52164
11
2.0105649
21
11.05824
0
LINE
8
DEFAULT_255_2_778
10
1.9391649
20
10.52904
11
1.9391649
21
5.83804
0
LINE
8
DEFAULT_255_2_778
10
2.8966649
20
4.16264
11
6.9654649
21
1.81714
0
LINE
8
DEFAULT_255_2_778
10
7.5639649
20
1.60174
11
7.5639649
21
6.53734
0
LINE
8
DEFAULT_255_2_778
10
6.4151649
20
8.52384
11
6.4174649
21
8.52164
0
ENDSEC
0
EOF