0
SECTION
2
HEADER
9
$MEASUREMENT
70
1
0
ENDSEC
0
SECTION
2
TABLES
0
TABLE
2
LTYPE
0
LTYPE
72
65
70
64
2
CONTINUOUS
3
______
73
0
40
0
0
ENDTAB
0
TABLE
2
LAYER
0
LAYER
2
DEFAULT_255_2_778
70
0
62
255
6
CONTINUOUS
0
ENDTAB
0
ENDSEC
0
SECTION
2
ENTITIES
0
ARC
8
DEFAULT_255_2_778
10
10.4904014
20
2.2485563
40
1.6527968
50
89.5376442
51
99.5712961
0
ARC
8
DEFAULT_255_2_778
10
10.3568558
20
3.0063219
40
0.8833929
50
99.202298
51
116.4605181
0
ARC
8
DEFAULT_255_2_778
10
10.2651245
20
3.2151347
40
0.6556723
50
117.4149227
51
117.7495293
0
ARC
8
DEFAULT_255_2_778
10
10.2725406
20
3.1725209
40
0.6969647
50
116.6579032
51
137.2748379
0
ARC
8
DEFAULT_255_2_778
10
10.2444922
20
1.7814251
40
0.668125
50
221.6734528
51
242.3502638
0
ARC
8
DEFAULT_255_2_778
10
10.3504067
20
1.999601
40
0.910567
50
242.8177051
51
259.4508578
0
ARC
8
DEFAULT_255_2_778
10
10.4841454
20
2.6754417
40
1.5994882
50
259.1733788
51
269.7025896
0
ARC
8
DEFAULT_255_2_778
10
10.503154
20
3.1973159
40
2.1215168
50
269.2623848
51
270.0022859
0
ARC
8
DEFAULT_255_2_778
10
10.5156987
20
3.1849606
40
2.1091981
50
269.6615244
51
278.2402886
0
ARC
8
DEFAULT_255_2_778
10
10.6445592
20
2.3275333
40
1.242163
50
278.0262896
51
291.3391832
0
ARC
8
DEFAULT_255_2_778
10
10.838458
20
1.8430152
40
0.7203175
50
290.9975397
51
314.255561
0
ARC
8
DEFAULT_255_2_778
10
10.8163173
20
1.8319345
40
0.7282143
50
316.1119959
51
339.9443248
0
ARC
8
DEFAULT_255_2_778
10
10.2986982
20
2.0322834
40
1.2831958
50
339.4669558
51
352.1449832
0
ARC
8
DEFAULT_255_2_778
10
9.4172525
20
2.1612566
40
2.1740096
50
351.9526283
51
0.2725985
0
ARC
8
DEFAULT_255_2_778
10
8.5575735
20
2.1745231
40
3.0336653
50
359.9447926
51
359.9957725
0
ARC
8
DEFAULT_255_2_778
10
9.3724219
20
2.8117511
40
2.218849
50
359.6913738
51
7.6905246
0
ARC
8
DEFAULT_255_2_778
10
10.2669818
20
2.9373353
40
1.3155381
50
7.4839688
51
19.9218097
0
ARC
8
DEFAULT_255_2_778
10
10.8009436
20
3.1368516
40
0.745568
50
19.4886753
51
42.1468062
0
ARC
8
DEFAULT_255_2_778
10
10.9231526
20
3.234256
40
0.5896787
50
43.097889
51
44.8596448
0
ARC
8
DEFAULT_255_2_778
10
10.8331208
20
3.1274793
40
0.7289159
50
45.8171862
51
70.0257831
0
ARC
8
DEFAULT_255_2_778
10
10.6361802
20
2.6160738
40
1.276875
50
69.559148
51
82.4548096
0
ARC
8
DEFAULT_255_2_778
10
10.5148825
20
1.7655569
40
2.1359724
50
82.2249887
51
90.3042916
0
ARC
8
DEFAULT_255_2_778
10
8.040546
20
2.2596105
40
3.0080015
50
356.5983855
51
0.1388337
0
ARC
8
DEFAULT_255_2_778
10
9.2771674
20
2.1839127
40
1.7690688
50
351.7733247
51
356.669317
0
ARC
8
DEFAULT_255_2_778
10
10.1046844
20
2.0613112
40
0.9325286
50
344.3609229
51
351.9533919
0
ARC
8
DEFAULT_255_2_778
10
10.6012691
20
1.9188265
40
0.4159308
50
331.5866007
51
344.8213227
0
ARC
8
DEFAULT_255_2_778
10
10.7498895
20
1.8436157
40
0.2494679
50
328.7983731
51
330.5375549
0
ARC
8
DEFAULT_255_2_778
10
10.7991496
20
1.8125431
40
0.1912389
50
319.8024826
51
329.1155689
0
ARC
8
DEFAULT_255_2_778
10
10.8324137
20
1.7855568
40
0.1484159
50
317.5579414
51
319.4717395
0
ARC
8
DEFAULT_255_2_778
10
10.7382931
20
1.8923812
40
0.2903671
50
286.2010358
51
314.534472
0
ARC
8
DEFAULT_255_2_778
10
10.579377
20
2.366297
40
0.7900648
50
275.410401
51
287.6790748
0
ARC
8
DEFAULT_255_2_778
10
10.4955565
20
3.1100713
40
1.5384864
50
269.7535423
51
275.906369
0
ARC
8
DEFAULT_255_2_778
10
10.4761147
20
2.959262
40
1.387722
50
260.0604188
51
270.5294801
0
ARC
8
DEFAULT_255_2_778
10
10.3484788
20
2.2678529
40
0.6846893
50
241.1247207
51
260.5940058
0
ARC
8
DEFAULT_255_2_778
10
10.224969
20
2.030712
40
0.4174366
50
224.8721246
51
240.2514204
0
ARC
8
DEFAULT_255_2_778
10
10.3205934
20
2.1073207
40
0.5394144
50
195.5112192
51
223.4726343
0
ARC
8
DEFAULT_255_2_778
10
10.7591944
20
2.2405316
40
0.9977262
50
182.3497943
51
196.1466733
0
ARC
8
DEFAULT_255_2_778
10
11.2284347
20
2.2756303
40
1.4680964
50
179.9582848
51
182.9676213
0
ARC
8
DEFAULT_255_2_778
10
10.9882666
20
2.7158755
40
1.2279903
50
168.7857195
51
180.5774643
0
ARC
8
DEFAULT_255_2_778
10
10.4053681
20
2.8374429
40
0.6326062
50
147.5534867
51
169.3187257
0
ARC
8
DEFAULT_255_2_778
10
10.2303461
20
2.9395454
40
0.4301968
50
134.4399821
51
146.5228625
0
ARC
8
DEFAULT_255_2_778
10
10.2830657
20
2.8663963
40
0.5195138
50
105.9011812
51
132.942629
0
ARC
8
DEFAULT_255_2_778
10
10.4370854
20
2.3736297
40
1.0357063
50
93.2130768
51
106.6269251
0
ARC
8
DEFAULT_255_2_778
10
10.4867692
20
1.7942527
40
1.617048
50
89.9231311
51
93.8201159
0
ARC
8
DEFAULT_255_2_778
10
10.5000648
20
1.9932961
40
1.4180468
50
81.9706419
51
90.4495503
0
ARC
8
DEFAULT_255_2_778
10
10.6164977
20
2.7764973
40
0.6262878
50
67.3157703
51
82.5098206
0
ARC
8
DEFAULT_255_2_778
10
10.7615052
20
3.1214833
40
0.2520672
50
44.2899562
51
67.4852942
0
ARC
8
DEFAULT_255_2_778
10
10.8117012
20
3.1798406
40
0.1755145
50
32.3912007
51
42.0951657
0
ARC
8
DEFAULT_255_2_778
10
10.7680157
20
3.1505317
40
0.2281075
50
31.1316363
51
32.7294213
0
ARC
8
DEFAULT_255_2_778
10
10.6295432
20
3.0760136
40
0.3852429
50
15.8878294
51
29.9707536
0
ARC
8
DEFAULT_255_2_778
10
10.1511062
20
2.9315047
40
0.8849997
50
8.4685471
51
16.4066798
0
ARC
8
DEFAULT_255_2_778
10
9.3440586
20
2.8054373
40
1.7018235
50
3.59672
51
8.6652234
0
ARC
8
DEFAULT_255_2_778
10
8.1399954
20
2.725702
40
2.9085201
50
0.0689379
51
3.6763711
0
ARC
8
DEFAULT_255_2_778
10
7.2973783
20
2.7153971
40
3.7511606
50
0.0000319
51
0.21085
0
ARC
8
DEFAULT_255_2_778
10
13.8021751
20
3.2509932
40
0.5987855
50
54.9515887
51
73.5575271
0
ARC
8
DEFAULT_255_2_778
10
13.6130537
20
2.6614914
40
1.2177973
50
72.8740213
51
81.4008909
0
ARC
8
DEFAULT_255_2_778
10
13.4786719
20
2.0184648
40
1.8740482
50
80.2779914
51
85.9604359
0
ARC
8
DEFAULT_255_2_778
10
13.2899935
20
-0.4142404
40
4.3140341
50
85.7368184
51
88.5084695
0
ARC
8
DEFAULT_255_2_778
10
13.1670698
20
-4.8066326
40
8.7081417
50
88.4522032
51
90.0870551
0
ARC
8
DEFAULT_255_2_778
10
13.1420263
20
0.8685547
40
3.0329675
50
89.7768518
51
95.200107
0
ARC
8
DEFAULT_255_2_778
10
13.0213048
20
2.1529691
40
1.7429022
50
95.0747775
51
103.1540277
0
ARC
8
DEFAULT_255_2_778
10
12.8291786
20
2.9516777
40
0.9214433
50
102.8230151
51
116.7637475
0
ARC
8
DEFAULT_255_2_778
10
12.6947647
20
3.2357535
40
0.6073237
50
117.5098892
51
122.669206
0
ARC
8
DEFAULT_255_2_778
10
12.6607189
20
3.302339
40
0.5329443
50
123.4521313
51
170.9747768
0
ARC
8
DEFAULT_255_2_778
10
13.0143236
20
3.2165875
40
0.8960992
50
169.106138
51
180.3253419
0
ARC
8
DEFAULT_255_2_778
10
13.0469764
20
3.1529333
40
0.4030477
50
159.5605399
51
180.4028804
0
ARC
8
DEFAULT_255_2_778
10
12.829118
20
3.2328892
40
0.1709871
50
123.3013975
51
159.1725438
0
ARC
8
DEFAULT_255_2_778
10
12.8318337
20
3.2232733
40
0.1805402
50
114.5226973
51
122.3461639
0
ARC
8
DEFAULT_255_2_778
10
12.9175845
20
3.0211648
40
0.4000522
50
101.5127575
51
113.6819592
0
ARC
8
DEFAULT_255_2_778
10
13.0449882
20
2.4403255
40
0.9946731
50
95.3215387
51
102.0261688
0
ARC
8
DEFAULT_255_2_778
10
13.1436464
20
1.4516814
40
1.9882169
50
91.3324196
51
95.5100427
0
ARC
8
DEFAULT_255_2_778
10
13.1767601
20
0.4097669
40
3.0306326
50
89.9682661
51
91.5002477
0
ARC
8
DEFAULT_255_2_778
10
13.1837534
20
-0.5391787
40
3.9795815
50
87.7250428
51
90.0765181
0
ARC
8
DEFAULT_255_2_778
10
13.2408626
20
0.8609955
40
2.5782443
50
84.6982156
51
87.7580256
0
ARC
8
DEFAULT_255_2_778
10
13.3356126
20
1.8684465
40
1.5663489
50
80.7540399
51
84.7441075
0
ARC
8
DEFAULT_255_2_778
10
13.4499901
20
2.5595985
40
0.865801
50
75.0373537
51
80.8759362
0
ARC
8
DEFAULT_255_2_778
10
13.5193557
20
2.8321292
40
0.5846108
50
73.7265677
51
74.7089585
0
ARC
8
DEFAULT_255_2_778
10
13.567576
20
2.9898206
40
0.4197301
50
67.6943741
51
74.0132023
0
ARC
8
DEFAULT_255_2_778
10
13.6412011
20
3.1677925
40
0.2271318
50
59.2063324
51
67.8374618
0
ARC
8
DEFAULT_255_2_778
10
13.6751528
20
3.2272264
40
0.1587007
50
57.4503029
51
58.7507074
0
ARC
8
DEFAULT_255_2_778
10
13.6830369
20
3.2583982
40
0.1285826
50
42.6593782
51
52.9336997
0
ARC
8
DEFAULT_255_2_778
10
13.6082939
20
3.1976387
40
0.2248005
50
18.3879609
51
41.1384836
0
ARC
8
DEFAULT_255_2_778
10
13.3141962
20
3.0916298
40
0.5373795
50
7.0717937
51
19.2221151
0
ARC
8
DEFAULT_255_2_778
10
12.742355
20
3.0140302
40
1.1144436
50
0.0276478
51
7.4115358
0
ARC
8
DEFAULT_255_2_778
10
12.3008449
20
3.0033829
40
1.5559937
50
359.9969202
51
0.4118705
0
ARC
8
DEFAULT_255_2_778
10
13.4761434
20
2.1773608
40
0.6643358
50
55.0370644
51
73.3367963
0
ARC
8
DEFAULT_255_2_778
10
13.3223314
20
1.656876
40
1.2070704
50
73.4266794
51
83.1707926
0
ARC
8
DEFAULT_255_2_778
10
13.1622541
20
0.4136225
40
2.4605628
50
82.912179
51
88.4437849
0
ARC
8
DEFAULT_255_2_778
10
13.106403
20
-1.0393749
40
3.9145752
50
88.2041784
51
90.0419235
0
ARC
8
DEFAULT_255_2_778
10
13.0913969
20
-2.5608624
40
5.4360752
50
89.8720265
51
92.4163047
0
ARC
8
DEFAULT_255_2_778
10
12.9754903
20
0.0913564
40
2.7813307
50
92.3341903
51
96.4536799
0
ARC
8
DEFAULT_255_2_778
10
12.8432641
20
1.292592
40
1.5728494
50
96.585935
51
100.1555073
0
ARC
8
DEFAULT_255_2_778
10
12.7042949
20
2.0236582
40
0.8287714
50
99.6100335
51
115.0595916
0
ARC
8
DEFAULT_255_2_778
10
12.5604723
20
2.3414362
40
0.4800082
50
115.574527
51
129.316297
0
ARC
8
DEFAULT_255_2_778
10
12.6433958
20
2.2645175
40
0.5922582
50
130.8081077
51
163.8053401
0
ARC
8
DEFAULT_255_2_778
10
13.119567
20
2.1213359
40
1.0894783
50
163.55842
51
174.0597879
0
ARC
8
DEFAULT_255_2_778
10
14.1883386
20
1.999529
40
2.1651427
50
173.7807358
51
179.6332865
0
ARC
8
DEFAULT_255_2_778
10
15.1184776
20
1.9780579
40
3.0954389
50
179.3460616
51
180.004789
0
ARC
8
DEFAULT_255_2_778
10
13.6786841
20
1.9653246
40
1.6556924
50
179.5683077
51
189.3198728
0
ARC
8
DEFAULT_255_2_778
10
12.9468906
20
1.8403043
40
0.9133253
50
189.0150584
51
205.0456319
0
ARC
8
DEFAULT_255_2_778
10
12.6069089
20
1.681196
40
0.5379549
50
205.0222323
51
229.3743146
0
ARC
8
DEFAULT_255_2_778
10
12.6452793
20
1.75657
40
0.6204667
50
231.2173217
51
251.1292254
0
ARC
8
DEFAULT_255_2_778
10
12.8638946
20
2.3616112
40
1.2637444
50
250.6226344
51
261.2663471
0
ARC
8
DEFAULT_255_2_778
10
13.0433585
20
3.4659921
40
2.3825896
50
261.0332695
51
267.4513517
0
ARC
8
DEFAULT_255_2_778
10
13.1182459
20
4.831007
40
3.7496109
50
267.2356779
51
270.0747639
0
ARC
8
DEFAULT_255_2_778
10
13.1351301
20
3.5440234
40
2.4626534
50
269.721007
51
276.3087129
0
ARC
8
DEFAULT_255_2_778
10
13.2628614
20
2.4303634
40
1.3417096
50
276.1130154
51
286.0733174
0
ARC
8
DEFAULT_255_2_778
10
13.3899087
20
1.9602739
40
0.8548598
50
286.6143097
51
290.3749598
0
ARC
8
DEFAULT_255_2_778
10
13.4823389
20
1.7376731
40
0.6140734
50
289.5215625
51
311.152403
0
ARC
8
DEFAULT_255_2_778
10
11.2915533
20
3.0260833
40
3.0934105
50
359.7687706
51
3.8290733
0
ARC
8
DEFAULT_255_2_778
10
13.0094402
20
3.1462349
40
1.3713444
50
3.6133774
51
10.7793521
0
ARC
8
DEFAULT_255_2_778
10
13.7594785
20
3.2876421
40
0.6080952
50
10.9080212
51
19.3172619
0
ARC
8
DEFAULT_255_2_778
10
13.8191951
20
3.3084373
40
0.5448615
50
19.3309015
51
52.863241
0
ARC
8
DEFAULT_255_2_778
10
13.6969729
20
1.8483655
40
0.1602093
50
329.3658131
51
1.3354175
0
ARC
8
DEFAULT_255_2_778
10
13.6787989
20
1.861267
40
0.1824303
50
315.7270253
51
328.7878161
0
ARC
8
DEFAULT_255_2_778
10
13.6154777
20
1.9250307
40
0.2722854
50
301.3566382
51
315.4212565
0
ARC
8
DEFAULT_255_2_778
10
13.5244462
20
2.0692909
40
0.4428533
50
294.0237796
51
301.7018432
0
ARC
8
DEFAULT_255_2_778
10
13.3940148
20
2.3868751
40
0.7860935
50
279.1468042
51
293.2831881
0
ARC
8
DEFAULT_255_2_778
10
13.2296074
20
3.3263597
40
1.7398152
50
271.768228
51
279.5740057
0
ARC
8
DEFAULT_255_2_778
10
13.1782113
20
4.3823235
40
2.7969253
50
269.9554939
51
272.1531136
0
ARC
8
DEFAULT_255_2_778
10
13.1687933
20
4.0158966
40
2.4305082
50
266.0577285
51
270.1708006
0
ARC
8
DEFAULT_255_2_778
10
13.0938919
20
2.9647525
40
1.3767039
50
260.2846205
51
266.1599681
0
ARC
8
DEFAULT_255_2_778
10
12.974336
20
2.2844537
40
0.6859931
50
251.1748066
51
260.5383733
0
ARC
8
DEFAULT_255_2_778
10
12.8664295
20
1.9633255
40
0.3472267
50
242.1306485
51
250.9292768
0
ARC
8
DEFAULT_255_2_778
10
12.8034023
20
1.8429765
40
0.2113745
50
233.8176496
51
241.9840283
0
ARC
8
DEFAULT_255_2_778
10
12.7793627
20
1.8086591
40
0.1694857
50
232.7774113
51
233.5282095
0
ARC
8
DEFAULT_255_2_778
10
12.8344322
20
1.8615332
40
0.2451883
50
194.0698377
51
230.0032128
0
ARC
8
DEFAULT_255_2_778
10
13.2618944
20
1.9914351
40
0.6917592
50
181.7478163
51
195.8995228
0
ARC
8
DEFAULT_255_2_778
10
13.7760345
20
2.0267429
40
1.2068964
50
179.949853
51
182.6788108
0
ARC
8
DEFAULT_255_2_778
10
13.284463
20
2.0395877
40
0.7154215
50
167.6111291
51
180.9441453
0
ARC
8
DEFAULT_255_2_778
10
12.8368777
20
2.1456432
40
0.2556167
50
135.1955959
51
169.3055673
0
ARC
8
DEFAULT_255_2_778
10
12.7699731
20
2.2010065
40
0.1693158
50
126.6776633
51
132.5329092
0
ARC
8
DEFAULT_255_2_778
10
12.7828881
20
2.1825098
40
0.1918658
50
118.180789
51
126.471483
0
ARC
8
DEFAULT_255_2_778
10
12.806898
20
2.1403071
40
0.2404078
50
117.9716317
51
118.4747417
0
ARC
8
DEFAULT_255_2_778
10
12.8717784
20
2.0027796
40
0.3923666
50
103.9040705
51
116.9195956
0
ARC
8
DEFAULT_255_2_778
10
12.9979431
20
1.5204461
40
0.8909085
50
96.5155525
51
104.3262581
0
ARC
8
DEFAULT_255_2_778
10
13.0977961
20
0.6962294
40
1.7211417
50
91.6385231
51
96.7046963
0
ARC
8
DEFAULT_255_2_778
10
13.1317217
20
-0.1766116
40
2.5946114
50
89.9620841
51
91.8362504
0
ARC
8
DEFAULT_255_2_778
10
13.1449638
20
-0.5007528
40
2.9187747
50
85.3620628
51
90.226239
0
ARC
8
DEFAULT_255_2_778
10
13.2658858
20
0.9302454
40
1.4826924
50
77.8026371
51
85.5482124
0
ARC
8
DEFAULT_255_2_778
10
13.4396308
20
1.7236679
40
0.6704758
50
66.3642244
51
77.989665
0
ARC
8
DEFAULT_255_2_778
10
13.6154899
20
2.1016423
40
0.2538835
50
31.0087476
51
68.5242001
0
ARC
8
DEFAULT_255_2_778
10
13.6449036
20
2.1341888
40
0.2122892
50
358.7072155
51
27.5676287
0
ARC
8
DEFAULT_255_2_778
10
16.7455519
20
2.1285326
40
0.5970984
50
66.3540162
51
79.0482256
0
ARC
8
DEFAULT_255_2_778
10
16.5161185
20
1.0478477
40
1.7018064
50
78.3767626
51
83.8939276
0
ARC
8
DEFAULT_255_2_778
10
16.1201819
20
6.997159
40
4.2191295
50
266.4920891
51
268.6507939
0
ARC
8
DEFAULT_255_2_778
10
16.0092677
20
5.2252465
40
2.4437516
50
263.4784736
51
266.5457691
0
ARC
8
DEFAULT_255_2_778
10
15.8677516
20
4.012188
40
1.2224728
50
258.7868707
51
263.6108987
0
ARC
8
DEFAULT_255_2_778
10
15.7505131
20
3.4122033
40
0.6111458
50
254.4530323
51
258.6301171
0
ARC
8
DEFAULT_255_2_778
10
15.6717022
20
3.132292
40
0.3203538
50
248.1494496
51
254.6145658
0
ARC
8
DEFAULT_255_2_778
10
15.6165992
20
2.9932028
40
0.1707496
50
242.6069611
51
247.9404599
0
ARC
8
DEFAULT_255_2_778
10
15.5778209
20
2.9235256
40
0.0910745
50
196.1459126
51
244.099489
0
ARC
8
DEFAULT_255_2_778
10
15.6860857
20
2.9609545
40
0.2055605
50
191.0034032
51
197.7755257
0
ARC
8
DEFAULT_255_2_778
10
15.8046506
20
2.9866501
40
0.3268604
50
190.6010467
51
191.4579436
0
ARC
8
DEFAULT_255_2_778
10
16.0473195
20
3.0269227
40
0.5728188
50
183.9400373
51
190.0950824
0
ARC
8
DEFAULT_255_2_778
10
16.7553494
20
3.0804332
40
1.282861
50
180.2579215
51
184.1514502
0
ARC
8
DEFAULT_255_2_778
10
17.3459081
20
3.089974
40
1.8734693
50
179.9961716
51
180.4684009
0
ARC
8
DEFAULT_255_2_778
10
16.2668211
20
3.0924068
40
0.7943858
50
174.1260557
51
180.1664378
0
ARC
8
DEFAULT_255_2_778
10
15.7888994
20
3.1592587
40
0.312627
50
144.6223111
51
177.3515681
0
ARC
8
DEFAULT_255_2_778
10
15.6316257
20
3.2575492
40
0.1279531
50
124.182006
51
139.7290779
0
ARC
8
DEFAULT_255_2_778
10
15.6477524
20
3.2283643
40
0.1611858
50
112.3107159
51
123.0957001
0
ARC
8
DEFAULT_255_2_778
10
15.7085083
20
3.087027
40
0.3150174
50
107.2303715
51
112.7748559
0
ARC
8
DEFAULT_255_2_778
10
15.7994251
20
2.7816336
40
0.6336463
50
99.5077141
51
106.9025578
0
ARC
8
DEFAULT_255_2_778
10
15.9190152
20
2.098678
40
1.3269844
50
95.0946077
51
99.7294931
0
ARC
8
DEFAULT_255_2_778
10
16.017035
20
1.0385877
40
2.3915936
50
91.9061274
51
95.1783613
0
ARC
8
DEFAULT_255_2_778
10
16.0673675
20
-0.3294378
40
3.7605393
50
89.9379713
51
91.9792806
0
ARC
8
DEFAULT_255_2_778
10
16.078383
20
-1.2692306
40
4.700335
50
87.8532311
51
90.0846489
0
ARC
8
DEFAULT_255_2_778
10
16.1541311
20
0.6717384
40
2.7578924
50
84.6563867
51
87.915294
0
ARC
8
DEFAULT_255_2_778
10
16.2832911
20
2.0193892
40
1.4040732
50
79.7681799
51
84.7826446
0
ARC
8
DEFAULT_255_2_778
10
16.4263033
20
2.7998248
40
0.6106491
50
72.3107519
51
79.9659795
0
ARC
8
DEFAULT_255_2_778
10
16.5190857
20
3.0982493
40
0.298151
50
66.8521981
51
71.8721943
0
ARC
8
DEFAULT_255_2_778
10
16.5469376
20
3.1654216
40
0.2254392
50
65.8310797
51
66.6498758
0
ARC
8
DEFAULT_255_2_778
10
16.5786243
20
3.2150038
40
0.1674512
50
353.6210192
51
68.7780115
0
ARC
8
DEFAULT_255_2_778
10
16.2728367
20
3.1840935
40
1.0003775
50
359.2958385
51
14.280551
0
ARC
8
DEFAULT_255_2_778
10
16.7109786
20
3.3045009
40
0.5461414
50
13.3772115
51
49.7855824
0
ARC
8
DEFAULT_255_2_778
10
16.7494896
20
3.3369312
40
0.4965841
50
50.7628564
51
54.7573511
0
ARC
8
DEFAULT_255_2_778
10
16.6736246
20
3.2083278
40
0.6455099
50
55.8446675
51
73.3682589
0
ARC
8
DEFAULT_255_2_778
10
16.456545
20
2.5213558
40
1.3659216
50
72.8911803
51
82.3855333
0
ARC
8
DEFAULT_255_2_778
10
16.2817004
20
1.2915719
40
2.60805
50
82.1581936
51
87.7761582
0
ARC
8
DEFAULT_255_2_778
10
16.2099141
20
-0.2062751
40
4.1075769
50
87.5863101
51
90.0652167
0
ARC
8
DEFAULT_255_2_778
10
16.1923332
20
-1.9053024
40
5.8066159
50
89.8726573
51
92.9777783
0
ARC
8
DEFAULT_255_2_778
10
16.0600596
20
0.5631473
40
3.3346301
50
92.9114147
51
97.4441007
0
ARC
8
DEFAULT_255_2_778
10
15.8505453
20
2.1305225
40
1.7533269
50
97.2911298
51
104.5262162
0
ARC
8
DEFAULT_255_2_778
10
15.6078444
20
3.0439436
40
0.8082512
50
104.1125404
51
117.3877616
0
ARC
8
DEFAULT_255_2_778
10
15.453559
20
3.3568087
40
0.4595333
50
118.2517286
51
124.7026483
0
ARC
8
DEFAULT_255_2_778
10
15.5057921
20
3.3015024
40
0.5348615
50
125.9298157
51
162.201491
0
ARC
8
DEFAULT_255_2_778
10
15.9435321
20
3.1442912
40
0.999831
50
161.2913009
51
176.2575595
0
ARC
8
DEFAULT_255_2_778
10
16.4823818
20
3.091915
40
1.5410451
50
175.6220304
51
180.0898166
0
ARC
8
DEFAULT_255_2_778
10
16.611743
20
3.0764063
40
1.6704557
50
179.5509148
51
187.4170131
0
ARC
8
DEFAULT_255_2_778
10
15.7214916
20
2.9546546
40
0.7719579
50
186.9857521
51
202.0300331
0
ARC
8
DEFAULT_255_2_778
10
15.4817038
20
2.8675979
40
0.5171061
50
203.0541317
51
204.3610599
0
ARC
8
DEFAULT_255_2_778
10
15.5228576
20
2.8928566
40
0.5650467
50
204.9729664
51
240.9908704
0
ARC
8
DEFAULT_255_2_778
10
15.3570792
20
2.5869569
40
0.2171565
50
240.1028498
51
248.431898
0
ARC
8
DEFAULT_255_2_778
10
15.3945432
20
2.6782885
40
0.3158679
50
248.2021186
51
251.5447531
0
ARC
8
DEFAULT_255_2_778
10
15.4802398
20
2.9555943
40
0.6060755
50
252.1588406
51
259.9545907
0
ARC
8
DEFAULT_255_2_778
10
15.6487318
20
3.8593824
40
1.5254205
50
259.6442466
51
263.7858402
0
ARC
8
DEFAULT_255_2_778
10
15.83004
20
5.4529838
40
3.1292937
50
263.6440624
51
265.9546167
0
ARC
8
DEFAULT_255_2_778
10
15.9931966
20
7.6875077
40
5.3697629
50
265.9000706
51
267.3301556
0
ARC
8
DEFAULT_255_2_778
10
16.1369971
20
10.7334122
40
8.4190597
50
267.3181511
51
268.4334656
0
ARC
8
DEFAULT_255_2_778
10
16.1440991
20
-0.5812284
40
2.8874826
50
84.6663014
51
87.1565572
0
ARC
8
DEFAULT_255_2_778
10
16.2474081
20
0.5059585
40
1.7954006
50
81.1856494
51
84.7237738
0
ARC
8
DEFAULT_255_2_778
10
16.3728962
20
1.3021706
40
0.989365
50
76.0092965
51
81.3014627
0
ARC
8
DEFAULT_255_2_778
10
16.4686348
20
1.6955582
40
0.5845051
50
72.4744347
51
75.7927922
0
ARC
8
DEFAULT_255_2_778
10
16.5465657
20
1.934074
40
0.3336024
50
64.3265952
51
72.9019178
0
ARC
8
DEFAULT_255_2_778
10
16.633486
20
2.1116668
40
0.1358916
50
50.1085826
51
64.9164224
0
ARC
8
DEFAULT_255_2_778
10
16.6676382
20
2.1555147
40
0.0803688
50
48.1694004
51
48.7414442
0
ARC
8
DEFAULT_255_2_778
10
16.6629124
20
2.1445318
40
0.0917831
50
38.1037862
51
50.5444755
0
ARC
8
DEFAULT_255_2_778
10
16.5649257
20
2.0757525
40
0.2114263
50
15.0475067
51
36.3842255
0
ARC
8
DEFAULT_255_2_778
10
16.2410854
20
1.9784297
40
0.5495186
50
4.894633
51
16.0808621
0
ARC
8
DEFAULT_255_2_778
10
15.754469
20
1.9282436
40
1.0386771
50
359.7824174
51
5.3625921
0
ARC
8
DEFAULT_255_2_778
10
16.0630305
20
1.912561
40
0.7302025
50
347.9325259
51
0.9210869
0
ARC
8
DEFAULT_255_2_778
10
16.5325196
20
1.8044045
40
0.2485934
50
317.2216488
51
349.6875543
0
ARC
8
DEFAULT_255_2_778
10
16.6119621
20
1.7415402
40
0.1477951
50
308.1402692
51
314.1913765
0
ARC
8
DEFAULT_255_2_778
10
16.6172965
20
1.7391998
40
0.1426864
50
294.6465938
51
307.0358834
0
ARC
8
DEFAULT_255_2_778
10
16.5471899
20
1.8866074
40
0.3059088
50
287.6296401
51
295.0676153
0
ARC
8
DEFAULT_255_2_778
10
16.4439294
20
2.2173235
40
0.6523686
50
280.0897713
51
287.4758638
0
ARC
8
DEFAULT_255_2_778
10
16.3162941
20
2.9053605
40
1.352135
50
275.6813935
51
280.3068734
0
ARC
8
DEFAULT_255_2_778
10
16.2074844
20
3.9623385
40
2.4146955
50
272.5428043
51
275.7677151
0
ARC
8
DEFAULT_255_2_778
10
16.138295
20
5.4519921
40
3.9059531
50
270.2163834
51
272.5872754
0
ARC
8
DEFAULT_255_2_778
10
16.1270576
20
6.5415192
40
4.9955199
50
269.9986359
51
270.2980761
0
ARC
8
DEFAULT_255_2_778
10
16.1202858
20
4.9968421
40
3.4508493
50
267.1402149
51
270.11046
0
ARC
8
DEFAULT_255_2_778
10
16.0477859
20
3.6011335
40
2.0532636
50
262.9196805
51
267.2176502
0
ARC
8
DEFAULT_255_2_778
10
15.9241922
20
2.6292672
40
1.0735779
50
256.5501177
51
263.0722289
0
ARC
8
DEFAULT_255_2_778
10
15.7877882
20
2.0662012
40
0.4942308
50
247.2304072
51
256.7468323
0
ARC
8
DEFAULT_255_2_778
10
15.6971464
20
1.844995
40
0.2551909
50
240.1348103
51
246.7735752
0
ARC
8
DEFAULT_255_2_778
10
15.666904
20
1.7906008
40
0.1929627
50
238.4851536
51
239.879445
0
ARC
8
DEFAULT_255_2_778
10
15.695361
20
1.8258237
40
0.2379372
50
186.5041618
51
237.0767934
0
ARC
8
DEFAULT_255_2_778
10
16.0021938
20
1.8926473
40
0.551273
50
179.5372875
51
189.7941036
0
ARC
8
DEFAULT_255_2_778
10
16.1374561
20
1.8768294
40
1.2162793
50
179.421989
51
192.2366635
0
ARC
8
DEFAULT_255_2_778
10
15.6100574
20
1.7562235
40
0.6753278
50
191.7205269
51
216.0146901
0
ARC
8
DEFAULT_255_2_778
10
15.4722584
20
1.6662439
40
0.5110259
50
216.9389648
51
234.4634359
0
ARC
8
DEFAULT_255_2_778
10
15.5447701
20
1.7925484
40
0.6561091
50
235.721475
51
252.6581259
0
ARC
8
DEFAULT_255_2_778
10
15.781341
20
2.5069932
40
1.4086517
50
252.1350161
51
261.0857239
0
ARC
8
DEFAULT_255_2_778
10
15.9890297
20
3.7733281
40
2.6918885
50
260.8951588
51
266.4415972
0
ARC
8
DEFAULT_255_2_778
10
16.1217393
20
5.7941476
40
4.717054
50
266.3562111
51
270.1052783
0
ARC
8
DEFAULT_255_2_778
10
16.1357353
20
6.9927854
40
5.9156863
50
269.94839
51
270.000033
0
ARC
8
DEFAULT_255_2_778
10
16.5491203
20
2.2459328
40
1.151329
50
276.2738706
51
285.3009346
0
ARC
8
DEFAULT_255_2_778
10
16.7331535
20
1.5884522
40
0.4686069
50
284.8108676
51
301.6634385
0
ARC
8
DEFAULT_255_2_778
10
16.5414975
20
1.9192249
40
0.8508134
50
300.9560029
51
320.7748245
0
ARC
8
DEFAULT_255_2_778
10
16.7698963
20
1.7221119
40
0.5492942
50
321.6369008
51
334.0095205
0
ARC
8
DEFAULT_255_2_778
10
16.5888616
20
1.7925341
40
0.7430539
50
335.2459117
51
351.2734804
0
ARC
8
DEFAULT_255_2_778
10
15.8122999
20
1.9223651
40
1.5303597
50
350.8800134
51
359.4754734
0
ARC
8
DEFAULT_255_2_778
10
15.0465017
20
1.9480575
40
2.2964371
50
359.0093842
51
0.008525
0
ARC
8
DEFAULT_255_2_778
10
15.7126197
20
1.9611911
40
1.6303692
50
359.5504523
51
7.8646624
0
ARC
8
DEFAULT_255_2_778
10
16.5413704
20
2.0813196
40
0.7929958
50
7.4602157
51
23.0101346
0
ARC
8
DEFAULT_255_2_778
10
16.772306
20
2.1695489
40
0.5460214
50
23.9610793
51
26.1975108
0
ARC
8
DEFAULT_255_2_778
10
16.7564224
20
2.1568191
40
0.5659102
50
26.6440152
51
66.3497573
0
ARC
8
DEFAULT_255_2_778
10
19.1511915
20
1.9984643
40
0.5978911
50
338.2366738
51
356.1576941
0
ARC
8
DEFAULT_255_2_778
10
19.450005
20
1.8776796
40
0.2755957
50
307.3852228
51
338.5242859
0
ARC
8
DEFAULT_255_2_778
10
19.4818623
20
1.842396
40
0.2282507
50
299.0004688
51
306.4087792
0
ARC
8
DEFAULT_255_2_778
10
19.3990147
20
2.0022643
40
0.4082712
50
284.9498512
51
298.2921561
0
ARC
8
DEFAULT_255_2_778
10
19.2810736
20
2.424729
40
0.8468765
50
276.6611372
51
285.2857163
0
ARC
8
DEFAULT_255_2_778
10
19.195899
20
3.1064545
40
1.5338899
50
271.3334749
51
276.8673854
0
ARC
8
DEFAULT_255_2_778
10
19.1736476
20
3.7229969
40
2.1507977
50
269.9784515
51
271.5438606
0
ARC
8
DEFAULT_255_2_778
10
18.9846792
20
3.2268289
40
1.6546452
50
264.3602789
51
270.2479128
0
ARC
8
DEFAULT_255_2_778
10
18.9106363
20
2.504067
40
0.9281092
50
255.8876051
51
264.5242867
0
ARC
8
DEFAULT_255_2_778
10
18.7942768
20
2.0528074
40
0.4621063
50
242.5693609
51
256.2371829
0
ARC
8
DEFAULT_255_2_778
10
18.7016444
20
1.8684529
40
0.2558197
50
232.6030073
51
241.9624437
0
ARC
8
DEFAULT_255_2_778
10
18.6511858
20
1.8025253
40
0.1727986
50
221.8856439
51
232.6184469
0
ARC
8
DEFAULT_255_2_778
10
18.6454658
20
1.7960177
40
0.1641986
50
221.3683565
51
221.5276656
0
ARC
8
DEFAULT_255_2_778
10
18.6988737
20
1.8408108
40
0.2338897
50
211.660675
51
220.9565665
0
ARC
8
DEFAULT_255_2_778
10
18.7648176
20
1.883279
40
0.312314
50
208.6410811
51
211.9422126
0
ARC
8
DEFAULT_255_2_778
10
18.9109102
20
1.9570039
40
0.4758983
50
195.9926794
51
208.0003998
0
ARC
8
DEFAULT_255_2_778
10
19.2913927
20
2.0696718
40
0.8727036
50
187.8433405
51
196.2210725
0
ARC
8
DEFAULT_255_2_778
10
19.8832405
20
2.1542681
40
1.4705622
50
181.8238656
51
187.9617217
0
ARC
8
DEFAULT_255_2_778
10
20.4549761
20
2.1799018
40
2.0428376
50
179.969221
51
182.0320909
0
ARC
8
DEFAULT_255_2_778
10
18.0815507
20
2.8128046
40
2.2139216
50
359.6841249
51
7.7673773
0
ARC
8
DEFAULT_255_2_778
10
18.9775957
20
2.9394863
40
1.3089841
50
7.5740161
51
19.9369561
0
ARC
8
DEFAULT_255_2_778
10
19.5118682
20
3.139679
40
0.7384931
50
19.4702465
51
42.4111801
0
ARC
8
DEFAULT_255_2_778
10
19.6354278
20
3.239157
40
0.5802577
50
43.3875231
51
45.6655009
0
ARC
8
DEFAULT_255_2_778
10
19.5343668
20
3.1198702
40
0.7362897
50
46.5275134
51
70.3418662
0
ARC
8
DEFAULT_255_2_778
10
19.3347836
20
2.5916386
40
1.3009157
50
69.8904293
51
82.1540273
0
ARC
8
DEFAULT_255_2_778
10
19.1964166
20
1.6515863
40
2.2510735
50
81.9314516
51
89.4292139
0
ARC
8
DEFAULT_255_2_778
10
19.1727986
20
0.8829217
40
3.0199775
50
89.1264251
51
90.0049311
0
ARC
8
DEFAULT_255_2_778
10
18.9792457
20
1.4908749
40
2.4120572
50
89.7008656
51
96.8726154
0
ARC
8
DEFAULT_255_2_778
10
18.8516488
20
2.5085291
40
1.3864552
50
96.6699055
51
108.2473451
0
ARC
8
DEFAULT_255_2_778
10
18.6558916
20
3.0843725
40
0.7782936
50
107.8346921
51
129.5821373
0
ARC
8
DEFAULT_255_2_778
10
18.5597646
20
3.2152837
40
0.6162187
50
130.4495174
51
134.5799058
0
ARC
8
DEFAULT_255_2_778
10
18.6413481
20
3.1477823
40
0.7216415
50
135.4318749
51
160.0757618
0
ARC
8
DEFAULT_255_2_778
10
19.1405865
20
2.9561981
40
1.2563248
50
159.6202615
51
172.0594824
0
ARC
8
DEFAULT_255_2_778
10
20.0296394
20
2.8237355
40
2.1551686
50
171.8368457
51
179.4176593
0
ARC
8
DEFAULT_255_2_778
10
20.7535196
20
2.8011713
40
2.8792809
50
179.1150724
51
180.0054136
0
ARC
8
DEFAULT_255_2_778
10
20.1341738
20
2.1688365
40
2.2599723
50
179.671363
51
187.4022105
0
ARC
8
DEFAULT_255_2_778
10
19.1779317
20
2.039981
40
1.2951065
50
187.1993558
51
199.5630779
0
ARC
8
DEFAULT_255_2_778
10
18.6513744
20
1.8462983
40
0.734118
50
199.0801687
51
223.8128676
0
ARC
8
DEFAULT_255_2_778
10
18.5556275
20
1.7673851
40
0.610466
50
224.6896965
51
225.6435687
0
ARC
8
DEFAULT_255_2_778
10
18.6368816
20
1.8658676
40
0.7377661
50
226.4787675
51
250.5358633
0
ARC
8
DEFAULT_255_2_778
10
18.8354278
20
2.3963582
40
1.3041399
50
250.0775865
51
262.2893815
0
ARC
8
DEFAULT_255_2_778
10
18.9729035
20
3.3449781
40
2.2626456
50
262.0625803
51
269.4419698
0
ARC
8
DEFAULT_255_2_778
10
18.9963841
20
4.1236015
40
3.0415023
50
269.1425155
51
270.004796
0
ARC
8
DEFAULT_255_2_778
10
19.1896632
20
3.3796718
40
2.297604
50
269.7001421
51
277.5812441
0
ARC
8
DEFAULT_255_2_778
10
19.3167005
20
2.4601625
40
1.3693798
50
277.3881804
51
289.4087191
0
ARC
8
DEFAULT_255_2_778
10
19.5066167
20
1.9273233
40
0.8037134
50
289.2619552
51
306.9585194
0
ARC
8
DEFAULT_255_2_778
10
19.5403527
20
1.8516312
40
0.7231847
50
308.4284544
51
341.9723327
0
ARC
8
DEFAULT_255_2_778
10
19.0899839
20
2.012807
40
1.201404
50
341.3101399
51
355.8648078
0
ARC
8
DEFAULT_255_2_778
10
18.7140627
20
2.0562146
40
1.5795598
50
355.2776457
51
356.0861401
0
ARC
8
DEFAULT_255_2_778
10
19.8263132
20
2.8582663
40
1.409222
50
171.8250929
51
180.4702956
0
ARC
8
DEFAULT_255_2_778
10
19.0371665
20
2.9778091
40
0.6111262
50
156.5886336
51
172.3984106
0
ARC
8
DEFAULT_255_2_778
10
18.7156776
20
3.1154579
40
0.2614154
50
136.4411018
51
156.2773743
0
ARC
8
DEFAULT_255_2_778
10
18.6513086
20
3.178789
40
0.1711348
50
131.8391621
51
136.9557807
0
ARC
8
DEFAULT_255_2_778
10
18.7155635
20
3.096967
40
0.2750365
50
109.9322075
51
130.4417039
0
ARC
8
DEFAULT_255_2_778
10
18.8428015
20
2.7666363
40
0.6289947
50
99.004081
51
110.570184
0
ARC
8
DEFAULT_255_2_778
10
18.9512808
20
2.1257793
40
1.2789505
50
92.1950736
51
99.3107484
0
ARC
8
DEFAULT_255_2_778
10
18.9898477
20
1.3969938
40
2.0087064
50
89.9432097
51
92.498132
0
ARC
8
DEFAULT_255_2_778
10
19.179928
20
1.6946677
40
1.7110462
50
84.5448428
51
90.237393
0
ARC
8
DEFAULT_255_2_778
10
19.2540236
20
2.4411556
40
0.9608992
50
76.2837424
51
84.7114334
0
ARC
8
DEFAULT_255_2_778
10
19.3711025
20
2.9095124
40
0.4781454
50
63.4921241
51
76.605627
0
ARC
8
DEFAULT_255_2_778
10
19.4643419
20
3.1024307
40
0.2639068
50
53.910507
51
62.9132956
0
ARC
8
DEFAULT_255_2_778
10
19.515452
20
3.1724902
40
0.1771856
50
43.7084327
51
53.9213563
0
ARC
8
DEFAULT_255_2_778
10
19.5231953
20
3.1812578
40
0.1655329
50
43.2125484
51
43.3667123
0
ARC
8
DEFAULT_255_2_778
10
19.4079874
20
3.0805657
40
0.3184904
50
15.6569669
51
42.2235408
0
ARC
8
DEFAULT_255_2_778
10
18.9029939
20
2.9205652
40
0.8481129
50
4.2914124
51
16.8580366
0
ARC
8
DEFAULT_255_2_778
10
18.1984313
20
2.8507789
40
1.5560135
50
359.8387321
51
4.9125695
0
ARC
8
DEFAULT_255_2_778
10
24.5022253
20
2.0248948
40
1.4971193
50
355.9995641
51
0.1609052
0
ARC
8
DEFAULT_255_2_778
10
25.1103847
20
1.9811286
40
0.8873893
50
350.523346
51
356.0791026
0
ARC
8
DEFAULT_255_2_778
10
25.5156714
20
1.9123454
40
0.4763101
50
343.1048912
51
350.6575717
0
ARC
8
DEFAULT_255_2_778
10
25.7562429
20
1.8383392
40
0.2246162
50
333.0869417
51
343.3336836
0
ARC
8
DEFAULT_255_2_778
10
25.8853159
20
1.7715594
40
0.0793034
50
318.9689233
51
333.8989468
0
ARC
8
DEFAULT_255_2_778
10
25.8907491
20
1.7737444
40
0.0768165
50
298.9461979
51
315.0761974
0
ARC
8
DEFAULT_255_2_778
10
25.8416858
20
1.8571512
40
0.1735688
50
289.9830866
51
299.7933078
0
ARC
8
DEFAULT_255_2_778
10
25.7812938
20
2.0261675
40
0.3530492
50
279.7665096
51
289.8201282
0
ARC
8
DEFAULT_255_2_778
10
25.7191262
20
2.3697183
40
0.7021731
50
273.2024625
51
280.0103977
0
ARC
8
DEFAULT_255_2_778
10
25.6900372
20
2.8090758
40
1.1424785
50
269.8947578
51
273.4280975
0
ARC
8
DEFAULT_255_2_778
10
25.6792182
20
2.5918024
40
0.9252442
50
261.8933517
51
270.540027
0
ARC
8
DEFAULT_255_2_778
10
25.5893461
20
1.9999282
40
0.3266575
50
245.9458318
51
262.8598867
0
ARC
8
DEFAULT_255_2_778
10
25.4928423
20
1.7832276
40
0.0894404
50
222.1562808
51
245.8153061
0
ARC
8
DEFAULT_255_2_778
10
25.5033042
20
1.7887238
40
0.1009278
50
206.8952293
51
220.4830037
0
ARC
8
DEFAULT_255_2_778
10
25.6117681
20
1.8463202
40
0.2237259
50
198.560053
51
207.4847121
0
ARC
8
DEFAULT_255_2_778
10
25.8192698
20
1.9153956
40
0.4424224
50
189.8012541
51
198.4869218
0
ARC
8
DEFAULT_255_2_778
10
26.2108603
20
1.9856962
40
0.8402687
50
183.8276589
51
189.9794706
0
ARC
8
DEFAULT_255_2_778
10
26.7663245
20
2.0260352
40
1.3971903
50
179.8538453
51
183.9576001
0
ARC
8
DEFAULT_255_2_778
10
27.2343716
20
2.0687096
40
2.5796647
50
179.7159345
51
186.3488711
0
ARC
8
DEFAULT_255_2_778
10
26.1244271
20
1.9406615
40
1.4623747
50
186.1716678
51
196.6724104
0
ARC
8
DEFAULT_255_2_778
10
25.4886448
20
1.7442604
40
0.7969936
50
196.2598266
51
215.6995854
0
ARC
8
DEFAULT_255_2_778
10
25.3207646
20
1.6350811
40
0.5970225
50
216.592212
51
220.9491494
0
ARC
8
DEFAULT_255_2_778
10
25.3734135
20
1.6938024
40
0.6753446
50
221.7845255
51
251.3888313
0
ARC
8
DEFAULT_255_2_778
10
25.5449159
20
2.1645089
40
1.1762347
50
250.789151
51
264.968809
0
ARC
8
DEFAULT_255_2_778
10
25.614425
20
2.7819967
40
1.7975024
50
264.4878445
51
270.1343136
0
ARC
8
DEFAULT_255_2_778
10
25.6314224
20
3.7235407
40
2.7390713
50
269.732589
51
275.9937364
0
ARC
8
DEFAULT_255_2_778
10
25.7609528
20
2.5338623
40
1.5423779
50
275.8229908
51
285.6364423
0
ARC
8
DEFAULT_255_2_778
10
25.9609307
20
1.8393184
40
0.8196554
50
285.2607242
51
302.646682
0
ARC
8
DEFAULT_255_2_778
10
26.1056079
20
1.6016246
40
0.5415047
50
303.3244506
51
316.122742
0
ARC
8
DEFAULT_255_2_778
10
26.0037508
20
1.6807644
40
0.6699161
50
317.2819395
51
340.2984848
0
ARC
8
DEFAULT_255_2_778
10
25.4605772
20
1.8869573
40
1.2508533
50
339.7942583
51
351.6430748
0
ARC
8
DEFAULT_255_2_778
10
24.4926017
20
2.0388429
40
2.2306462
50
351.396799
51
358.4467939
0
ARC
8
DEFAULT_255_2_778
10
23.551996
20
2.0794487
40
3.172043
50
358.1741254
51
0.0261999
0
ARC
8
DEFAULT_255_2_778
10
3.5301934
20
3.6870125
40
0.3698335
50
277.6832224
51
309.7540251
0
ARC
8
DEFAULT_255_2_778
10
3.5808898
20
3.6119443
40
0.2798472
50
311.6032194
51
333.8248832
0
ARC
8
DEFAULT_255_2_778
10
3.2361213
20
3.7700115
40
0.659065
50
334.713878
51
354.1011378
0
ARC
8
DEFAULT_255_2_778
10
2.7415942
20
3.8385993
40
1.1581533
50
353.240265
51
0.2226196
0
ARC
8
DEFAULT_255_2_778
10
3.0631951
20
3.8530861
40
0.8366032
50
359.3160172
51
12.5336779
0
ARC
8
DEFAULT_255_2_778
10
3.462216
20
3.9432919
40
0.4275181
50
12.337586
51
30.8779877
0
ARC
8
DEFAULT_255_2_778
10
3.6209595
20
3.9882448
40
0.2716117
50
39.9630444
51
78.6014697
0
ARC
8
DEFAULT_255_2_778
10
3.497887
20
3.4656381
40
0.8084201
50
77.3709233
51
86.069164
0
ARC
8
DEFAULT_255_2_778
10
3.3740298
20
1.9269829
40
2.3520159
50
85.6285413
51
89.8489386
0
ARC
8
DEFAULT_255_2_778
10
3.3514753
20
0.4722976
40
3.8068017
50
89.5671983
51
90.0035614
0
ARC
8
DEFAULT_255_2_778
10
0.882421
20
5.5356164
40
0.6190828
50
89.9983646
51
179.9275501
0
ARC
8
DEFAULT_255_2_778
10
0.8823785
20
0.4658394
40
0.6190402
50
180.0685122
51
269.9870608
0
ARC
8
DEFAULT_255_2_778
10
7.4621989
20
0.4658394
40
0.6190402
50
270.0129392
51
359.9314878
0
ARC
8
DEFAULT_255_2_778
10
7.4621347
20
5.5358952
40
0.6191041
50
0.0466469
51
89.9811264
0
ARC
8
DEFAULT_255_2_778
10
3.9980654
20
1.8476558
40
0.7012731
50
289.4531192
51
310.3103893
0
ARC
8
DEFAULT_255_2_778
10
3.7836764
20
2.4231275
40
1.3153347
50
278.4812022
51
289.9104145
0
ARC
8
DEFAULT_255_2_778
10
3.6285054
20
3.4032049
40
2.3075969
50
271.601271
51
278.7028633
0
ARC
8
DEFAULT_255_2_778
10
3.5879494
20
4.3215362
40
3.2267373
50
269.9749506
51
271.8654637
0
ARC
8
DEFAULT_255_2_778
10
3.5283057
20
2.0675512
40
2.8372763
50
84.1223772
51
90.2557984
0
ARC
8
DEFAULT_255_2_778
10
3.6577738
20
3.2847689
40
1.613205
50
75.0396842
51
84.2693947
0
ARC
8
DEFAULT_255_2_778
10
3.8606574
20
4.0226159
40
0.848011
50
59.3172208
51
75.413439
0
ARC
8
DEFAULT_255_2_778
10
4.0278131
20
4.3129884
40
0.513011
50
43.4349596
51
58.8238082
0
ARC
8
DEFAULT_255_2_778
10
4.0042887
20
4.2428935
40
0.5793275
50
20.1471792
51
46.871449
0
ARC
8
DEFAULT_255_2_778
10
3.5195
20
4.0524282
40
1.1001187
50
7.4895481
51
20.7635082
0
ARC
8
DEFAULT_255_2_778
10
2.6324759
20
3.9265708
40
1.9960011
50
359.6448681
51
7.7526106
0
ARC
8
DEFAULT_255_2_778
10
2.8508483
20
3.9022643
40
1.7776305
50
351.6731184
51
0.3846845
0
ARC
8
DEFAULT_255_2_778
10
3.6466217
20
3.7805653
40
0.9726353
50
337.4308379
51
351.977779
0
ARC
8
DEFAULT_255_2_778
10
4.0003286
20
3.6376862
40
0.5911919
50
322.769227
51
337.0610795
0
ARC
8
DEFAULT_255_2_778
10
4.0344624
20
3.6624973
40
0.580434
50
291.1087865
51
318.7773921
0
ARC
8
DEFAULT_255_2_778
10
3.8739286
20
4.0304263
40
0.9816405
50
282.4309092
51
292.1160103
0
ARC
8
DEFAULT_255_2_778
10
3.9948358
20
2.1255352
40
0.9305657
50
69.0544154
51
84.4250212
0
ARC
8
DEFAULT_255_2_778
10
4.1410257
20
2.5041218
40
0.5247371
50
45.0049707
51
69.1845791
0
ARC
8
DEFAULT_255_2_778
10
4.0704479
20
2.4259319
40
0.6299551
50
11.9992795
51
45.4937069
0
ARC
8
DEFAULT_255_2_778
10
2.8702328
20
2.2076408
40
1.8496789
50
1.8569245
51
10.8839946
0
ARC
8
DEFAULT_255_2_778
10
1.9765803
20
2.1602617
40
2.7444589
50
359.9632045
51
2.2409884
0
ARC
8
DEFAULT_255_2_778
10
2.5443141
20
2.1460789
40
2.1767601
50
352.4105205
51
0.3269241
0
ARC
8
DEFAULT_255_2_778
10
3.4586959
20
2.0197647
40
1.2537134
50
340.2653427
51
352.6134888
0
ARC
8
DEFAULT_255_2_778
10
3.9844794
20
1.8246082
40
0.6929408
50
317.0508881
51
340.7743426
0
ARC
8
DEFAULT_255_2_778
10
4.1034606
20
1.7265977
40
0.5391528
50
310.2665051
51
316.0595441
0
ARC
8
DEFAULT_255_2_778
10
3.4422065
20
3.7171719
40
1.9981937
50
269.7371233
51
275.383208
0
ARC
8
DEFAULT_255_2_778
10
3.5314105
20
2.774435
40
1.0512459
50
275.3632467
51
281.8251989
0
ARC
8
DEFAULT_255_2_778
10
3.6285812
20
2.0623528
40
0.3382026
50
290.4667983
51
346.9652537
0
ARC
8
DEFAULT_255_2_778
10
3.2005895
20
2.1944164
40
0.7856096
50
344.621251
51
0.0256779
0
ARC
8
DEFAULT_255_2_778
10
2.8070206
20
2.2129269
40
1.1793182
50
359.117763
51
0.0035156
0
ARC
8
DEFAULT_255_2_778
10
2.571287
20
2.225425
40
1.4151062
50
359.4968884
51
7.7696233
0
ARC
8
DEFAULT_255_2_778
10
3.3972206
20
2.3443886
40
0.5807054
50
7.156578
51
23.3967549
0
ARC
8
DEFAULT_255_2_778
10
3.6839533
20
2.4646191
40
0.2698284
50
24.1432846
51
40.3997398
0
ARC
8
DEFAULT_255_2_778
10
3.6640763
20
2.3851328
40
0.3398389
50
48.4598477
51
76.1249774
0
ARC
8
DEFAULT_255_2_778
10
3.5222542
20
1.8828019
40
0.861694
50
74.9797418
51
87.4447277
0
ARC
8
DEFAULT_255_2_778
10
3.4745522
20
1.238364
40
1.5077367
50
86.7255931
51
90.0803163
0
LINE
8
DEFAULT_255_2_778
10
9.7605387
20
3.6453992
11
9.7605387
21
4.9418992
0
LINE
8
DEFAULT_255_2_778
10
9.7605387
20
4.9418992
11
9.2348387
21
4.9418992
0
LINE
8
DEFAULT_255_2_778
10
9.2348387
20
4.9418992
11
9.2348387
21
1.1106992
0
LINE
8
DEFAULT_255_2_778
10
9.2348387
20
1.1106992
11
9.7454387
21
1.1106992
0
LINE
8
DEFAULT_255_2_778
10
9.7454387
20
1.1106992
11
9.7454387
21
1.3371992
0
LINE
8
DEFAULT_255_2_778
10
11.5912387
20
2.1742992
11
11.5912387
21
2.7997992
0
LINE
8
DEFAULT_255_2_778
10
11.0485387
20
2.7129992
11
11.0485387
21
2.2668992
0
LINE
8
DEFAULT_255_2_778
10
9.7603387
20
2.2766992
11
9.7603387
21
2.7034992
0
LINE
8
DEFAULT_255_2_778
10
12.1182387
20
3.2114992
11
12.1182387
21
3.0812992
0
LINE
8
DEFAULT_255_2_778
10
12.1182387
20
3.0812992
11
12.6421387
21
3.0812992
0
LINE
8
DEFAULT_255_2_778
10
12.6421387
20
3.0812992
11
12.6439387
21
3.1500992
0
LINE
8
DEFAULT_255_2_778
10
13.8568387
20
3.0032992
11
13.8568387
21
2.7217992
0
LINE
8
DEFAULT_255_2_778
10
13.8864387
20
1.2752992
11
13.8949387
21
1.1164992
0
LINE
8
DEFAULT_255_2_778
10
13.8949387
20
1.1164992
11
14.3849387
21
1.1164992
0
LINE
8
DEFAULT_255_2_778
10
14.3849387
20
1.1164992
11
14.3849387
21
3.0135992
0
LINE
8
DEFAULT_255_2_778
10
13.8571387
20
2.1272992
11
13.8571387
21
1.8520992
0
LINE
8
DEFAULT_255_2_778
10
16.6971387
20
2.7399992
11
16.1785387
21
2.7738992
0
LINE
8
DEFAULT_255_2_778
10
16.1785387
20
2.7738992
11
16.0208387
21
2.7791992
0
LINE
8
DEFAULT_255_2_778
10
16.7450387
20
3.1963992
11
16.7450387
21
3.1011992
0
LINE
8
DEFAULT_255_2_778
10
16.7450387
20
3.1011992
11
17.2731387
21
3.1011992
0
LINE
8
DEFAULT_255_2_778
10
17.2731387
20
3.1011992
11
17.2731387
21
3.1717992
0
LINE
8
DEFAULT_255_2_778
10
15.9068387
20
2.3174992
11
16.2873387
21
2.3026992
0
LINE
8
DEFAULT_255_2_778
10
15.4509387
20
1.8970992
11
15.4509387
21
2.0293992
0
LINE
8
DEFAULT_255_2_778
10
15.4509387
20
2.0293992
11
14.9212387
21
2.0293992
0
LINE
8
DEFAULT_255_2_778
10
14.9212387
20
2.0293992
11
14.9212387
21
1.8890992
0
LINE
8
DEFAULT_255_2_778
10
16.1357387
20
1.0770992
11
16.6749387
21
1.1014992
0
LINE
8
DEFAULT_255_2_778
10
19.7530387
20
2.0226992
11
19.7477387
21
1.9583992
0
LINE
8
DEFAULT_255_2_778
10
19.1728387
20
1.5721992
11
18.9918387
21
1.5721992
0
LINE
8
DEFAULT_255_2_778
10
18.4121387
20
2.1809992
11
18.4137387
21
2.3145992
0
LINE
8
DEFAULT_255_2_778
10
18.4137387
20
2.3145992
11
18.4137387
21
2.3338992
0
LINE
8
DEFAULT_255_2_778
10
18.4137387
20
2.3338992
11
20.2954387
21
2.3364992
0
LINE
8
DEFAULT_255_2_778
10
20.2954387
20
2.3364992
11
20.2954387
21
2.8005992
0
LINE
8
DEFAULT_255_2_778
10
19.1725387
20
3.9028992
11
18.9918387
21
3.9028992
0
LINE
8
DEFAULT_255_2_778
10
17.8742387
20
2.8008992
11
17.8742387
21
2.1817992
0
LINE
8
DEFAULT_255_2_778
10
18.9966387
20
1.0820992
11
19.1776387
21
1.0820992
0
LINE
8
DEFAULT_255_2_778
10
20.2899387
20
1.9483992
11
20.2952387
21
2.0240992
0
LINE
8
DEFAULT_255_2_778
10
20.2952387
20
2.0240992
11
19.7522387
21
2.0226992
0
LINE
8
DEFAULT_255_2_778
10
19.7522387
20
2.0226992
11
19.7530387
21
2.0226992
0
LINE
8
DEFAULT_255_2_778
10
19.7546387
20
2.8159992
11
18.4171387
21
2.8159992
0
LINE
8
DEFAULT_255_2_778
10
18.4171387
20
2.8159992
11
18.4171387
21
2.8466992
0
LINE
8
DEFAULT_255_2_778
10
18.9918387
20
3.4056992
11
19.1728387
21
3.4056992
0
LINE
8
DEFAULT_255_2_778
10
19.7544387
20
2.8463992
11
19.7546387
21
2.8159992
0
LINE
8
DEFAULT_255_2_778
10
23.0767387
20
3.9604992
11
22.2020387
21
3.9604992
0
LINE
8
DEFAULT_255_2_778
10
22.2020387
20
3.9604992
11
21.4718387
21
3.0905992
0
LINE
8
DEFAULT_255_2_778
10
21.4718387
20
3.0905992
11
21.4718387
21
5.0413992
0
LINE
8
DEFAULT_255_2_778
10
21.4718387
20
5.0413992
11
20.7574387
21
5.0413992
0
LINE
8
DEFAULT_255_2_778
10
20.7574387
20
5.0413992
11
20.7574387
21
1.0217992
0
LINE
8
DEFAULT_255_2_778
10
20.7574387
20
1.0217992
11
21.4718387
21
1.0217992
0
LINE
8
DEFAULT_255_2_778
10
21.4718387
20
1.0217992
11
21.4718387
21
2.1065992
0
LINE
8
DEFAULT_255_2_778
10
21.4718387
20
2.1065992
11
22.3449387
21
1.0217992
0
LINE
8
DEFAULT_255_2_778
10
22.3449387
20
1.0217992
11
23.2593387
21
1.0217992
0
LINE
8
DEFAULT_255_2_778
10
23.2593387
20
1.0217992
11
21.9456387
21
2.6317992
0
LINE
8
DEFAULT_255_2_778
10
21.9456387
20
2.6317992
11
23.0767387
21
3.9604992
0
LINE
8
DEFAULT_255_2_778
10
23.3096387
20
5.0413992
11
24.0239387
21
5.0413992
0
LINE
8
DEFAULT_255_2_778
10
24.0239387
20
5.0413992
11
24.0239387
21
4.2756992
0
LINE
8
DEFAULT_255_2_778
10
24.0239387
20
4.2756992
11
23.3096387
21
4.2756992
0
LINE
8
DEFAULT_255_2_778
10
23.3096387
20
4.2756992
11
23.3096387
21
5.0413992
0
LINE
8
DEFAULT_255_2_778
10
23.3096387
20
3.9604992
11
24.0239387
21
3.9604992
0
LINE
8
DEFAULT_255_2_778
10
24.0239387
20
3.9604992
11
24.0239387
21
1.0217992
0
LINE
8
DEFAULT_255_2_778
10
24.0239387
20
1.0217992
11
23.3096387
21
1.0217992
0
LINE
8
DEFAULT_255_2_778
10
23.3096387
20
1.0217992
11
23.3096387
21
3.9604992
0
LINE
8
DEFAULT_255_2_778
10
25.9993387
20
2.2706992
11
25.9993387
21
2.0290992
0
LINE
8
DEFAULT_255_2_778
10
25.3691387
20
2.0295992
11
25.3691387
21
3.2995992
0
LINE
8
DEFAULT_255_2_778
10
25.3691387
20
3.2995992
11
26.6491387
21
3.2995992
0
LINE
8
DEFAULT_255_2_778
10
26.6491387
20
3.2995992
11
26.6491387
21
3.9610992
0
LINE
8
DEFAULT_255_2_778
10
26.6491387
20
3.9610992
11
25.3691387
21
3.9610992
0
LINE
8
DEFAULT_255_2_778
10
25.3691387
20
3.9610992
11
25.3691387
21
4.5484992
0
LINE
8
DEFAULT_255_2_778
10
25.3691387
20
4.5484992
11
24.6547387
21
4.5484992
0
LINE
8
DEFAULT_255_2_778
10
24.6547387
20
4.5484992
11
24.6547387
21
3.9610992
0
LINE
8
DEFAULT_255_2_778
10
24.6547387
20
3.9610992
11
24.3372387
21
3.9610992
0
LINE
8
DEFAULT_255_2_778
10
24.3372387
20
3.9610992
11
24.3372387
21
3.2995992
0
LINE
8
DEFAULT_255_2_778
10
24.3372387
20
3.2995992
11
24.6547387
21
3.2995992
0
LINE
8
DEFAULT_255_2_778
10
24.6547387
20
3.2995992
11
24.6547387
21
2.0814992
0
LINE
8
DEFAULT_255_2_778
10
26.7240387
20
2.0808992
11
26.7240387
21
2.2674992
0
LINE
8
DEFAULT_255_2_778
10
26.7240387
20
2.2674992
11
25.9993387
21
2.2706992
0
LINE
8
DEFAULT_255_2_778
10
3.3512387
20
4.2790992
11
2.3405387
21
4.2790992
0
LINE
8
DEFAULT_255_2_778
10
2.3405387
20
4.2790992
11
2.3405387
21
3.3098992
0
LINE
8
DEFAULT_255_2_778
10
2.3405387
20
3.3098992
11
3.3417387
21
3.3098992
0
LINE
8
DEFAULT_255_2_778
10
3.3417387
20
3.3098992
11
3.5799387
21
3.3199992
0
LINE
8
DEFAULT_255_2_778
10
3.5799387
20
3.3199992
11
3.5796387
21
3.3204992
0
LINE
8
DEFAULT_255_2_778
10
7.4600387
20
6.1546992
11
0.8824387
21
6.1546992
0
LINE
8
DEFAULT_255_2_778
10
0.2633387
20
5.5363992
11
0.2633387
21
0.4650992
0
LINE
8
DEFAULT_255_2_778
10
0.8822387
20
-0.1532008
11
7.4623387
21
-0.1532008
0
LINE
8
DEFAULT_255_2_778
10
8.0812387
20
0.4650992
11
8.0812387
21
5.5363992
0
LINE
8
DEFAULT_255_2_778
10
7.4623387
20
6.1549992
11
7.4600387
21
6.1546992
0
LINE
8
DEFAULT_255_2_778
10
3.5865387
20
1.0947992
11
1.6053387
21
1.0947992
0
LINE
8
DEFAULT_255_2_778
10
1.6053387
20
1.0947992
11
1.6053387
21
4.9047992
0
LINE
8
DEFAULT_255_2_778
10
1.6053387
20
4.9047992
11
3.5156387
21
4.9047992
0
LINE
8
DEFAULT_255_2_778
10
4.0852387
20
3.0717992
11
4.0852387
21
3.0516992
0
LINE
8
DEFAULT_255_2_778
10
4.4519387
20
1.3151992
11
4.4517387
21
1.3128992
0
LINE
8
DEFAULT_255_2_778
10
6.3831387
20
1.0947992
11
4.7205387
21
3.0431992
0
LINE
8
DEFAULT_255_2_778
10
4.7205387
20
3.0431992
11
6.2516387
21
4.9016992
0
LINE
8
DEFAULT_255_2_778
10
6.2516387
20
4.9016992
11
7.1448387
21
4.9016992
0
LINE
8
DEFAULT_255_2_778
10
7.1448387
20
4.9016992
11
5.6055387
21
3.0389992
0
LINE
8
DEFAULT_255_2_778
10
5.6055387
20
3.0389992
11
7.3028387
21
1.0942992
0
LINE
8
DEFAULT_255_2_778
10
7.3028387
20
1.0942992
11
6.3834387
21
1.0945992
0
LINE
8
DEFAULT_255_2_778
10
6.3834387
20
1.0945992
11
6.3831387
21
1.0947992
0
LINE
8
DEFAULT_255_2_778
10
3.4727387
20
2.7489992
11
2.3403387
21
2.7489992
0
LINE
8
DEFAULT_255_2_778
10
2.3403387
20
2.7489992
11
2.3403387
21
1.7189992
0
LINE
8
DEFAULT_255_2_778
10
2.3403387
20
1.7189992
11
3.4330387
21
1.7189992
0
LINE
8
DEFAULT_255_2_778
10
3.4724387
20
2.7460992
11
3.4727387
21
2.7489992
0
ENDSEC
0
EOF