0
SECTION
2
HEADER
9
$MEASUREMENT
70
1
0
ENDSEC
0
SECTION
2
TABLES
0
TABLE
2
LTYPE
0
LTYPE
72
65
70
64
2
CONTINUOUS
3
______
73
0
40
0
0
ENDTAB
0
TABLE
2
LAYER
0
LAYER
2
DEFAULT_255_2_778
70
0
62
255
6
CONTINUOUS
0
ENDTAB
0
ENDSEC
0
SECTION
2
ENTITIES
0
ARC
8
DEFAULT_255_2_778
10
14.5723773
20
3.7873384
40
1.7167978
50
162.5931147
51
175.431734
0
ARC
8
DEFAULT_255_2_778
10
14.20111
20
3.9061977
40
1.3269775
50
146.9824581
51
162.6945588
0
ARC
8
DEFAULT_255_2_778
10
13.8988949
20
4.1065904
40
0.9643818
50
126.6733194
51
147.1817458
0
ARC
8
DEFAULT_255_2_778
10
13.7156369
20
4.3638284
40
0.648646
50
90.9984877
51
127.2610017
0
ARC
8
DEFAULT_255_2_778
10
13.802338
20
0.5585242
40
0.5656145
50
0.6991477
51
5.0767876
0
ARC
8
DEFAULT_255_2_778
10
13.838693
20
0.5594092
40
0.5292517
50
0.003122
51
0.6513718
0
ARC
8
DEFAULT_255_2_778
10
13.9753925
20
0.5494946
40
0.3926781
50
325.0437052
51
1.4510111
0
ARC
8
DEFAULT_255_2_778
10
13.9108611
20
0.6233807
40
0.4884701
50
287.1696939
51
322.2764329
0
ARC
8
DEFAULT_255_2_778
10
13.7154987
20
1.1806233
40
1.0787781
50
272.0811909
51
288.3465467
0
ARC
8
DEFAULT_255_2_778
10
13.6743128
20
1.6912542
40
1.5907285
50
269.9700627
51
272.8957726
0
ARC
8
DEFAULT_255_2_778
10
13.6735475
20
1.8202868
40
1.7197609
50
269.5630898
51
269.9978042
0
ARC
8
DEFAULT_255_2_778
10
15.0958513
20
-10.775859
40
10.9437328
50
83.6948415
51
84.3946379
0
ARC
8
DEFAULT_255_2_778
10
19.3984989
20
32.3353708
40
32.3816941
50
264.2359729
51
264.2687646
0
ARC
8
DEFAULT_255_2_778
10
16.3792613
20
2.8469851
40
2.7395041
50
259.6368895
51
265.122897
0
ARC
8
DEFAULT_255_2_778
10
15.9854036
20
0.7413836
40
0.5974636
50
239.9282562
51
260.467878
0
ARC
8
DEFAULT_255_2_778
10
15.8397006
20
0.4739262
40
0.293104
50
189.7640602
51
238.3784123
0
ARC
8
DEFAULT_255_2_778
10
16.0618979
20
0.5251446
40
0.5209261
50
179.525784
51
191.171361
0
ARC
8
DEFAULT_255_2_778
10
16.2290758
20
0.5294121
40
0.688086
50
179.3535076
51
179.9963386
0
ARC
8
DEFAULT_255_2_778
10
16.1567376
20
4.2727715
40
0.7377061
50
78.4298277
51
89.8760472
0
ARC
8
DEFAULT_255_2_778
10
16.1472898
20
4.2197692
40
0.7915275
50
74.8430717
51
78.5293428
0
ARC
8
DEFAULT_255_2_778
10
16.1269473
20
4.1579948
40
0.8564788
50
49.6506617
51
74.6100565
0
ARC
8
DEFAULT_255_2_778
10
16.0723222
20
4.0933432
40
0.9411174
50
29.1673338
51
49.6645461
0
ARC
8
DEFAULT_255_2_778
10
15.9233868
20
4.0106096
40
1.1114889
50
13.6584108
51
29.1496797
0
ARC
8
DEFAULT_255_2_778
10
15.6312038
20
3.939037
40
1.41231
50
1.5686792
51
13.6809124
0
ARC
8
DEFAULT_255_2_778
10
15.3832153
20
3.9246044
40
1.6606183
50
359.9921139
51
1.8322247
0
ARC
8
DEFAULT_255_2_778
10
11.1501466
20
4.4710951
40
0.3883338
50
179.9996861
51
180.5930227
0
ARC
8
DEFAULT_255_2_778
10
11.1755107
20
4.4703966
40
0.4136985
50
170.0286154
51
179.9029621
0
ARC
8
DEFAULT_255_2_778
10
11.2027193
20
4.4692745
40
0.4407053
50
114.3274515
51
170.4974609
0
ARC
8
DEFAULT_255_2_778
10
11.1884353
20
4.4769092
40
0.4279779
50
89.5852125
51
113.0059035
0
ARC
8
DEFAULT_255_2_778
10
11.1972815
20
4.3565817
40
0.5483243
50
71.8840291
51
90.6006298
0
ARC
8
DEFAULT_255_2_778
10
11.2322647
20
4.4693765
40
0.430247
50
36.670882
51
71.6411885
0
ARC
8
DEFAULT_255_2_778
10
11.1309053
20
4.4021937
40
0.5517081
50
6.7778818
51
35.9804918
0
ARC
8
DEFAULT_255_2_778
10
11.0468095
20
4.3841785
40
0.6373922
50
0.0060537
51
7.4938186
0
ARC
8
DEFAULT_255_2_778
10
11.0989444
20
4.3821225
40
0.585261
50
346.1877446
51
0.2078676
0
ARC
8
DEFAULT_255_2_778
10
11.2420567
20
4.347041
40
0.4379118
50
334.5377913
51
346.1747055
0
ARC
8
DEFAULT_255_2_778
10
10.3543654
20
4.7737298
40
1.4228255
50
329.667464
51
334.3923487
0
ARC
8
DEFAULT_255_2_778
10
10.4779446
20
4.7013774
40
1.279624
50
324.7113123
51
329.669179
0
ARC
8
DEFAULT_255_2_778
10
10.5614818
20
4.6429599
40
1.1776891
50
321.7112244
51
324.6833016
0
ARC
8
DEFAULT_255_2_778
10
10.6701092
20
4.5540588
40
1.0373455
50
312.6837898
51
321.8476486
0
ARC
8
DEFAULT_255_2_778
10
10.8176733
20
4.3930505
40
0.8189462
50
303.7508773
51
312.7314054
0
ARC
8
DEFAULT_255_2_778
10
10.9722955
20
4.1586518
40
0.53815
50
294.6538789
51
303.9282027
0
ARC
8
DEFAULT_255_2_778
10
11.1169156
20
3.8345368
40
0.1832924
50
281.2483133
51
295.8301681
0
ARC
8
DEFAULT_255_2_778
10
11.1475362
20
3.6890819
40
0.0346985
50
270.6354388
51
278.5066914
0
ARC
8
DEFAULT_255_2_778
10
11.1472128
20
3.6625565
40
0.0082016
50
241.1289038
51
274.9534502
0
ARC
8
DEFAULT_255_2_778
10
11.1444537
20
3.6570578
40
0.0020682
50
208.3467414
51
234.498552
0
ARC
8
DEFAULT_255_2_778
10
-1.8196905
20
-4.351238
40
15.2361058
50
31.7051809
51
32.4366816
0
ARC
8
DEFAULT_255_2_778
10
15.9844694
20
6.9618163
40
5.8582847
50
210.5327565
51
212.4217833
0
ARC
8
DEFAULT_255_2_778
10
12.4791995
20
4.914308
40
1.7989442
50
202.0004164
51
211.0801642
0
ARC
8
DEFAULT_255_2_778
10
11.4476864
20
4.5004019
40
0.6874952
50
184.5033111
51
202.2214855
0
ARC
8
DEFAULT_255_2_778
10
11.2107361
20
4.4716005
40
0.4491286
50
180.6154911
51
183.2137199
0
ARC
8
DEFAULT_255_2_778
10
11.5647883
20
2.2167853
40
1.7446838
50
201.9451469
51
207.9936761
0
ARC
8
DEFAULT_255_2_778
10
11.2735556
20
2.0999107
40
1.430875
50
194.5954821
51
201.9624878
0
ARC
8
DEFAULT_255_2_778
10
11.0468691
20
2.0410629
40
1.1966746
50
185.6851281
51
194.6038464
0
ARC
8
DEFAULT_255_2_778
10
10.9237015
20
2.0272302
40
1.0727437
50
180.0288849
51
185.6016192
0
ARC
8
DEFAULT_255_2_778
10
10.8454016
20
2.0285927
40
0.9944455
50
160.4169894
51
180.1096636
0
ARC
8
DEFAULT_255_2_778
10
11.0270343
20
1.9446459
40
1.1938476
50
132.6687369
51
159.5428741
0
ARC
8
DEFAULT_255_2_778
10
11.2761143
20
1.7094252
40
1.535801
50
130.2628505
51
133.5537588
0
ARC
8
DEFAULT_255_2_778
10
12.0764725
20
3.7699386
40
2.0010432
50
206.3625595
51
206.5980648
0
ARC
8
DEFAULT_255_2_778
10
15.267919
20
5.3677953
40
5.5701433
50
206.5965391
51
206.9882043
0
ARC
8
DEFAULT_255_2_778
10
18.3476251
20
6.9353025
40
9.0258153
50
206.9832103
51
207.4749833
0
ARC
8
DEFAULT_255_2_778
10
20.5230501
20
8.0653687
40
11.477248
50
207.4697506
51
207.9835248
0
ARC
8
DEFAULT_255_2_778
10
21.735406
20
8.7087081
40
12.8497246
50
207.9802388
51
208.4763889
0
ARC
8
DEFAULT_255_2_778
10
22.3892852
20
9.06326
40
13.5935424
50
208.4759194
51
209.2020837
0
ARC
8
DEFAULT_255_2_778
10
22.4303678
20
9.0854623
40
13.640236
50
209.1992972
51
210.1023798
0
ARC
8
DEFAULT_255_2_778
10
21.7098307
20
8.6654801
40
12.8062368
50
210.0936261
51
211.5108601
0
ARC
8
DEFAULT_255_2_778
10
20.00438
20
7.6135307
40
10.8024594
50
211.4819064
51
213.8381596
0
ARC
8
DEFAULT_255_2_778
10
17.0403909
20
5.5976783
40
7.2180435
50
213.6484397
51
219.2038558
0
ARC
8
DEFAULT_255_2_778
10
14.8375555
20
3.8207965
40
4.3879553
50
219.405754
51
223.3240353
0
ARC
8
DEFAULT_255_2_778
10
14.1094439
20
3.1429966
40
3.3932166
50
223.4335416
51
225.0514646
0
ARC
8
DEFAULT_255_2_778
10
11.3421589
20
1.1661569
40
0.5633021
50
298.2984658
51
311.0694796
0
ARC
8
DEFAULT_255_2_778
10
11.2363696
20
1.3582416
40
0.7825844
50
287.3187473
51
298.4511773
0
ARC
8
DEFAULT_255_2_778
10
11.1891717
20
1.5053692
40
0.9370929
50
275.9527948
51
287.3957967
0
ARC
8
DEFAULT_255_2_778
10
11.1809767
20
1.5693345
40
1.0015645
50
269.9851759
51
276.0395782
0
ARC
8
DEFAULT_255_2_778
10
11.1812452
20
1.6020136
40
1.0342438
50
259.9276985
51
269.9707655
0
ARC
8
DEFAULT_255_2_778
10
11.188418
20
1.6417645
40
1.0746365
50
250.1545895
51
259.9218234
0
ARC
8
DEFAULT_255_2_778
10
11.2088563
20
1.698598
40
1.1350332
50
242.4384632
51
250.1581021
0
ARC
8
DEFAULT_255_2_778
10
11.2578692
20
1.7904146
40
1.2391087
50
233.0316444
51
242.3937466
0
ARC
8
DEFAULT_255_2_778
10
11.3609935
20
1.9277343
40
1.4108391
50
225.2712472
51
233.03926
0
ARC
8
DEFAULT_255_2_778
10
11.5242227
20
2.0925011
40
1.6427699
50
218.3274463
51
225.2708716
0
ARC
8
DEFAULT_255_2_778
10
11.7570755
20
2.2772078
40
1.9399851
50
212.5326861
51
218.3420303
0
ARC
8
DEFAULT_255_2_778
10
12.0499508
20
2.4648699
40
2.2878249
50
207.8080125
51
212.5505266
0
ARC
8
DEFAULT_255_2_778
10
6.7436008
20
1.1156526
40
1.4601209
50
92.2038956
51
94.8822049
0
ARC
8
DEFAULT_255_2_778
10
6.7388939
20
1.2329714
40
1.3427078
50
90.0127335
51
92.1957116
0
ARC
8
DEFAULT_255_2_778
10
6.7476313
20
1.5127315
40
1.0629862
50
74.9670812
51
90.4870411
0
ARC
8
DEFAULT_255_2_778
10
6.8162497
20
1.7684556
40
0.7982158
50
46.7969894
51
74.962914
0
ARC
8
DEFAULT_255_2_778
10
6.6070341
20
1.5979245
40
1.0663473
50
12.1485461
51
44.8751583
0
ARC
8
DEFAULT_255_2_778
10
5.8858164
20
1.3921552
40
1.815389
50
3.7907567
51
13.7073257
0
ARC
8
DEFAULT_255_2_778
10
5.5366683
20
1.3583931
40
2.1660313
50
0.1631831
51
4.071281
0
ARC
8
DEFAULT_255_2_778
10
5.5778367
20
1.3597707
40
2.1248596
50
0.0024667
51
0.1291981
0
ARC
8
DEFAULT_255_2_778
10
6.0168151
20
1.3450804
40
1.685946
50
345.1197449
51
0.5023555
0
ARC
8
DEFAULT_255_2_778
10
6.6403157
20
1.1710513
40
1.0386955
50
320.2078872
51
345.5653536
0
ARC
8
DEFAULT_255_2_778
10
6.8389238
20
1.0216527
40
0.7905708
50
284.0677125
51
319.3152395
0
ARC
8
DEFAULT_255_2_778
10
6.7765452
20
1.259543
40
1.0364922
50
269.6013469
51
284.2160898
0
ARC
8
DEFAULT_255_2_778
10
6.7542464
20
0.9873176
40
0.7643907
50
256.8316557
51
271.1309495
0
ARC
8
DEFAULT_255_2_778
10
6.6418936
20
0.5350616
40
0.2984992
50
188.9835558
51
258.0541879
0
ARC
8
DEFAULT_255_2_778
10
7.1766053
20
0.6694126
40
0.8490578
50
179.8647698
51
192.3059965
0
ARC
8
DEFAULT_255_2_778
10
7.7273986
20
0.6894541
40
1.3999649
50
179.9950154
51
180.7382349
0
ARC
8
DEFAULT_255_2_778
10
10.6541978
20
1.7509221
40
1.9665283
50
206.1484619
51
209.6826746
0
ARC
8
DEFAULT_255_2_778
10
10.811501
20
1.8401235
40
2.1473626
50
209.6720182
51
213.5601967
0
ARC
8
DEFAULT_255_2_778
10
10.8693344
20
1.8779161
40
2.2164476
50
213.5478338
51
217.5963138
0
ARC
8
DEFAULT_255_2_778
10
10.8100751
20
1.8289979
40
2.1396518
50
217.5265418
51
228.0626083
0
ARC
8
DEFAULT_255_2_778
10
10.6369175
20
1.6322764
40
1.877593
50
227.9812898
51
242.7114039
0
ARC
8
DEFAULT_255_2_778
10
10.5584495
20
1.4879942
40
1.7133965
50
242.8313106
51
257.8480515
0
ARC
8
DEFAULT_255_2_778
10
10.5695657
20
1.5511147
40
1.7774445
50
257.9260612
51
269.1285874
0
ARC
8
DEFAULT_255_2_778
10
10.5839288
20
2.3190472
40
2.545508
50
269.068212
51
269.9954925
0
ARC
8
DEFAULT_255_2_778
10
10.5952335
20
1.7779373
40
2.0044311
50
269.6711314
51
280.5488928
0
ARC
8
DEFAULT_255_2_778
10
10.6365763
20
1.5118289
40
1.7352703
50
280.815472
51
294.3660619
0
ARC
8
DEFAULT_255_2_778
10
10.5101578
20
1.7867402
40
2.0378515
50
294.4149672
51
303.1428324
0
ARC
8
DEFAULT_255_2_778
10
10.1770342
20
2.2985205
40
2.6484984
50
303.1238634
51
309.6960244
0
ARC
8
DEFAULT_255_2_778
10
9.6792715
20
2.9060699
40
3.4339056
50
309.6117614
51
313.475103
0
ARC
8
DEFAULT_255_2_778
10
9.9393134
20
-1.9884847
40
3.1927714
50
48.7604224
51
48.8101281
0
ARC
8
DEFAULT_255_2_778
10
9.8997017
20
-2.0339204
40
3.2530497
50
48.7149415
51
48.763333
0
ARC
8
DEFAULT_255_2_778
10
9.3013405
20
-2.7152945
40
4.1598611
50
48.6766388
51
48.7141737
0
ARC
8
DEFAULT_255_2_778
10
9.9562829
20
-1.9702975
40
3.1679084
50
48.6265079
51
48.6753914
0
ARC
8
DEFAULT_255_2_778
10
9.2557482
20
-2.7660234
40
4.2280634
50
48.5936229
51
48.6299462
0
ARC
8
DEFAULT_255_2_778
10
9.293054
20
-2.7236984
40
4.1716442
50
48.5569398
51
48.593447
0
ARC
8
DEFAULT_255_2_778
10
9.9814108
20
-1.9447555
40
3.1321313
50
48.5167485
51
48.564963
0
ARC
8
DEFAULT_255_2_778
10
9.3681931
20
-2.6390964
40
4.0584924
50
48.4874852
51
48.5243792
0
ARC
8
DEFAULT_255_2_778
10
171.8708908
20
179.5780106
40
240.0935401
50
228.269538
51
228.2975447
0
ARC
8
DEFAULT_255_2_778
10
14.3848311
20
2.8387158
40
3.3687276
50
228.3420596
51
230.5401805
0
ARC
8
DEFAULT_255_2_778
10
13.2623644
20
1.4522864
40
1.5850036
50
230.015883
51
241.9721377
0
ARC
8
DEFAULT_255_2_778
10
13.004152
20
0.9775782
40
1.0446465
50
242.2388753
51
260.5572611
0
ARC
8
DEFAULT_255_2_778
10
12.9901593
20
0.9209095
40
0.9864602
50
260.8189734
51
266.7092437
0
ARC
8
DEFAULT_255_2_778
10
12.9494793
20
0.2180756
40
0.2824502
50
266.7636417
51
269.8954392
0
ARC
8
DEFAULT_255_2_778
10
12.9497953
20
0.1549326
40
0.2193084
50
269.7827933
51
270.0726878
0
ARC
8
DEFAULT_255_2_778
10
12.9431305
20
0.4806506
40
0.5450708
50
270.7298415
51
280.4521081
0
ARC
8
DEFAULT_255_2_778
10
12.8868884
20
0.8072806
40
0.876493
50
280.19414
51
289.5070934
0
ARC
8
DEFAULT_255_2_778
10
12.827804
20
0.97864
40
1.0577472
50
289.424326
51
299.6760372
0
ARC
8
DEFAULT_255_2_778
10
12.775553
20
1.0715891
40
1.1643743
50
299.6454823
51
309.4066221
0
ARC
8
DEFAULT_255_2_778
10
12.718764
20
1.1420768
40
1.2548884
50
309.3669716
51
315.4264518
0
ARC
8
DEFAULT_255_2_778
10
12.6542671
20
1.2056384
40
1.3454418
50
315.4259135
51
320.9613179
0
ARC
8
DEFAULT_255_2_778
10
12.6080785
20
1.2441955
40
1.4056027
50
320.9264092
51
321.7178418
0
ARC
8
DEFAULT_255_2_778
10
12.0983864
20
1.6510454
40
2.0577562
50
321.6178036
51
328.2742243
0
ARC
8
DEFAULT_255_2_778
10
12.354306
20
1.4929377
40
1.7569359
50
328.2711567
51
334.4053462
0
ARC
8
DEFAULT_255_2_778
10
12.6191287
20
1.3659297
40
1.4632318
50
334.410878
51
339.475468
0
ARC
8
DEFAULT_255_2_778
10
12.7516853
20
1.314123
40
1.3209272
50
339.5640674
51
342.4655597
0
ARC
8
DEFAULT_255_2_778
10
14.2046345
20
0.8644351
40
0.2001938
50
157.4597284
51
165.0277617
0
ARC
8
DEFAULT_255_2_778
10
13.3679961
20
1.2702266
40
0.5687507
50
300.9451728
51
335.9648202
0
ARC
8
DEFAULT_255_2_778
10
13.4899713
20
1.0910719
40
0.3525964
50
270.0913732
51
298.9153737
0
ARC
8
DEFAULT_255_2_778
10
13.4842629
20
1.6005095
40
0.8620565
50
263.2854747
51
270.4167788
0
ARC
8
DEFAULT_255_2_778
10
13.4313459
20
1.1767536
40
0.4350304
50
246.6072732
51
263.6815671
0
ARC
8
DEFAULT_255_2_778
10
13.4321652
20
1.1613323
40
0.4212581
50
231.6509293
51
245.6722055
0
ARC
8
DEFAULT_255_2_778
10
13.7604163
20
1.5690225
40
0.9446617
50
223.5663866
51
231.3793496
0
ARC
8
DEFAULT_255_2_778
10
14.5557336
20
2.3635496
40
2.068697
50
224.1865113
51
224.3299226
0
ARC
8
DEFAULT_255_2_778
10
14.6168316
20
2.4228412
40
2.1538347
50
224.0478517
51
224.1846889
0
ARC
8
DEFAULT_255_2_778
10
14.7638459
20
2.5652783
40
2.3585334
50
223.9277315
51
224.0518598
0
ARC
8
DEFAULT_255_2_778
10
14.8461256
20
2.6443772
40
2.4726672
50
223.8075064
51
223.925105
0
ARC
8
DEFAULT_255_2_778
10
14.9373903
20
2.7320468
40
2.5992184
50
223.6984195
51
223.8095255
0
ARC
8
DEFAULT_255_2_778
10
15.033372
20
2.8242262
40
2.7322952
50
223.6004701
51
223.7054298
0
ARC
8
DEFAULT_255_2_778
10
15.2926471
20
3.0712056
40
3.0903766
50
223.5092815
51
223.6014248
0
ARC
8
DEFAULT_255_2_778
10
15.444697
20
3.215644
40
3.3000946
50
223.4248894
51
223.5105596
0
ARC
8
DEFAULT_255_2_778
10
15.4287307
20
3.2009231
40
3.2783795
50
223.3442378
51
223.4298494
0
ARC
8
DEFAULT_255_2_778
10
15.8323126
20
3.5821723
40
3.8335633
50
223.2753042
51
223.3479783
0
ARC
8
DEFAULT_255_2_778
10
16.0864044
20
3.8212034
40
4.1824164
50
223.2071335
51
223.2732483
0
ARC
8
DEFAULT_255_2_778
10
16.8107934
20
4.5014599
40
5.176141
50
223.1528263
51
223.2058437
0
ARC
8
DEFAULT_255_2_778
10
16.345404
20
4.0651261
40
4.5381955
50
223.0925947
51
223.1526004
0
ARC
8
DEFAULT_255_2_778
10
17.2495329
20
4.9110948
40
5.7763846
50
223.0466803
51
223.0934566
0
ARC
8
DEFAULT_255_2_778
10
17.1734164
20
4.8400617
40
5.6722721
50
222.9998844
51
223.0471433
0
ARC
8
DEFAULT_255_2_778
10
17.8172361
20
5.4407111
40
6.5527738
50
222.9610947
51
223.0016762
0
ARC
8
DEFAULT_255_2_778
10
18.7280501
20
6.2884912
40
7.797086
50
222.9250498
51
222.9588787
0
ARC
8
DEFAULT_255_2_778
10
18.5931474
20
6.1628912
40
7.6127654
50
222.8899661
51
222.9243297
0
ARC
8
DEFAULT_255_2_778
10
19.9169556
20
7.3928093
40
9.4197426
50
222.8632785
51
222.8908193
0
ARC
8
DEFAULT_255_2_778
10
18.3900591
20
5.9765032
40
7.3371155
50
222.8325171
51
222.8675778
0
ARC
8
DEFAULT_255_2_778
10
26.7254692
20
13.704141
40
18.7035331
50
222.8192665
51
222.8329031
0
ARC
8
DEFAULT_255_2_778
10
21.7334124
20
9.0784413
40
11.8978202
50
222.7984192
51
222.8196712
0
ARC
8
DEFAULT_255_2_778
10
-1.4833483
20
-12.3560296
40
19.7005316
50
42.6633473
51
43.0553735
0
ARC
8
DEFAULT_255_2_778
10
8.3295908
20
-3.1971855
40
6.2774901
50
43.1195058
51
44.5398232
0
ARC
8
DEFAULT_255_2_778
10
8.806488
20
-2.7319617
40
5.6112657
50
44.5694716
51
45.1934425
0
ARC
8
DEFAULT_255_2_778
10
9.9177966
20
3.1904562
40
3.4425904
50
325.6739864
51
329.3373917
0
ARC
8
DEFAULT_255_2_778
10
10.3590445
20
2.9279923
40
2.9291836
50
329.3518511
51
333.4400784
0
ARC
8
DEFAULT_255_2_778
10
10.3635709
20
2.9220456
40
2.9224776
50
333.5046835
51
337.4280367
0
ARC
8
DEFAULT_255_2_778
10
7.8630587
20
3.9382408
40
5.621547
50
337.6466863
51
339.8227209
0
ARC
8
DEFAULT_255_2_778
10
23.0446019
20
-1.6994524
40
10.5730341
50
159.1710038
51
159.523598
0
ARC
8
DEFAULT_255_2_778
10
14.5856302
20
1.5603472
40
1.508274
50
147.6644255
51
160.6495284
0
ARC
8
DEFAULT_255_2_778
10
14.2032273
20
1.7778506
40
1.0690346
50
144.9245706
51
146.5515249
0
ARC
8
DEFAULT_255_2_778
10
15.8915019
20
0.5988156
40
3.128254
50
142.9765685
51
145.0208469
0
ARC
8
DEFAULT_255_2_778
10
15.1370649
20
1.164339
40
2.1853961
50
141.6395635
51
142.9039445
0
ARC
8
DEFAULT_255_2_778
10
14.3360902
20
1.8251772
40
1.1474074
50
128.3637884
51
142.6926422
0
ARC
8
DEFAULT_255_2_778
10
14.053603
20
2.1650114
40
0.7057012
50
98.2333146
51
127.5051474
0
ARC
8
DEFAULT_255_2_778
10
14.1062823
20
1.8714139
40
1.0038673
50
91.8180715
51
98.809319
0
ARC
8
DEFAULT_255_2_778
10
12.7925129
20
2.4292096
40
0.4636029
50
90.6146101
51
94.3519241
0
ARC
8
DEFAULT_255_2_778
10
12.7917197
20
2.4687775
40
0.424029
50
90.0041672
51
90.5647875
0
ARC
8
DEFAULT_255_2_778
10
12.7991708
20
2.6070245
40
0.2858798
50
65.8222032
51
91.4997077
0
ARC
8
DEFAULT_255_2_778
10
12.7978586
20
2.656575
40
0.2421688
50
354.1594357
51
60.730739
0
ARC
8
DEFAULT_255_2_778
10
12.5473922
20
2.6324234
40
0.4913784
50
355.2068134
51
359.942681
0
ARC
8
DEFAULT_255_2_778
10
12.4724203
20
2.6389644
40
0.5666349
50
348.941336
51
355.1811777
0
ARC
8
DEFAULT_255_2_778
10
11.8576947
20
2.7639095
40
1.1939214
50
344.177918
51
348.7152021
0
ARC
8
DEFAULT_255_2_778
10
11.0091722
20
3.0022343
40
2.0752763
50
340.8762334
51
344.2346584
0
ARC
8
DEFAULT_255_2_778
10
9.7381716
20
3.4449029
40
3.4211575
50
337.3236985
51
340.8453046
0
ARC
8
DEFAULT_255_2_778
10
9.0285757
20
3.732006
40
4.1865942
50
337.2441411
51
337.4421773
0
ARC
8
DEFAULT_255_2_778
10
8.6474935
20
3.8944615
40
4.6008528
50
334.342462
51
337.214184
0
ARC
8
DEFAULT_255_2_778
10
8.676325
20
3.8802854
40
4.5687262
50
334.159083
51
334.3461556
0
ARC
8
DEFAULT_255_2_778
10
9.2162246
20
3.6146327
40
3.967023
50
331.7901784
51
334.2134084
0
ARC
8
DEFAULT_255_2_778
10
10.5345095
20
2.9050881
40
2.4699187
50
329.0419835
51
331.8391457
0
ARC
8
DEFAULT_255_2_778
10
11.6689856
20
2.2217801
40
1.1455572
50
324.9863315
51
329.1610837
0
ARC
8
DEFAULT_255_2_778
10
12.3198167
20
1.7615979
40
0.3484942
50
316.4947139
51
325.5564694
0
ARC
8
DEFAULT_255_2_778
10
12.5386372
20
1.5482759
40
0.0431198
50
283.3813517
51
321.9295228
0
ARC
8
DEFAULT_255_2_778
10
12.5483933
20
1.517616
40
0.0112916
50
270.0563965
51
271.1328442
0
ARC
8
DEFAULT_255_2_778
10
12.5482563
20
1.5144864
40
0.0081633
50
222.4572756
51
271.039738
0
ARC
8
DEFAULT_255_2_778
10
14.7334126
20
3.5760258
40
3.0123016
50
220.9444724
51
223.3302776
0
ARC
8
DEFAULT_255_2_778
10
15.5064575
20
4.2471228
40
4.0360056
50
218.867287
51
220.9489073
0
ARC
8
DEFAULT_255_2_778
10
16.4721063
20
5.0267199
40
5.277073
50
217.2069792
51
218.8785015
0
ARC
8
DEFAULT_255_2_778
10
17.8893273
20
6.0989669
40
7.0542118
50
215.1760412
51
217.182692
0
ARC
8
DEFAULT_255_2_778
10
20.1185113
20
7.6691158
40
9.7808634
50
213.2671945
51
215.171388
0
ARC
8
DEFAULT_255_2_778
10
23.2029131
20
9.6909857
40
13.4688833
50
211.3753615
51
213.2612322
0
ARC
8
DEFAULT_255_2_778
10
25.6053363
20
11.1674892
40
16.2887451
50
210.5423926
51
211.409825
0
ARC
8
DEFAULT_255_2_778
10
26.4239188
20
11.6520962
40
17.2400176
50
209.8657163
51
210.5469977
0
ARC
8
DEFAULT_255_2_778
10
26.0434565
20
11.4346067
40
16.8017796
50
209.3499636
51
209.8686239
0
ARC
8
DEFAULT_255_2_778
10
24.6048998
20
10.6256751
40
15.1513809
50
209.005868
51
209.3499606
0
ARC
8
DEFAULT_255_2_778
10
22.1864937
20
9.2857355
40
12.3865798
50
208.6623416
51
209.0096247
0
ARC
8
DEFAULT_255_2_778
10
18.6103339
20
7.3310807
40
8.3110929
50
208.4022922
51
208.6634397
0
ARC
8
DEFAULT_255_2_778
10
14.3344375
20
5.0197292
40
3.4504719
50
208.1968006
51
208.4145351
0
ARC
8
DEFAULT_255_2_778
10
10.6735291
20
4.5126689
40
1.2829921
50
298.892703
51
312.9453206
0
ARC
8
DEFAULT_255_2_778
10
10.5327647
20
4.6650192
40
1.4904162
50
312.9162522
51
323.6308891
0
ARC
8
DEFAULT_255_2_778
10
10.4357054
20
4.7405373
40
1.6133542
50
323.5153473
51
325.6809352
0
ARC
8
DEFAULT_255_2_778
10
10.394878
20
4.7678925
40
1.6624969
50
325.6956007
51
333.4895997
0
ARC
8
DEFAULT_255_2_778
10
10.5181587
20
4.7086308
40
1.5257279
50
333.4146055
51
339.6495567
0
ARC
8
DEFAULT_255_2_778
10
10.9171357
20
4.5625296
40
1.1008469
50
339.5576036
51
345.570349
0
ARC
8
DEFAULT_255_2_778
10
11.4577998
20
4.4263521
40
0.5433118
50
345.2701192
51
353.5038024
0
ARC
8
DEFAULT_255_2_778
10
11.7744181
20
4.3881974
40
0.2244193
50
354.0369866
51
359.6626097
0
ARC
8
DEFAULT_255_2_778
10
11.0610835
20
4.4335312
40
0.93891
50
357.151747
51
47.4257191
0
ARC
8
DEFAULT_255_2_778
10
11.0396805
20
4.3608136
40
1.0074942
50
49.3275369
51
67.6624016
0
ARC
8
DEFAULT_255_2_778
10
10.858271
20
3.9298791
40
1.4750442
50
67.5064734
51
79.233718
0
ARC
8
DEFAULT_255_2_778
10
10.7551368
20
3.4480059
40
1.9677334
50
78.9045913
51
82.7890136
0
ARC
8
DEFAULT_255_2_778
10
10.9142621
20
4.7037581
40
0.7019395
50
82.8086306
51
87.5133987
0
ARC
8
DEFAULT_255_2_778
10
10.9088213
20
4.5947343
40
0.8110971
50
87.4635536
51
90.0212603
0
ARC
8
DEFAULT_255_2_778
10
10.9120608
20
4.4105278
40
0.9953098
50
90.2038128
51
98.1560023
0
ARC
8
DEFAULT_255_2_778
10
10.9478191
20
4.1528205
40
1.2554842
50
98.1028785
51
105.5169741
0
ARC
8
DEFAULT_255_2_778
10
10.9865697
20
4.0069546
40
1.4064012
50
105.4483507
51
110.9107817
0
ARC
8
DEFAULT_255_2_778
10
10.9734853
20
4.0239304
40
1.385887
50
110.6559604
51
132.9643172
0
ARC
8
DEFAULT_255_2_778
10
10.7410016
20
4.2683039
40
1.0486182
50
132.7689513
51
162.9218446
0
ARC
8
DEFAULT_255_2_778
10
10.7123871
20
4.2877139
40
1.0156159
50
163.4945075
51
178.9753437
0
ARC
8
DEFAULT_255_2_778
10
10.5285012
20
4.2884196
40
0.8317508
50
178.7974263
51
180.0025995
0
ARC
8
DEFAULT_255_2_778
10
10.8720601
20
4.3181431
40
1.1756865
50
181.4505319
51
202.5050043
0
ARC
8
DEFAULT_255_2_778
10
13.0082604
20
5.1478363
40
3.4671611
50
201.6596729
51
207.7921587
0
ARC
8
DEFAULT_255_2_778
10
119.4436637
20
60.8146646
40
123.5808021
50
207.615147
51
207.8080475
0
ARC
8
DEFAULT_255_2_778
10
10.9188684
20
1.1247636
40
2.183823
50
111.0484201
51
144.5955764
0
ARC
8
DEFAULT_255_2_778
10
10.771441
20
1.2470554
40
1.9928596
50
145.0057584
51
161.7491229
0
ARC
8
DEFAULT_255_2_778
10
7.8101533
20
1.4048258
40
1.1660017
50
23.5754668
51
52.0391783
0
ARC
8
DEFAULT_255_2_778
10
7.34008
20
0.8114049
40
1.9230343
50
51.8725059
51
67.1241963
0
ARC
8
DEFAULT_255_2_778
10
6.8969742
20
-0.167187
40
2.9970395
50
66.5919106
51
71.5718504
0
ARC
8
DEFAULT_255_2_778
10
6.5519146
20
-1.1898433
40
4.0763353
50
71.514389
51
74.1410684
0
ARC
8
DEFAULT_255_2_778
10
6.1835211
20
-2.4681645
40
5.4066735
50
74.0876067
51
74.9181143
0
ARC
8
DEFAULT_255_2_778
10
8.0603058
20
1.3617253
40
1.4625927
50
107.9389113
51
108.0579318
0
ARC
8
DEFAULT_255_2_778
10
8.0687758
20
1.3358382
40
1.4898302
50
107.8249072
51
107.9421788
0
ARC
8
DEFAULT_255_2_778
10
8.1943891
20
0.9450573
40
1.9003037
50
107.7315056
51
107.8237554
0
ARC
8
DEFAULT_255_2_778
10
8.1480688
20
1.0896103
40
1.7485107
50
107.6278178
51
107.7283854
0
ARC
8
DEFAULT_255_2_778
10
8.1821733
20
0.9822465
40
1.8611611
50
107.5327585
51
107.627505
0
ARC
8
DEFAULT_255_2_778
10
8.2919877
20
0.6344961
40
2.2258384
50
107.4521187
51
107.5315445
0
ARC
8
DEFAULT_255_2_778
10
8.2278266
20
0.8384916
40
2.0119908
50
107.3632607
51
107.4513306
0
ARC
8
DEFAULT_255_2_778
10
8.4002153
20
0.2869441
40
2.5898511
50
107.2932751
51
107.3618353
0
ARC
8
DEFAULT_255_2_778
10
8.3133263
20
0.5657517
40
2.297818
50
107.2138136
51
107.2912281
0
ARC
8
DEFAULT_255_2_778
10
8.3629467
20
0.4067489
40
2.4643833
50
107.1494848
51
107.2217821
0
ARC
8
DEFAULT_255_2_778
10
8.4184625
20
0.2280142
40
2.6515409
50
107.0896484
51
107.156935
0
ARC
8
DEFAULT_255_2_778
10
8.726517
20
-0.7752419
40
3.7010265
50
107.0356295
51
107.0838919
0
ARC
8
DEFAULT_255_2_778
10
8.7391291
20
-0.817853
40
3.7454629
50
106.9813943
51
107.0291297
0
ARC
8
DEFAULT_255_2_778
10
8.6367575
20
-0.4837496
40
3.3960277
50
106.9231475
51
106.9758344
0
ARC
8
DEFAULT_255_2_778
10
8.6456327
20
-0.5119818
40
3.425621
50
106.8754498
51
106.9277108
0
ARC
8
DEFAULT_255_2_778
10
8.7432993
20
-0.8327446
40
3.760923
50
106.8331003
51
106.8807198
0
ARC
8
DEFAULT_255_2_778
10
8.7517628
20
-0.8593503
40
3.7888396
50
106.7918149
51
106.8390925
0
ARC
8
DEFAULT_255_2_778
10
8.8685187
20
-1.2445579
40
4.1913525
50
106.7558163
51
106.7985542
0
ARC
8
DEFAULT_255_2_778
10
9.0108592
20
-1.7161016
40
4.6839112
50
106.7219097
51
106.7601472
0
ARC
8
DEFAULT_255_2_778
10
9.0192447
20
-1.7425508
40
4.7116547
50
106.6890254
51
106.7270254
0
ARC
8
DEFAULT_255_2_778
10
9.1970715
20
-2.3337724
40
5.3290404
50
106.6613692
51
106.6949504
0
ARC
8
DEFAULT_255_2_778
10
-3.1002256
20
39.126655
40
37.9166779
50
286.5007326
51
286.6671862
0
ARC
8
DEFAULT_255_2_778
10
6.5276034
20
6.9624467
40
4.3424115
50
286.6901989
51
288.6078424
0
ARC
8
DEFAULT_255_2_778
10
7.0703486
20
5.3567357
40
2.647456
50
288.564378
51
292.9816623
0
ARC
8
DEFAULT_255_2_778
10
7.2875467
20
4.8323543
40
2.0798982
50
293.1133017
51
295.0904537
0
ARC
8
DEFAULT_255_2_778
10
7.6435483
20
4.1470011
40
1.3086393
50
293.698634
51
318.13824
0
ARC
8
DEFAULT_255_2_778
10
7.9557337
20
3.8408491
40
0.872053
50
319.4311368
51
342.0300128
0
ARC
8
DEFAULT_255_2_778
10
7.8836128
20
3.8596631
40
0.9464703
50
342.2936135
51
356.7921812
0
ARC
8
DEFAULT_255_2_778
10
7.728603
20
3.8729017
40
1.1019872
50
356.5559302
51
0.0222932
0
ARC
8
DEFAULT_255_2_778
10
7.6562677
20
3.873167
40
1.1743223
50
0.0079787
51
1.985191
0
ARC
8
DEFAULT_255_2_778
10
7.6152951
20
3.871923
40
1.2153135
50
1.9768872
51
2.6246635
0
ARC
8
DEFAULT_255_2_778
10
7.5951926
20
3.875967
40
1.2352196
50
2.3945814
51
15.2700297
0
ARC
8
DEFAULT_255_2_778
10
7.7269633
20
3.9098326
40
1.0991837
50
15.376064
51
35.6679504
0
ARC
8
DEFAULT_255_2_778
10
7.418231
20
3.6311165
40
1.5132284
50
37.4256109
51
68.8344781
0
ARC
8
DEFAULT_255_2_778
10
7.0207883
20
2.7951518
40
2.4372731
50
67.2170108
51
73.7277077
0
ARC
8
DEFAULT_255_2_778
10
6.8874762
20
2.343032
40
2.908636
50
73.7023634
51
79.6395678
0
ARC
8
DEFAULT_255_2_778
10
6.8456178
20
2.1302626
40
3.1254654
50
79.5861938
51
83.5476037
0
ARC
8
DEFAULT_255_2_778
10
6.8596392
20
2.2631831
40
2.9918113
50
83.528363
51
86.68039
0
ARC
8
DEFAULT_255_2_778
10
6.8821628
20
2.6621503
40
2.5922094
50
86.6667585
51
89.5184158
0
ARC
8
DEFAULT_255_2_778
10
6.88675
20
2.9714584
40
2.2828746
50
89.5682926
51
89.9977867
0
ARC
8
DEFAULT_255_2_778
10
6.8862908
20
3.1652596
40
2.0890734
50
89.9849887
51
91.330783
0
ARC
8
DEFAULT_255_2_778
10
6.8800026
20
3.438964
40
1.8152967
50
91.3329967
51
92.541977
0
ARC
8
DEFAULT_255_2_778
10
6.8682982
20
3.7003662
40
1.5536326
50
92.5383131
51
93.8591148
0
ARC
8
DEFAULT_255_2_778
10
4.6657953
20
8.0717949
40
2.9791024
50
266.0761491
51
269.059456
0
ARC
8
DEFAULT_255_2_778
10
4.6345996
20
3.8866493
40
1.2065745
50
78.3962829
51
90.8408148
0
ARC
8
DEFAULT_255_2_778
10
4.8173606
20
4.7774521
40
0.2972169
50
23.7442734
51
78.3670415
0
ARC
8
DEFAULT_255_2_778
10
4.598397
20
4.6813197
40
0.536354
50
7.5392285
51
23.7259119
0
ARC
8
DEFAULT_255_2_778
10
4.0731941
20
4.6027137
40
1.0673681
50
359.5792666
51
8.0232762
0
ARC
8
DEFAULT_255_2_778
10
4.2476983
20
0.6155315
40
0.8941975
50
349.4343295
51
0.6756473
0
ARC
8
DEFAULT_255_2_778
10
4.7186965
20
0.5227736
40
0.4142046
50
326.3793775
51
350.1013325
0
ARC
8
DEFAULT_255_2_778
10
4.7544001
20
0.5302706
40
0.3894939
50
280.0958535
51
322.5501409
0
ARC
8
DEFAULT_255_2_778
10
4.4171117
20
1.9032413
40
1.8026488
50
275.6646547
51
283.0018644
0
ARC
8
DEFAULT_255_2_778
10
3.6187426
20
8.4980908
40
8.4453166
50
276.3875611
51
276.6383878
0
LINE
8
DEFAULT_255_2_778
10
4.5583109
20
0.105202
11
4.5576009
21
0.1051223
0
LINE
8
DEFAULT_255_2_778
10
4.5576009
20
0.1051223
11
4.5568961
21
0.1050433
0
LINE
8
DEFAULT_255_2_778
10
4.5568961
20
0.1050433
11
4.5561964
21
0.1049649
0
ARC
8
DEFAULT_255_2_778
10
3.945271
20
5.5702301
40
5.4993049
50
276.3709523
51
276.3782338
0
ARC
8
DEFAULT_255_2_778
10
3.9535729
20
5.4770271
40
5.4057568
50
276.3857684
51
276.3931216
0
LINE
8
DEFAULT_255_2_778
10
4.5548124
20
0.1048099
11
4.554128
21
0.1047334
0
ARC
8
DEFAULT_255_2_778
10
3.9696014
20
5.3270193
40
5.254897
50
276.3790395
51
276.3864932
0
LINE
8
DEFAULT_255_2_778
10
4.5534487
20
0.1046574
11
4.5527743
21
0.104582
0
ARC
8
DEFAULT_255_2_778
10
3.985279
20
5.1801758
40
5.1072207
50
276.3721095
51
276.3796666
0
ARC
8
DEFAULT_255_2_778
10
7.5799241
20
-27.0253958
40
27.2983392
50
96.3681146
51
96.3737324
0
ARC
8
DEFAULT_255_2_778
10
7.3879821
20
-25.3695281
40
25.6313994
50
96.3582364
51
96.3640431
0
LINE
8
DEFAULT_255_2_778
10
4.5468631
20
0.1039223
11
4.5462371
21
0.1038526
0
ARC
8
DEFAULT_255_2_778
10
4.0573166
20
4.4914212
40
4.4147255
50
276.3503029
51
276.3584167
0
LINE
8
DEFAULT_255_2_778
10
4.5456158
20
0.1037834
11
4.544999
21
0.1037148
0
ARC
8
DEFAULT_255_2_778
10
7.0858802
20
-22.7474028
40
22.9919475
50
96.3448186
51
96.3509625
0
ARC
8
DEFAULT_255_2_778
10
10.1927137
20
-51.1160487
40
51.5301913
50
96.2950053
51
96.3822829
0
ARC
8
DEFAULT_255_2_778
10
6.9313326
20
6.5574155
40
6.5997828
50
269.4157356
51
269.8509238
0
ARC
8
DEFAULT_255_2_778
10
6.9308014
20
6.4272126
40
6.4695789
50
269.8526278
51
269.9991192
0
ARC
8
DEFAULT_255_2_778
10
6.9410085
20
5.3771424
40
5.4195184
50
269.8910382
51
273.9609388
0
ARC
8
DEFAULT_255_2_778
10
7.0537693
20
3.791907
40
3.8302816
50
273.9162257
51
279.3576458
0
ARC
8
DEFAULT_255_2_778
10
7.2501557
20
2.6162727
40
2.6383614
50
279.3007732
51
286.6098481
0
ARC
8
DEFAULT_255_2_778
10
7.4920217
20
1.8145605
40
1.8009656
50
286.5270739
51
296.7620494
0
ARC
8
DEFAULT_255_2_778
10
7.7395048
20
1.3301584
40
1.2570154
50
296.6319513
51
312.7574577
0
ARC
8
DEFAULT_255_2_778
10
7.8443894
20
1.2018773
40
1.0916679
50
313.2864953
51
342.9600058
0
ARC
8
DEFAULT_255_2_778
10
2.4505057
20
6.5552256
40
6.5986152
50
271.8569928
51
275.3741181
0
ARC
8
DEFAULT_255_2_778
10
2.6383697
20
4.593929
40
4.6283459
50
275.3326971
51
280.0828089
0
ARC
8
DEFAULT_255_2_778
10
2.8972814
20
3.151575
40
3.1629408
50
280.0393662
51
286.2892813
0
ARC
8
DEFAULT_255_2_778
10
3.1921653
20
2.1543336
40
2.1230223
50
286.1993272
51
295.1491648
0
ARC
8
DEFAULT_255_2_778
10
3.4937643
20
1.5200427
40
1.4206911
50
295.0100212
51
308.8270957
0
ARC
8
DEFAULT_255_2_778
10
3.6741045
20
1.276694
40
1.1181094
50
309.4461473
51
354.2236269
0
ARC
8
DEFAULT_255_2_778
10
2.8623559
20
1.4198445
40
1.9410939
50
352.4309188
51
0.2341139
0
ARC
8
DEFAULT_255_2_778
10
3.4710186
20
1.4339621
40
1.3324293
50
359.7339845
51
11.6503693
0
ARC
8
DEFAULT_255_2_778
10
3.7147095
20
1.4838987
40
1.0836748
50
11.666382
51
28.9280126
0
ARC
8
DEFAULT_255_2_778
10
3.5946854
20
1.3860669
40
1.236353
50
30.2057021
51
61.0410996
0
ARC
8
DEFAULT_255_2_778
10
3.1583292
20
0.684439
40
2.0619597
50
59.8716925
51
68.0197756
0
ARC
8
DEFAULT_255_2_778
10
2.8139648
20
-0.1545023
40
2.9688167
50
67.9169258
51
72.4384579
0
ARC
8
DEFAULT_255_2_778
10
2.3958799
20
-1.4602144
40
4.3398252
50
72.3773735
51
74.5471419
0
ARC
8
DEFAULT_255_2_778
10
1.9070266
20
-3.2020819
40
6.148981
50
74.4812767
51
74.96398
0
ARC
8
DEFAULT_255_2_778
10
3.2967286
20
3.7572597
40
1.0413626
50
281.3815884
51
285.5007615
0
ARC
8
DEFAULT_255_2_778
10
3.1685624
20
4.2258467
40
1.5271592
50
285.4360058
51
289.2058624
0
ARC
8
DEFAULT_255_2_778
10
3.0708757
20
4.5094555
40
1.8271187
50
289.1730243
51
293.3348835
0
ARC
8
DEFAULT_255_2_778
10
3.0488334
20
4.5636854
40
1.8856443
50
293.2971664
51
299.0107938
0
ARC
8
DEFAULT_255_2_778
10
3.0915365
20
4.4854119
40
1.7964821
50
299.0304272
51
301.1600974
0
ARC
8
DEFAULT_255_2_778
10
3.2480141
20
4.2459099
40
1.5106009
50
300.7817138
51
316.1193166
0
ARC
8
DEFAULT_255_2_778
10
3.5563584
20
3.9517092
40
1.0844246
50
316.0307544
51
339.505227
0
ARC
8
DEFAULT_255_2_778
10
3.624304
20
3.9166763
40
1.0085543
50
340.0180111
51
356.7262468
0
ARC
8
DEFAULT_255_2_778
10
3.5342401
20
3.9245252
40
1.0989227
50
356.5858474
51
0.0135109
0
ARC
8
DEFAULT_255_2_778
10
3.5013966
20
3.9247753
40
1.1317662
50
0.0004589
51
0.8657513
0
ARC
8
DEFAULT_255_2_778
10
3.4463135
20
3.9291585
40
1.1867882
50
0.61398
51
13.8293681
0
ARC
8
DEFAULT_255_2_778
10
3.5914372
20
3.9629202
40
1.0378029
50
13.9345994
51
34.8681367
0
ARC
8
DEFAULT_255_2_778
10
3.3197442
20
3.7274268
40
1.3958626
50
36.4236428
51
66.4725636
0
ARC
8
DEFAULT_255_2_778
10
2.8870434
20
2.8690771
40
2.3562067
50
65.1572185
51
74.6154658
0
ARC
8
DEFAULT_255_2_778
10
2.7155993
20
2.2768217
40
2.9727343
50
74.4578485
51
79.9361265
0
ARC
8
DEFAULT_255_2_778
10
2.667263
20
2.0197109
40
3.2343368
50
79.8889418
51
83.7841245
0
ARC
8
DEFAULT_255_2_778
10
2.6763257
20
2.1132718
40
3.140345
50
83.7636742
51
86.8219423
0
ARC
8
DEFAULT_255_2_778
10
2.697208
20
2.5011709
40
2.7518847
50
86.8083133
51
89.5429002
0
ARC
8
DEFAULT_255_2_778
10
2.7017199
20
2.83081
40
2.4222209
50
89.5874166
51
89.9991782
0
ARC
8
DEFAULT_255_2_778
10
2.7011334
20
3.0294088
40
2.2236222
50
89.9839918
51
91.3430679
0
ARC
8
DEFAULT_255_2_778
10
2.6940606
20
3.3340223
40
1.9189266
50
91.3451261
51
92.5675462
0
ARC
8
DEFAULT_255_2_778
10
2.6806465
20
3.6311453
40
1.6215009
50
92.5643549
51
93.9080075
0
ARC
8
DEFAULT_255_2_778
10
0.4708723
20
8.0560252
40
2.9648823
50
266.0809899
51
269.0876116
0
ARC
8
DEFAULT_255_2_778
10
0.4419129
20
3.8864246
40
1.2052326
50
78.4133804
51
90.8677145
0
ARC
8
DEFAULT_255_2_778
10
0.6241548
20
4.7762205
40
0.2969658
50
23.7180543
51
78.3773839
0
ARC
8
DEFAULT_255_2_778
10
0.4045399
20
4.6798143
40
0.5368092
50
7.5314777
51
23.7101795
0
ARC
8
DEFAULT_255_2_778
10
-0.1216526
20
4.6011216
40
1.068815
50
359.5794114
51
8.0163747
0
ARC
8
DEFAULT_255_2_778
10
0.054391
20
0.6320465
40
0.8912095
50
348.9342968
51
0.7026682
0
ARC
8
DEFAULT_255_2_778
10
0.5184965
20
0.5360261
40
0.417335
50
324.2099164
51
349.6423496
0
ARC
8
DEFAULT_255_2_778
10
0.5351551
20
0.5577754
40
0.4174406
50
280.9055645
51
320.4485582
0
ARC
8
DEFAULT_255_2_778
10
0.2244465
20
1.7662175
40
1.6645993
50
275.91624
51
283.5386426
0
ARC
8
DEFAULT_255_2_778
10
-0.405007
20
6.9112537
40
6.8477816
50
276.0198764
51
276.7176534
0
ARC
8
DEFAULT_255_2_778
10
-3.0561674
20
31.7941978
40
31.8715585
50
275.9852067
51
276.0683791
0
ARC
8
DEFAULT_255_2_778
10
2.4632499
20
0.8756628
40
1.7030389
50
90.0061772
51
91.4238049
0
ARC
8
DEFAULT_255_2_778
10
2.4748657
20
1.2358042
40
1.3429492
50
75.6220409
51
90.503421
0
ARC
8
DEFAULT_255_2_778
10
2.5964531
20
1.6690997
40
0.8930909
50
22.8466109
51
76.2754238
0
ARC
8
DEFAULT_255_2_778
10
2.2024796
20
1.4898093
40
1.3258251
50
8.108512
51
23.3763638
0
ARC
8
DEFAULT_255_2_778
10
1.7451731
20
1.4106666
40
1.7897763
50
3.6426082
51
8.5518696
0
ARC
8
DEFAULT_255_2_778
10
1.35644
20
1.3830753
40
2.1794788
50
0.2668835
51
3.7172239
0
ARC
8
DEFAULT_255_2_778
10
1.466333
20
1.3845477
40
2.0695804
50
0.0014356
51
0.2402915
0
ARC
8
DEFAULT_255_2_778
10
1.8573255
20
1.3695177
40
1.6786554
50
345.2394087
51
0.5147778
0
ARC
8
DEFAULT_255_2_778
10
2.4810206
20
1.1959098
40
1.0313502
50
318.9117988
51
345.7379127
0
ARC
8
DEFAULT_255_2_778
10
2.6458435
20
1.0726352
40
0.8262484
50
285.6788397
51
317.8429292
0
ARC
8
DEFAULT_255_2_778
10
2.5670533
20
1.3461471
40
1.1108779
50
270.2001309
51
285.7790714
0
ARC
8
DEFAULT_255_2_778
10
2.5566912
20
1.4340565
40
1.1988653
50
270.0038955
51
270.6806839
0
ARC
8
DEFAULT_255_2_778
10
2.5425288
20
0.9294269
40
0.6943818
50
255.8282417
51
271.175396
0
ARC
8
DEFAULT_255_2_778
10
2.444084
20
0.5471513
40
0.2996438
50
187.785656
51
256.1832054
0
ARC
8
DEFAULT_255_2_778
10
3.0048666
20
0.6837269
40
0.8757719
50
179.7549347
51
191.6714219
0
ARC
8
DEFAULT_255_2_778
10
3.5333297
20
0.7013937
40
1.4042961
50
179.9966488
51
180.5679899
0
ARC
8
DEFAULT_255_2_778
10
2.3913365
20
3.7890032
40
1.1805725
50
75.0298296
51
86.1243181
0
ARC
8
DEFAULT_255_2_778
10
2.4437033
20
3.9855594
40
0.9771602
50
60.7584271
51
75.0190321
0
ARC
8
DEFAULT_255_2_778
10
2.4724548
20
4.0413107
40
0.914471
50
43.6005862
51
60.6239419
0
ARC
8
DEFAULT_255_2_778
10
2.4180463
20
3.9917446
40
0.9880552
50
28.4400999
51
43.5062086
0
ARC
8
DEFAULT_255_2_778
10
2.3522864
20
3.9537845
40
1.0639589
50
18.9461031
51
28.5511092
0
ARC
8
DEFAULT_255_2_778
10
2.4144495
20
3.9736828
40
0.9987038
50
11.4733908
51
19.0242837
0
ARC
8
DEFAULT_255_2_778
10
2.6474823
20
4.019629
40
0.7611895
50
4.3439029
51
11.573136
0
ARC
8
DEFAULT_255_2_778
10
2.8976321
20
4.0402021
40
0.5102025
50
0.1205874
51
4.1679369
0
ARC
8
DEFAULT_255_2_778
10
0.1097335
20
4.0342887
40
3.2981074
50
359.9984258
51
0.1213837
0
ARC
8
DEFAULT_255_2_778
10
1.2216438
20
4.007888
40
2.1863555
50
349.5318309
51
0.689501
0
ARC
8
DEFAULT_255_2_778
10
2.397415
20
3.7736408
40
0.9877354
50
320.9046447
51
350.5019536
0
ARC
8
DEFAULT_255_2_778
10
2.5442223
20
3.6874145
40
0.8198249
50
294.1638045
51
319.1111273
0
ARC
8
DEFAULT_255_2_778
10
2.3879495
20
4.0279448
40
1.1944915
50
280.8081832
51
294.3165797
0
ARC
8
DEFAULT_255_2_778
10
2.2580402
20
4.6811623
40
1.8604891
50
272.1424833
51
280.9656242
0
ARC
8
DEFAULT_255_2_778
10
2.2216793
20
5.3222265
40
2.5024951
50
269.9695284
51
272.4256904
0
ARC
8
DEFAULT_255_2_778
10
2.2205542
20
5.5958125
40
2.7760807
50
269.1098701
51
269.9957519
0
ARC
8
DEFAULT_255_2_778
10
2.2230502
20
5.7594492
40
2.9397366
50
268.2550408
51
269.1107748
0
ARC
8
DEFAULT_255_2_778
10
6.5905247
20
3.7868748
40
1.1799896
50
75.0338625
51
86.1315599
0
ARC
8
DEFAULT_255_2_778
10
6.6428257
20
3.9832426
40
0.9767762
50
60.7594113
51
75.0230249
0
ARC
8
DEFAULT_255_2_778
10
6.6714756
20
4.0388206
40
0.9142878
50
43.6001723
51
60.624718
0
ARC
8
DEFAULT_255_2_778
10
6.6169236
20
3.9891188
40
0.9880694
50
28.4410485
51
43.5057823
0
ARC
8
DEFAULT_255_2_778
10
6.5510484
20
3.9510925
40
1.0641062
50
18.9476655
51
28.5521555
0
ARC
8
DEFAULT_255_2_778
10
6.613282
20
3.9710131
40
0.9987774
50
11.4755009
51
19.0260444
0
ARC
8
DEFAULT_255_2_778
10
6.8465137
20
4.0170056
40
0.7610592
50
4.3457103
51
11.5754835
0
ARC
8
DEFAULT_255_2_778
10
7.0967463
20
4.0375948
40
0.5099884
50
0.1214511
51
4.1694555
0
ARC
8
DEFAULT_255_2_778
10
4.2273036
20
4.0310513
40
3.3794385
50
0.0015769
51
0.1292696
0
ARC
8
DEFAULT_255_2_778
10
5.424132
20
4.0048912
40
2.182768
50
349.51539
51
0.689137
0
ARC
8
DEFAULT_255_2_778
10
6.5965105
20
3.7709632
40
0.9875365
50
320.884317
51
350.4833627
0
ARC
8
DEFAULT_255_2_778
10
6.7428562
20
3.6849906
40
0.8201521
50
294.1594123
51
319.0939417
0
ARC
8
DEFAULT_255_2_778
10
6.5867082
20
4.0253228
40
1.1945865
50
280.8084077
51
294.3119811
0
ARC
8
DEFAULT_255_2_778
10
6.4569616
20
4.6777292
40
1.859757
50
272.1429446
51
280.9655941
0
ARC
8
DEFAULT_255_2_778
10
6.4206452
20
5.3177284
40
2.5006971
50
269.969551
51
272.4261285
0
ARC
8
DEFAULT_255_2_778
10
6.4195221
20
5.5911058
40
2.7740741
50
269.1095495
51
269.9957497
0
ARC
8
DEFAULT_255_2_778
10
6.4220155
20
5.7544875
40
2.9374749
50
268.2543747
51
269.110445
0
LINE
8
DEFAULT_255_2_778
10
12.7198336
20
5.2528759
11
12.7198336
21
3.9240759
0
LINE
8
DEFAULT_255_2_778
10
12.7198336
20
3.9240759
11
12.8610336
21
3.9240759
0
LINE
8
DEFAULT_255_2_778
10
13.7043336
20
5.0123759
11
14.3657336
21
5.0104759
0
LINE
8
DEFAULT_255_2_778
10
14.3657336
20
5.0104759
11
14.3657336
21
0.6085759
0
LINE
8
DEFAULT_255_2_778
10
13.6604336
20
0.1005759
11
13.6619336
21
-0.0396241
0
LINE
8
DEFAULT_255_2_778
10
13.6619336
20
-0.0396241
11
16.2982336
21
-0.0396241
0
LINE
8
DEFAULT_255_2_778
10
16.2982336
20
-0.0396241
11
16.2977336
21
0.1016759
0
LINE
8
DEFAULT_255_2_778
10
15.5410336
20
0.5371759
11
15.5423336
21
5.0104759
0
LINE
8
DEFAULT_255_2_778
10
15.5423336
20
5.0104759
11
16.1583336
21
5.0104759
0
LINE
8
DEFAULT_255_2_778
10
17.0438336
20
3.9243759
11
17.1978336
21
3.9243759
0
LINE
8
DEFAULT_255_2_778
10
17.1978336
20
3.9243759
11
17.1978336
21
5.2533759
0
LINE
8
DEFAULT_255_2_778
10
17.1978336
20
5.2533759
11
12.7198336
21
5.2533759
0
LINE
8
DEFAULT_255_2_778
10
12.7198336
20
5.2533759
11
12.7198336
21
5.2528759
0
LINE
8
DEFAULT_255_2_778
10
10.7616336
20
4.4667759
11
10.7618336
21
4.4670759
0
LINE
8
DEFAULT_255_2_778
10
10.0263336
20
1.3975759
11
10.0242336
21
1.3978759
0
LINE
8
DEFAULT_255_2_778
10
6.3269336
20
2.5704759
11
6.6193336
21
2.5704759
0
LINE
8
DEFAULT_255_2_778
10
6.3274336
20
0.6895759
11
6.3269336
21
2.5733759
0
LINE
8
DEFAULT_255_2_778
10
6.3269336
20
2.5733759
11
6.3269336
21
2.5704759
0
LINE
8
DEFAULT_255_2_778
10
14.0197336
20
0.9411759
11
13.8874336
21
1.0385759
0
LINE
8
DEFAULT_255_2_778
10
14.0744336
20
2.8747759
11
14.0744336
21
3.0247759
0
LINE
8
DEFAULT_255_2_778
10
14.0744336
20
3.0247759
11
12.7573336
21
3.0247759
0
LINE
8
DEFAULT_255_2_778
10
12.7573336
20
3.0247759
11
12.7573336
21
2.8914759
0
LINE
8
DEFAULT_255_2_778
10
7.5903336
20
2.7522759
11
7.6069336
21
2.7522759
0
LINE
8
DEFAULT_255_2_778
10
6.7637336
20
5.2504759
11
4.4619336
21
5.2504759
0
LINE
8
DEFAULT_255_2_778
10
4.4619336
20
5.2504759
11
4.4619336
21
5.0996759
0
LINE
8
DEFAULT_255_2_778
10
5.1405336
20
4.5948759
11
5.1418336
21
0.6260759
0
LINE
8
DEFAULT_255_2_778
10
4.4645336
20
0.0947759
11
4.4626336
21
-0.0420241
0
LINE
8
DEFAULT_255_2_778
10
4.4626336
20
-0.0420241
11
6.8640336
21
-0.0420241
0
LINE
8
DEFAULT_255_2_778
10
8.8881336
20
0.8819759
11
8.8889336
21
0.8842759
0
LINE
8
DEFAULT_255_2_778
10
0.2645336
20
-0.0399241
11
2.6643336
21
-0.0399241
0
LINE
8
DEFAULT_255_2_778
10
2.5701336
20
5.2488759
11
0.2682336
21
5.2488759
0
LINE
8
DEFAULT_255_2_778
10
0.2682336
20
5.2488759
11
0.2682336
21
5.0980759
0
LINE
8
DEFAULT_255_2_778
10
0.9471336
20
4.5932759
11
0.9455336
21
0.6429759
0
LINE
8
DEFAULT_255_2_778
10
0.2671336
20
0.0963759
11
0.2645336
21
-0.0399241
0
LINE
8
DEFAULT_255_2_778
10
2.1285336
20
2.5781759
11
2.4209336
21
2.5781759
0
LINE
8
DEFAULT_255_2_778
10
2.1290336
20
0.7014759
11
2.1285336
21
2.5781759
0
LINE
8
DEFAULT_255_2_778
10
2.1335336
20
2.8210759
11
2.1335336
21
4.9641759
0
LINE
8
DEFAULT_255_2_778
10
2.1335336
20
4.9641759
11
2.4711336
21
4.9641759
0
LINE
8
DEFAULT_255_2_778
10
2.4711336
20
4.9641759
11
2.4711336
21
4.9668759
0
LINE
8
DEFAULT_255_2_778
10
6.3325336
20
2.8183759
11
6.3325336
21
4.9615759
0
LINE
8
DEFAULT_255_2_778
10
6.3325336
20
4.9615759
11
6.6698336
21
4.9615759
0
ENDSEC
0
EOF