0
SECTION
2
HEADER
9
$MEASUREMENT
70
1
0
ENDSEC
0
SECTION
2
TABLES
0
TABLE
2
LTYPE
0
LTYPE
72
65
70
64
2
CONTINUOUS
3
______
73
0
40
0
0
ENDTAB
0
TABLE
2
LAYER
0
LAYER
2
DEFAULT_255_2_778
70
0
62
255
6
CONTINUOUS
0
ENDTAB
0
ENDSEC
0
SECTION
2
ENTITIES
0
ARC
8
DEFAULT_255_2_778
10
17.657139
20
0.9815982
40
0.9011768
50
359.182594
51
21.2052551
0
ARC
8
DEFAULT_255_2_778
10
17.7514982
20
0.9980214
40
0.8074857
50
22.5407253
51
58.7568854
0
ARC
8
DEFAULT_255_2_778
10
17.4346385
20
0.5147168
40
1.3851922
50
57.920039
51
71.5832937
0
ARC
8
DEFAULT_255_2_778
10
17.1344723
20
-0.3594621
40
2.3094454
50
71.3695057
51
79.8916761
0
ARC
8
DEFAULT_255_2_778
10
16.9879753
20
-1.0825806
40
3.0471003
50
79.5662123
51
80.5699193
0
ARC
8
DEFAULT_255_2_778
10
18.7775774
20
10.025465
40
8.2042311
50
260.4475631
51
260.951005
0
ARC
8
DEFAULT_255_2_778
10
18.4280922
20
7.9558277
40
6.1052941
50
259.6417133
51
260.4586618
0
ARC
8
DEFAULT_255_2_778
10
18.1177858
20
6.2592149
40
4.3805376
50
258.6477663
51
259.6442382
0
ARC
8
DEFAULT_255_2_778
10
17.9513614
20
5.4225165
40
3.5274501
50
258.2368372
51
258.6229583
0
ARC
8
DEFAULT_255_2_778
10
17.6799237
20
4.1633916
40
2.2394498
50
254.6834349
51
258.4682157
0
ARC
8
DEFAULT_255_2_778
10
17.3265366
20
2.8936616
40
0.9214874
50
246.880945
51
255.0212791
0
ARC
8
DEFAULT_255_2_778
10
17.0862852
20
2.3449326
40
0.3225402
50
227.7751023
51
247.858442
0
ARC
8
DEFAULT_255_2_778
10
17.0043809
20
2.2404261
40
0.19035
50
175.4754434
51
224.889785
0
ARC
8
DEFAULT_255_2_778
10
17.1134306
20
2.2673821
40
0.299045
50
118.3800129
51
182.2882634
0
ARC
8
DEFAULT_255_2_778
10
17.2668223
20
2.0092984
40
0.5991462
50
103.1612238
51
119.5548532
0
ARC
8
DEFAULT_255_2_778
10
17.4121532
20
1.4230611
40
1.2031025
50
93.9664531
51
103.5437395
0
ARC
8
DEFAULT_255_2_778
10
17.4821444
20
0.5908593
40
2.0381891
50
89.8572024
51
94.3110452
0
ARC
8
DEFAULT_255_2_778
10
17.4851536
20
0.810299
40
1.8187443
50
73.2022821
51
89.9347733
0
ARC
8
DEFAULT_255_2_778
10
17.6227465
20
1.2438833
40
1.3639122
50
60.7116573
51
73.4719259
0
ARC
8
DEFAULT_255_2_778
10
17.9261234
20
1.7801107
40
0.7478214
50
45.9552046
51
60.8856322
0
ARC
8
DEFAULT_255_2_778
10
17.9486065
20
2.629821
40
0.5305186
50
0.1102786
51
13.7948362
0
ARC
8
DEFAULT_255_2_778
10
17.9204032
20
2.6239678
40
0.5593049
50
13.6882369
51
15.6069977
0
ARC
8
DEFAULT_255_2_778
10
17.8583637
20
2.6014683
40
0.62513
50
16.0633445
51
41.9576089
0
ARC
8
DEFAULT_255_2_778
10
17.7236592
20
2.4819947
40
0.8051804
50
41.8711142
51
60.4807454
0
ARC
8
DEFAULT_255_2_778
10
17.5810182
20
2.2337294
40
1.0915014
50
60.3862325
51
74.0555929
0
ARC
8
DEFAULT_255_2_778
10
17.4654801
20
1.8381109
40
1.5036408
50
73.9635705
51
84.1673806
0
ARC
8
DEFAULT_255_2_778
10
17.4120049
20
1.3655588
40
1.9791875
50
84.0175281
51
90.1152394
0
ARC
8
DEFAULT_255_2_778
10
17.4001531
20
1.4861696
40
1.8585892
50
89.7573549
51
103.6489838
0
ARC
8
DEFAULT_255_2_778
10
17.3147471
20
1.8293089
40
1.5049882
50
103.5719852
51
121.3844745
0
ARC
8
DEFAULT_255_2_778
10
17.1560433
20
2.0823597
40
1.2063171
50
121.2087021
51
147.0756295
0
ARC
8
DEFAULT_255_2_778
10
17.0094455
20
2.1816167
40
1.0293217
50
147.2779479
51
179.9540562
0
ARC
8
DEFAULT_255_2_778
10
16.8428153
20
2.1682945
40
0.8628071
50
179.0604696
51
200.6974177
0
ARC
8
DEFAULT_255_2_778
10
16.7053505
20
2.1346195
40
0.7225145
50
202.0522286
51
239.0746826
0
ARC
8
DEFAULT_255_2_778
10
17.0006914
20
2.5914944
40
1.2663568
50
238.2350338
51
251.7495957
0
ARC
8
DEFAULT_255_2_778
10
17.2999055
20
3.4710659
40
2.1954055
50
251.5223646
51
259.7415468
0
ARC
8
DEFAULT_255_2_778
10
17.4861493
20
4.4045931
40
3.1472236
50
259.4317669
51
261.7495988
0
ARC
8
DEFAULT_255_2_778
10
16.3671984
20
-3.4669574
40
4.8034796
50
79.3728907
51
82.014327
0
ARC
8
DEFAULT_255_2_778
10
16.8628784
20
-0.857267
40
2.1471468
50
74.5077873
51
79.530557
0
ARC
8
DEFAULT_255_2_778
10
17.2151867
20
0.3922751
40
0.8489199
50
64.61067
51
74.8955877
0
ARC
8
DEFAULT_255_2_778
10
17.4575787
20
0.8872427
40
0.2979056
50
39.0253591
51
65.9099492
0
ARC
8
DEFAULT_255_2_778
10
17.4950322
20
0.9381928
40
0.2372678
50
356.7743535
51
35.1591269
0
ARC
8
DEFAULT_255_2_778
10
17.4233063
20
0.9104643
40
0.3089525
50
290.157879
51
2.6673555
0
ARC
8
DEFAULT_255_2_778
10
17.2461126
20
1.2989835
40
0.7354523
50
277.4015561
51
292.686976
0
ARC
8
DEFAULT_255_2_778
10
17.1330964
20
2.0761177
40
1.5207174
50
269.5752926
51
277.8522542
0
ARC
8
DEFAULT_255_2_778
10
17.1234973
20
2.268086
40
1.7126447
50
265.2648346
51
269.9440235
0
ARC
8
DEFAULT_255_2_778
10
17.1483837
20
2.5373316
40
1.9830275
50
250.1000171
51
265.1904304
0
ARC
8
DEFAULT_255_2_778
10
16.9455126
20
1.9919315
40
1.4011503
50
239.908743
51
250.3091564
0
ARC
8
DEFAULT_255_2_778
10
16.6027195
20
1.4048078
40
0.7212888
50
227.262542
51
240.0853154
0
ARC
8
DEFAULT_255_2_778
10
16.5431971
20
0.5074429
40
0.4632877
50
181.7441431
51
222.1671893
0
ARC
8
DEFAULT_255_2_778
10
16.8410139
20
0.7534835
40
0.8493739
50
220.9825285
51
240.7990624
0
ARC
8
DEFAULT_255_2_778
10
17.060942
20
1.1329106
40
1.2878967
50
240.4936184
51
256.0213295
0
ARC
8
DEFAULT_255_2_778
10
17.1535601
20
1.4875199
40
1.6543827
50
255.8753305
51
270.1504208
0
ARC
8
DEFAULT_255_2_778
10
17.1591938
20
1.0664703
40
1.233328
50
269.9400533
51
270.0199916
0
ARC
8
DEFAULT_255_2_778
10
17.1709762
20
2.2309512
40
2.397836
50
269.7287432
51
278.9232936
0
ARC
8
DEFAULT_255_2_778
10
17.2921975
20
1.4816427
40
1.6387973
50
278.7999697
51
291.7631174
0
ARC
8
DEFAULT_255_2_778
10
17.4921583
20
0.9939355
40
1.1117227
50
291.511547
51
313.4517762
0
ARC
8
DEFAULT_255_2_778
10
17.5728293
20
0.8862758
40
0.9782083
50
314.3584395
51
351.0913826
0
ARC
8
DEFAULT_255_2_778
10
17.2160915
20
0.9615787
40
1.3424405
50
350.2740119
51
0.1947688
0
ARC
8
DEFAULT_255_2_778
10
20.636884
20
1.1077498
40
1.8088073
50
179.5852867
51
191.5440601
0
ARC
8
DEFAULT_255_2_778
10
20.0095068
20
0.9735616
40
1.1672824
50
191.2533701
51
211.9361828
0
ARC
8
DEFAULT_255_2_778
10
19.8274351
20
0.8756839
40
0.9610861
50
212.7260332
51
249.1004581
0
ARC
8
DEFAULT_255_2_778
10
19.9966309
20
1.2890229
40
1.4076278
50
248.6684506
51
263.1013816
0
ARC
8
DEFAULT_255_2_778
10
20.0796554
20
1.8880334
40
2.0123011
50
262.8031424
51
270.1784885
0
ARC
8
DEFAULT_255_2_778
10
20.0970481
20
1.142541
40
1.2668478
50
269.4968871
51
281.5820331
0
ARC
8
DEFAULT_255_2_778
10
20.2089581
20
0.6190774
40
0.7315886
50
281.2268571
51
301.1824912
0
ARC
8
DEFAULT_255_2_778
10
20.3276735
20
0.4126088
40
0.493512
50
301.8023116
51
2.7332076
0
ARC
8
DEFAULT_255_2_778
10
20.443673
20
1.3148234
40
0.6740421
50
281.4927551
51
300.682568
0
ARC
8
DEFAULT_255_2_778
10
20.2619901
20
2.1322198
40
1.5113251
50
272.5133078
51
282.0682092
0
ARC
8
DEFAULT_255_2_778
10
20.1897686
20
3.277307
40
2.6585683
50
269.9106803
51
272.9861132
0
ARC
8
DEFAULT_255_2_778
10
20.1700426
20
1.2922231
40
0.6736612
50
250.2763976
51
271.325348
0
ARC
8
DEFAULT_255_2_778
10
20.0870883
20
1.0386652
40
0.4070524
50
197.3496161
51
249.222908
0
ARC
8
DEFAULT_255_2_778
10
20.4594141
20
1.1744238
40
0.803136
50
183.2860228
51
198.6733632
0
ARC
8
DEFAULT_255_2_778
10
20.9408178
20
1.218724
40
1.2863951
50
179.9145705
51
184.0268804
0
ARC
8
DEFAULT_255_2_778
10
20.322208
20
3.1726387
40
0.6362287
50
269.4250838
51
287.6024362
0
ARC
8
DEFAULT_255_2_778
10
20.3741191
20
3.0102772
40
0.465771
50
287.5556149
51
313.9560485
0
ARC
8
DEFAULT_255_2_778
10
20.4227888
20
2.9586071
40
0.3947941
50
314.0762957
51
341.9798227
0
ARC
8
DEFAULT_255_2_778
10
20.4871223
20
2.9369513
40
0.3269178
50
342.1010734
51
359.3697629
0
ARC
8
DEFAULT_255_2_778
10
20.5067944
20
2.9348841
40
0.3072297
50
359.7149125
51
359.9921729
0
ARC
8
DEFAULT_255_2_778
10
19.4644938
20
3.6909068
40
0.3436232
50
91.2956302
51
113.2899495
0
ARC
8
DEFAULT_255_2_778
10
19.5220631
20
3.5323146
40
0.5121488
50
112.1905561
51
115.9173267
0
ARC
8
DEFAULT_255_2_778
10
19.6555093
20
3.2932758
40
0.7856262
50
117.0512657
51
137.1192771
0
ARC
8
DEFAULT_255_2_778
10
19.7479747
20
3.1928927
40
0.9217517
50
136.4580338
51
138.2939848
0
ARC
8
DEFAULT_255_2_778
10
20.8245036
20
2.3682008
40
2.2763498
50
140.8252829
51
143.7553294
0
ARC
8
DEFAULT_255_2_778
10
19.8658449
20
3.0696968
40
1.0884437
50
143.7007949
51
149.452145
0
ARC
8
DEFAULT_255_2_778
10
19.5340726
20
3.265711
40
0.7030942
50
149.4670192
51
172.5682576
0
ARC
8
DEFAULT_255_2_778
10
20.1714188
20
3.171743
40
1.3472836
50
172.1114668
51
178.8402101
0
ARC
8
DEFAULT_255_2_778
10
21.0902909
20
3.1392707
40
2.2666672
50
178.4896836
51
180.0361116
0
ARC
8
DEFAULT_255_2_778
10
22.3286433
20
1.0414617
40
0.6922025
50
341.9414002
51
1.0744919
0
ARC
8
DEFAULT_255_2_778
10
22.5994441
20
0.9570795
40
0.4086008
50
279.0727056
51
341.4197712
0
ARC
8
DEFAULT_255_2_778
10
22.4928908
20
1.3713311
40
0.8354252
50
269.4673347
51
281.8100549
0
ARC
8
DEFAULT_255_2_778
10
22.4740154
20
1.5172981
40
0.9814189
50
256.3203664
51
270.6485453
0
ARC
8
DEFAULT_255_2_778
10
22.3605113
20
1.0746023
40
0.5244678
50
231.3462166
51
256.9310598
0
ARC
8
DEFAULT_255_2_778
10
22.2627322
20
0.9405302
40
0.3587681
50
178.2890424
51
230.1668859
0
ARC
8
DEFAULT_255_2_778
10
22.2321892
20
0.9778399
40
0.3291415
50
117.8021684
51
184.6351132
0
ARC
8
DEFAULT_255_2_778
10
22.3917364
20
0.6829258
40
0.6644372
50
102.8046128
51
118.1105063
0
ARC
8
DEFAULT_255_2_778
10
22.5707481
20
-0.0571599
40
1.4258309
50
94.9185545
51
103.228036
0
ARC
8
DEFAULT_255_2_778
10
22.6959673
20
-1.3925217
40
2.7670307
50
90.3217802
51
95.131104
0
ARC
8
DEFAULT_255_2_778
10
22.7174589
20
-2.5034525
40
3.8780947
50
89.9960814
51
90.547119
0
ARC
8
DEFAULT_255_2_778
10
21.3364963
20
1.8414163
40
2.5044484
50
359.7672387
51
7.834467
0
ARC
8
DEFAULT_255_2_778
10
22.0767846
20
1.9458346
40
1.7568383
50
7.7518308
51
18.8853351
0
ARC
8
DEFAULT_255_2_778
10
22.5389324
20
2.1060983
40
1.2676971
50
18.7926538
51
35.3321963
0
ARC
8
DEFAULT_255_2_778
10
22.6050503
20
2.1108055
40
1.2115235
50
36.9591209
51
83.6925301
0
ARC
8
DEFAULT_255_2_778
10
22.4288224
20
1.2608272
40
2.0773281
50
81.4363578
51
90.2040571
0
ARC
8
DEFAULT_255_2_778
10
22.4140216
20
1.0903211
40
2.2478331
50
89.8113153
51
97.3818404
0
ARC
8
DEFAULT_255_2_778
10
22.3353657
20
1.684617
40
1.6483578
50
97.3245509
51
107.040086
0
ARC
8
DEFAULT_255_2_778
10
22.2038775
20
2.1081107
40
1.2049253
50
106.9632922
51
119.8466662
0
ARC
8
DEFAULT_255_2_778
10
22.0520636
20
2.3702998
40
0.9019587
50
119.7710131
51
137.352445
0
ARC
8
DEFAULT_255_2_778
10
21.9229821
20
2.4890442
40
0.726567
50
137.343749
51
161.5803204
0
ARC
8
DEFAULT_255_2_778
10
21.8724875
20
2.5094915
40
0.6722072
50
161.8739351
51
165.3391269
0
ARC
8
DEFAULT_255_2_778
10
21.8496996
20
2.5148103
40
0.6488155
50
165.2841986
51
177.8668744
0
ARC
8
DEFAULT_255_2_778
10
21.8268796
20
2.5163192
40
0.6259555
50
177.9271485
51
179.9979052
0
ARC
8
DEFAULT_255_2_778
10
21.6947259
20
1.8804861
40
0.5884403
50
134.8879482
51
141.5443703
0
ARC
8
DEFAULT_255_2_778
10
21.8203287
20
1.7554275
40
0.7656839
50
129.1786917
51
134.9426836
0
ARC
8
DEFAULT_255_2_778
10
21.890282
20
1.671804
40
0.8747006
50
127.4317325
51
129.2702631
0
ARC
8
DEFAULT_255_2_778
10
21.9921677
20
1.5316507
40
1.0479297
50
117.1411832
51
127.197602
0
ARC
8
DEFAULT_255_2_778
10
22.1248985
20
1.2748672
40
1.3369876
50
107.7326805
51
117.182945
0
ARC
8
DEFAULT_255_2_778
10
22.2233509
20
0.9692058
40
1.6581128
50
99.2125615
51
107.75609
0
ARC
8
DEFAULT_255_2_778
10
22.2864435
20
0.5841936
40
2.0482599
50
91.7037916
51
99.230442
0
ARC
8
DEFAULT_255_2_778
10
22.3003618
20
0.287696
40
2.345046
50
89.9911468
51
91.8283145
0
ARC
8
DEFAULT_255_2_778
10
22.3163826
20
0.9405518
40
1.6922627
50
82.1430365
51
90.5301645
0
ARC
8
DEFAULT_255_2_778
10
22.4545039
20
1.8881655
40
0.7346996
50
64.7560087
51
82.7112013
0
ARC
8
DEFAULT_255_2_778
10
22.5800833
20
2.1700855
40
0.4261986
50
11.1579771
51
63.8626662
0
ARC
8
DEFAULT_255_2_778
10
22.0695048
20
2.0369262
40
0.9534258
50
359.882533
51
13.0716057
0
ARC
8
DEFAULT_255_2_778
10
21.5944025
20
2.0184442
40
1.4286216
50
359.995906
51
0.662855
0
ARC
8
DEFAULT_255_2_778
10
22.7178357
20
-2.2232421
40
4.2000972
50
89.8569221
51
94.9130448
0
ARC
8
DEFAULT_255_2_778
10
22.6061503
20
-0.9507202
40
2.9226865
50
94.8681234
51
101.3856237
0
ARC
8
DEFAULT_255_2_778
10
22.4147045
20
-0.0174344
40
1.9699764
50
101.2856567
51
110.5241069
0
ARC
8
DEFAULT_255_2_778
10
22.1771417
20
0.6084409
40
1.3005424
50
110.3897107
51
123.9133152
0
ARC
8
DEFAULT_255_2_778
10
21.9508019
20
0.9404705
40
0.898717
50
123.7486057
51
146.8811238
0
ARC
8
DEFAULT_255_2_778
10
21.9847401
20
0.9441737
40
0.9253712
50
148.2214072
51
181.3456723
0
ARC
8
DEFAULT_255_2_778
10
22.0305211
20
0.9234919
40
0.9708976
50
180.0619535
51
238.7349793
0
ARC
8
DEFAULT_255_2_778
10
22.277348
20
1.2720872
40
1.3972942
50
237.5022136
51
255.7150391
0
ARC
8
DEFAULT_255_2_778
10
22.3908266
20
1.6997602
40
1.8397495
50
255.5766419
51
269.3152437
0
ARC
8
DEFAULT_255_2_778
10
22.4043883
20
1.9661409
40
2.1062988
50
269.0329599
51
270.0009743
0
ARC
8
DEFAULT_255_2_778
10
22.579937
20
1.3636018
40
1.5037904
50
269.633739
51
287.154402
0
ARC
8
DEFAULT_255_2_778
10
22.6821756
20
1.0497254
40
1.1737334
50
286.9047976
51
317.7457735
0
ARC
8
DEFAULT_255_2_778
10
22.7033895
20
1.011365
40
1.1323254
50
318.4606943
51
350.5557572
0
ARC
8
DEFAULT_255_2_778
10
22.4896489
20
1.0569072
40
1.3506778
50
350.1378038
51
0.1117734
0
ARC
8
DEFAULT_255_2_778
10
25.6122139
20
1.9829944
40
1.418336
50
261.9322015
51
270.6225314
0
ARC
8
DEFAULT_255_2_778
10
25.4814624
20
1.1157831
40
0.541413
50
242.0944464
51
262.7522582
0
ARC
8
DEFAULT_255_2_778
10
25.3868633
20
0.9143993
40
0.3193499
50
187.4355802
51
240.1830594
0
ARC
8
DEFAULT_255_2_778
10
25.7893727
20
1.0022428
40
0.7306822
50
179.4511463
51
190.1823365
0
ARC
8
DEFAULT_255_2_778
10
24.4681856
20
3.5235521
40
0.5908541
50
358.1271508
51
33.5479948
0
ARC
8
DEFAULT_255_2_778
10
24.5725162
20
3.5703481
40
0.4784053
50
35.7828682
51
72.2021353
0
ARC
8
DEFAULT_255_2_778
10
24.4782785
20
3.2939734
40
0.7703756
50
71.8116064
51
89.2501458
0
ARC
8
DEFAULT_255_2_778
10
24.4609677
20
3.0200073
40
1.0446347
50
88.4974019
51
90.0078779
0
ARC
8
DEFAULT_255_2_778
10
25.7028583
20
0.9170102
40
1.4783857
50
179.5220631
51
192.5196822
0
ARC
8
DEFAULT_255_2_778
10
25.1782104
20
0.7949055
40
0.9397595
50
192.1861402
51
215.5982055
0
ARC
8
DEFAULT_255_2_778
10
25.0837672
20
0.7486519
40
0.8362223
50
216.7881274
51
252.3560658
0
ARC
8
DEFAULT_255_2_778
10
25.2431392
20
1.2033834
40
1.3179432
50
251.7454466
51
266.4131534
0
ARC
8
DEFAULT_255_2_778
10
25.2894926
20
1.696599
40
1.8131578
50
265.9263092
51
270.0578766
0
ARC
8
DEFAULT_255_2_778
10
25.3066576
20
1.2132096
40
1.3298559
50
269.3393526
51
269.9963066
0
ARC
8
DEFAULT_255_2_778
10
25.3205998
20
0.7583222
40
0.875081
50
269.0814886
51
284.1960068
0
ARC
8
DEFAULT_255_2_778
10
25.4527991
20
0.2891858
40
0.3880718
50
282.2598587
51
348.6583962
0
ARC
8
DEFAULT_255_2_778
10
25.1103262
20
0.3773639
40
0.741444
50
347.181787
51
0.6397157
0
ARC
8
DEFAULT_255_2_778
10
26.9553771
20
0.4900232
40
0.9047396
50
179.2071714
51
194.250925
0
ARC
8
DEFAULT_255_2_778
10
26.5171869
20
0.3686124
40
0.4502531
50
193.003018
51
233.8691362
0
ARC
8
DEFAULT_255_2_778
10
26.5409463
20
0.4368936
40
0.5198385
50
236.1921732
51
263.7715432
0
ARC
8
DEFAULT_255_2_778
10
26.5971357
20
0.7799539
40
0.8671704
50
262.5399974
51
270.2051792
0
ARC
8
DEFAULT_255_2_778
10
26.6001189
20
0.9687652
40
1.055976
50
270.0066295
51
271.2537595
0
ARC
8
DEFAULT_255_2_778
10
28.6361729
20
0.7263707
40
0.8308857
50
226.4424768
51
268.3207297
0
ARC
8
DEFAULT_255_2_778
10
28.623478
20
0.7213431
40
0.8255832
50
269.1911865
51
283.3142271
0
ARC
8
DEFAULT_255_2_778
10
28.7048359
20
0.3681482
40
0.4631506
50
283.5822613
51
340.5181936
0
ARC
8
DEFAULT_255_2_778
10
28.1358382
20
0.6456287
40
1.0944731
50
336.7552309
51
341.9627947
0
ARC
8
DEFAULT_255_2_778
10
30.218752
20
3.5741932
40
3.4296466
50
252.1429035
51
252.3087333
0
ARC
8
DEFAULT_255_2_778
10
29.5753476
20
1.6313449
40
1.3832003
50
245.5701075
51
252.8324112
0
ARC
8
DEFAULT_255_2_778
10
29.4296443
20
1.2811116
40
1.0041383
50
234.484971
51
244.8744688
0
ARC
8
DEFAULT_255_2_778
10
29.7982765
20
1.8006973
40
1.6412074
50
229.0903905
51
234.5472109
0
ARC
8
DEFAULT_255_2_778
10
30.653246
20
2.7962891
40
2.9535172
50
226.1708902
51
229.203742
0
ARC
8
DEFAULT_255_2_778
10
31.8810717
20
4.0870187
40
4.7349487
50
224.9326528
51
226.2686506
0
ARC
8
DEFAULT_255_2_778
10
34.8872944
20
6.8915916
40
8.8450394
50
217.9700205
51
224.0402566
0
ARC
8
DEFAULT_255_2_778
10
-151.7153255
20
-142.2927056
40
230.0624608
50
38.6673084
51
38.746823
0
ARC
8
DEFAULT_255_2_778
10
7.1116274
20
-14.8892903
40
26.4510278
50
38.838408
51
38.8845936
0
ARC
8
DEFAULT_255_2_778
10
34.7486924
20
-3.8172086
40
8.9595879
50
141.0118599
51
141.8653444
0
ARC
8
DEFAULT_255_2_778
10
38.5199016
20
-6.8671274
40
13.8097446
50
140.3449728
51
141.0204185
0
ARC
8
DEFAULT_255_2_778
10
43.1356975
20
-10.6933185
40
19.8051855
50
139.6642873
51
140.3445278
0
ARC
8
DEFAULT_255_2_778
10
47.5676199
20
-14.4540323
40
25.6176636
50
138.946148
51
139.6686883
0
ARC
8
DEFAULT_255_2_778
10
48.7272079
20
-15.4588581
40
27.1520382
50
138.695736
51
138.9542694
0
ARC
8
DEFAULT_255_2_778
10
47.1550006
20
-14.0712635
40
25.0550805
50
137.9382255
51
138.7063343
0
ARC
8
DEFAULT_255_2_778
10
42.398197
20
-9.7774435
40
18.6469553
50
137.222575
51
137.9416
0
ARC
8
DEFAULT_255_2_778
10
37.9922032
20
-5.7010457
40
12.6444725
50
136.5031084
51
137.2213319
0
ARC
8
DEFAULT_255_2_778
10
34.3205541
20
-2.2116706
40
7.5792261
50
135.361914
51
136.5332078
0
ARC
8
DEFAULT_255_2_778
10
31.5026758
20
0.5751946
40
3.6160158
50
133.548528
51
135.4111011
0
ARC
8
DEFAULT_255_2_778
10
30.0121486
20
2.1448592
40
1.4514109
50
130.8439612
51
133.5930952
0
ARC
8
DEFAULT_255_2_778
10
28.5561757
20
1.7892708
40
1.4803642
50
88.8601583
51
100.1733654
0
ARC
8
DEFAULT_255_2_778
10
28.4303184
20
2.536515
40
0.7226839
50
100.8159683
51
131.3018456
0
ARC
8
DEFAULT_255_2_778
10
28.5586908
20
2.3723531
40
0.9308146
50
130.568573
51
131.9403672
0
ARC
8
DEFAULT_255_2_778
10
28.5883376
20
2.3392757
40
0.9752336
50
131.9371381
51
132.9201915
0
ARC
8
DEFAULT_255_2_778
10
34.264517
20
-3.3158573
40
8.9870622
50
134.8692367
51
144.1230843
0
ARC
8
DEFAULT_255_2_778
10
-523.300433
20
421.826138
40
692.1751652
50
322.6471376
51
322.6557573
0
ARC
8
DEFAULT_255_2_778
10
-40.2757872
20
53.1661152
40
84.5379212
50
322.6111052
51
322.6412545
0
ARC
8
DEFAULT_255_2_778
10
25.9927154
20
3.5209206
40
0.8996845
50
359.2562415
51
359.9976705
0
ARC
8
DEFAULT_255_2_778
10
26.2679886
20
3.5366214
40
0.6246096
50
358.5562463
51
25.3564662
0
ARC
8
DEFAULT_255_2_778
10
26.4408498
20
3.6056785
40
0.4389819
50
26.8737181
51
72.8347132
0
ARC
8
DEFAULT_255_2_778
10
26.3411483
20
3.3142007
40
0.7469584
50
72.1261739
51
89.3357903
0
ARC
8
DEFAULT_255_2_778
10
26.3235758
20
3.0287635
40
1.0326785
50
88.5444492
51
90.0084173
0
LINE
8
DEFAULT_255_2_778
10
18.4460241
20
2.3176421
11
18.4791241
21
2.3176421
0
LINE
8
DEFAULT_255_2_778
10
18.4791241
20
2.3176421
11
18.4791241
21
2.6308421
0
LINE
8
DEFAULT_255_2_778
10
16.1132241
20
0.8750421
11
16.0801241
21
0.8750421
0
LINE
8
DEFAULT_255_2_778
10
16.0801241
20
0.8750421
11
16.0801241
21
0.4933421
0
LINE
8
DEFAULT_255_2_778
10
18.5585241
20
0.9661421
11
18.5582241
21
0.9687421
0
LINE
8
DEFAULT_255_2_778
10
18.8281241
20
3.1383421
11
18.8281241
21
1.1208421
0
LINE
8
DEFAULT_255_2_778
10
20.8206241
20
0.4361421
11
20.8206241
21
0.7351421
0
LINE
8
DEFAULT_255_2_778
10
20.8206241
20
0.7351421
11
20.7876241
21
0.7351421
0
LINE
8
DEFAULT_255_2_778
10
19.6544241
20
1.2206421
11
19.6544241
21
2.5364421
0
LINE
8
DEFAULT_255_2_778
10
19.6544241
20
2.5364421
11
20.3158241
21
2.5364421
0
LINE
8
DEFAULT_255_2_778
10
20.8140241
20
2.9348421
11
20.8140241
21
3.2751421
0
LINE
8
DEFAULT_255_2_778
10
20.8140241
20
3.2751421
11
19.6517241
21
3.2751421
0
LINE
8
DEFAULT_255_2_778
10
19.6517241
20
3.2751421
11
19.6517241
21
4.0344421
0
LINE
8
DEFAULT_255_2_778
10
19.6517241
20
4.0344421
11
19.4567241
21
4.0344421
0
LINE
8
DEFAULT_255_2_778
10
18.8236241
20
3.1378421
11
18.8281241
21
3.1383421
0
LINE
8
DEFAULT_255_2_778
10
22.7177241
20
1.3746421
11
23.0167241
21
1.3746421
0
LINE
8
DEFAULT_255_2_778
10
23.0167241
20
1.3746421
11
23.0167241
21
1.0550421
0
LINE
8
DEFAULT_255_2_778
10
23.0167241
20
1.0550421
11
23.0207241
21
1.0544421
0
LINE
8
DEFAULT_255_2_778
10
23.8409241
20
1.0587421
11
23.8409241
21
1.8312421
0
LINE
8
DEFAULT_255_2_778
10
21.2009241
20
2.5163421
11
21.2009241
21
2.2464421
0
LINE
8
DEFAULT_255_2_778
10
21.2009241
20
2.2464421
11
21.2339241
21
2.2464421
0
LINE
8
DEFAULT_255_2_778
10
23.0230241
20
2.0183421
11
23.0230241
21
1.9768421
0
LINE
8
DEFAULT_255_2_778
10
23.0230241
20
1.9768421
11
22.7283241
21
1.9768421
0
LINE
8
DEFAULT_255_2_778
10
22.4044241
20
-0.1401579
11
22.5703241
21
-0.1401579
0
LINE
8
DEFAULT_255_2_778
10
23.8403241
20
1.0595421
11
23.8409241
21
1.0587421
0
LINE
8
DEFAULT_255_2_778
10
25.8517241
20
0.3861421
11
25.8517241
21
0.5647421
0
LINE
8
DEFAULT_255_2_778
10
25.8517241
20
0.5647421
11
25.6276241
21
0.5647421
0
LINE
8
DEFAULT_255_2_778
10
25.0587241
20
1.0092421
11
25.0587241
21
3.5042421
0
LINE
8
DEFAULT_255_2_778
10
24.4608241
20
4.0646421
11
24.2245241
21
4.0646421
0
LINE
8
DEFAULT_255_2_778
10
24.2245241
20
4.0646421
11
24.2245241
21
0.9293421
0
LINE
8
DEFAULT_255_2_778
10
25.8517241
20
0.3856421
11
25.8517241
21
0.3861421
0
LINE
8
DEFAULT_255_2_778
10
26.3205241
20
4.0638421
11
26.0507241
21
4.0638421
0
LINE
8
DEFAULT_255_2_778
10
26.0507241
20
4.0638421
11
26.0507241
21
0.5025421
0
LINE
8
DEFAULT_255_2_778
10
26.6232241
20
-0.0869579
11
26.8931241
21
-0.0789579
0
LINE
8
DEFAULT_255_2_778
10
26.8931241
20
-0.0789579
11
26.8931241
21
1.5561421
0
LINE
8
DEFAULT_255_2_778
10
26.8931241
20
1.5561421
11
28.0636241
21
0.1242421
0
LINE
8
DEFAULT_255_2_778
10
29.0629241
20
3.2428421
11
29.0629241
21
3.2693421
0
LINE
8
DEFAULT_255_2_778
10
29.0629241
20
3.2693421
11
28.5856241
21
3.2693421
0
LINE
8
DEFAULT_255_2_778
10
26.8923241
20
1.8328421
11
26.8923241
21
3.5092421
0
LINE
8
DEFAULT_255_2_778
10
26.3234241
20
4.0614421
11
26.3205241
21
4.0638421
0
ARC
8
DEFAULT_255_2_778
10
3.9954514
20
7.6228822
40
1.369605
50
127.4483792
51
128.0268377
0
ARC
8
DEFAULT_255_2_778
10
5.1393174
20
6.1573731
40
3.228676
50
127.9957902
51
128.7171333
0
ARC
8
DEFAULT_255_2_778
10
5.9538918
20
5.1393403
40
4.5324863
50
128.7021054
51
129.4022767
0
ARC
8
DEFAULT_255_2_778
10
6.5336348
20
4.4337843
40
5.4456736
50
129.4034621
51
130.4296802
0
ARC
8
DEFAULT_255_2_778
10
6.8732247
20
4.0343871
40
5.9699245
50
130.4247071
51
131.7015442
0
ARC
8
DEFAULT_255_2_778
10
6.8979393
20
4.005522
40
6.0079172
50
131.694391
51
133.3858167
0
ARC
8
DEFAULT_255_2_778
10
6.5689359
20
4.3507937
40
5.5309981
50
133.365806
51
135.9782273
0
ARC
8
DEFAULT_255_2_778
10
6.1662538
20
4.7432788
40
4.9686893
50
136.0057872
51
137.0365597
0
ARC
8
DEFAULT_255_2_778
10
4.9469034
20
5.8229127
40
3.340829
50
136.3340393
51
148.7955409
0
ARC
8
DEFAULT_255_2_778
10
3.6019944
20
6.6646432
40
1.7545538
50
149.5519802
51
157.7287013
0
ARC
8
DEFAULT_255_2_778
10
3.2004056
20
6.8351002
40
1.3183333
50
157.9695439
51
161.9176264
0
ARC
8
DEFAULT_255_2_778
10
3.0831925
20
6.8744855
40
1.1946852
50
161.9684159
51
162.762337
0
ARC
8
DEFAULT_255_2_778
10
4.5939688
20
6.3974551
40
2.7789757
50
162.5993209
51
166.8590098
0
ARC
8
DEFAULT_255_2_778
10
4.1071917
20
6.5105026
40
2.2792445
50
166.8444134
51
171.9771816
0
ARC
8
DEFAULT_255_2_778
10
3.7053738
20
6.5667281
40
1.8735122
50
171.9647797
51
178.0819114
0
ARC
8
DEFAULT_255_2_778
10
3.498429
20
6.5762556
40
1.6663663
50
178.1711569
51
179.9929196
0
ARC
8
DEFAULT_255_2_778
10
3.2723228
20
6.5707478
40
1.4402714
50
179.7727001
51
191.4762846
0
ARC
8
DEFAULT_255_2_778
10
3.0579381
20
6.5282251
40
1.2217129
50
191.5223375
51
208.4572509
0
ARC
8
DEFAULT_255_2_778
10
3.1034645
20
6.5579581
40
1.2759141
50
208.6569458
51
222.1870694
0
ARC
8
DEFAULT_255_2_778
10
3.1142006
20
6.5592497
40
1.2847518
50
221.9082088
51
232.6468023
0
ARC
8
DEFAULT_255_2_778
10
3.0328492
20
6.4532283
40
1.1511162
50
232.663778
51
245.1074911
0
ARC
8
DEFAULT_255_2_778
10
3.0106037
20
6.4087442
40
1.1014022
50
245.1831718
51
248.6169438
0
ARC
8
DEFAULT_255_2_778
10
2.9999246
20
6.379323
40
1.0701128
50
248.575017
51
261.4269393
0
ARC
8
DEFAULT_255_2_778
10
2.9931725
20
6.3363932
40
1.0266562
50
261.4424052
51
269.9655978
0
ARC
8
DEFAULT_255_2_778
10
2.9932985
20
6.2778215
40
0.9680847
50
269.9560624
51
277.5711181
0
ARC
8
DEFAULT_255_2_778
10
2.9981553
20
6.2350728
40
0.9250692
50
277.6217759
51
278.1356161
0
ARC
8
DEFAULT_255_2_778
10
3.0122084
20
6.1394634
40
0.8284334
50
278.1092458
51
287.6390623
0
ARC
8
DEFAULT_255_2_778
10
2.9897202
20
6.2179456
40
0.910043
50
287.491061
51
288.2481365
0
ARC
8
DEFAULT_255_2_778
10
2.9273812
20
6.3749216
40
1.0786919
50
288.7819331
51
311.7863755
0
ARC
8
DEFAULT_255_2_778
10
2.947142
20
6.3718823
40
1.0633339
50
311.1015555
51
341.4222594
0
ARC
8
DEFAULT_255_2_778
10
2.458026
20
6.5131721
40
1.5721294
50
342.220441
51
356.4425184
0
ARC
8
DEFAULT_255_2_778
10
2.4316017
20
6.5165812
40
1.5987155
50
356.3793385
51
359.9972305
0
ARC
8
DEFAULT_255_2_778
10
2.5736837
20
6.5255551
40
1.4566616
50
359.6439822
51
20.8930165
0
ARC
8
DEFAULT_255_2_778
10
2.8495321
20
6.6220883
40
1.1645535
50
21.2958815
51
30.6525631
0
ARC
8
DEFAULT_255_2_778
10
9.6863377
20
10.6713959
40
6.7814394
50
207.2131904
51
210.63484
0
ARC
8
DEFAULT_255_2_778
10
12.1119095
20
11.9456102
40
9.521259
50
207.2977943
51
207.3573287
0
ARC
8
DEFAULT_255_2_778
10
12.0467445
20
11.9122807
40
9.4480657
50
207.2405631
51
207.2994195
0
ARC
8
DEFAULT_255_2_778
10
11.9932598
20
11.8850359
40
9.3880422
50
207.1840293
51
207.2421393
0
ARC
8
DEFAULT_255_2_778
10
13.0365381
20
12.421288
40
10.5610707
50
207.1355101
51
207.1861883
0
ARC
8
DEFAULT_255_2_778
10
13.0489935
20
12.4273468
40
10.5749184
50
207.0842887
51
207.1339446
0
ARC
8
DEFAULT_255_2_778
10
13.5542905
20
12.6853087
40
11.1422535
50
207.0360499
51
207.0822889
0
ARC
8
DEFAULT_255_2_778
10
13.6323952
20
12.7248941
40
11.2298167
50
206.9897948
51
207.0348098
0
ARC
8
DEFAULT_255_2_778
10
14.3259074
20
13.0777376
40
12.0079283
50
206.9469443
51
206.9882513
0
ARC
8
DEFAULT_255_2_778
10
14.5049678
20
13.1686227
40
12.2087336
50
206.906485
51
206.9463505
0
ARC
8
DEFAULT_255_2_778
10
14.0489383
20
12.9370389
40
11.697271
50
206.8649481
51
206.9057777
0
ARC
8
DEFAULT_255_2_778
10
14.9972386
20
13.4173522
40
12.7602736
50
206.8279886
51
206.8647172
0
ARC
8
DEFAULT_255_2_778
10
16.2614138
20
14.0564524
40
14.1768145
50
206.7946238
51
206.8270656
0
ARC
8
DEFAULT_255_2_778
10
14.8654344
20
13.351555
40
12.6129607
50
206.7592366
51
206.7950215
0
ARC
8
DEFAULT_255_2_778
10
15.2552062
20
13.548037
40
13.0494547
50
206.7250645
51
206.7590092
0
ARC
8
DEFAULT_255_2_778
10
16.8599453
20
14.3563622
40
14.846279
50
206.6969738
51
206.7262563
0
ARC
8
DEFAULT_255_2_778
10
17.6166976
20
14.7365074
40
15.6931463
50
206.668443
51
206.6956319
0
ARC
8
DEFAULT_255_2_778
10
17.0615175
20
14.4573239
40
15.071722
50
206.6395017
51
206.6672878
0
ARC
8
DEFAULT_255_2_778
10
19.7942332
20
15.8280338
40
18.1289398
50
206.6165754
51
206.639249
0
ARC
8
DEFAULT_255_2_778
10
17.4133911
20
14.6349627
40
15.4658913
50
206.5905785
51
206.6166662
0
ARC
8
DEFAULT_255_2_778
10
18.5366698
20
15.1976007
40
16.7222018
50
206.5680375
51
206.5917211
0
ARC
8
DEFAULT_255_2_778
10
17.9538446
20
14.9066381
40
16.0707846
50
206.545403
51
206.5695935
0
ARC
8
DEFAULT_255_2_778
10
20.1195958
20
15.9892175
40
18.4920356
50
206.5162201
51
206.5471549
0
ARC
8
DEFAULT_255_2_778
10
23.035056
20
17.4444604
40
21.7505076
50
206.4920965
51
206.5176753
0
ARC
8
DEFAULT_255_2_778
10
25.5368671
20
18.6905458
40
24.545465
50
206.4682944
51
206.4903402
0
ARC
8
DEFAULT_255_2_778
10
-16.9969857
20
-2.3573296
40
22.9114213
50
26.1787455
51
26.9731361
0
ARC
8
DEFAULT_255_2_778
10
-1.1666961
20
5.6658351
40
5.1641595
50
27.3036318
51
27.7584121
0
ARC
8
DEFAULT_255_2_778
10
4.8401543
20
8.8313629
40
1.6257492
50
203.4085727
51
207.8845564
0
ARC
8
DEFAULT_255_2_778
10
5.9821208
20
9.3316358
40
2.8724827
50
200.7968353
51
203.5165163
0
ARC
8
DEFAULT_255_2_778
10
7.634106
20
9.9565186
40
4.6387019
50
197.9701779
51
200.7674706
0
ARC
8
DEFAULT_255_2_778
10
8.5883485
20
10.27429
40
5.6444387
50
196.9270816
51
198.0500128
0
ARC
8
DEFAULT_255_2_778
10
7.8084515
20
10.0380761
40
4.8295552
50
196.2219368
51
196.9400158
0
ARC
8
DEFAULT_255_2_778
10
5.6087654
20
9.3990066
40
2.5389163
50
195.7495723
51
196.2416941
0
ARC
8
DEFAULT_255_2_778
10
3.3316584
20
8.7566911
40
0.1729523
50
195.58869
51
195.7102618
0
ARC
8
DEFAULT_255_2_778
10
1.0100406
20
5.4332944
40
0.7540931
50
177.0187888
51
177.2967551
0
ARC
8
DEFAULT_255_2_778
10
1.996503
20
5.3859858
40
1.7416893
50
177.2726945
51
177.5162769
0
ARC
8
DEFAULT_255_2_778
10
2.9213707
20
5.3460294
40
2.6674197
50
177.519731
51
177.8815384
0
ARC
8
DEFAULT_255_2_778
10
3.8354575
20
5.3119848
40
3.5821402
50
177.8778357
51
178.257618
0
ARC
8
DEFAULT_255_2_778
10
4.0958475
20
5.3034513
40
3.8426691
50
178.2484903
51
178.307234
0
ARC
8
DEFAULT_255_2_778
10
4.6516634
20
5.287383
40
4.3987171
50
178.3118912
51
178.6992679
0
ARC
8
DEFAULT_255_2_778
10
5.2216768
20
5.2743993
40
4.9688784
50
178.6987949
51
179.1616317
0
ARC
8
DEFAULT_255_2_778
10
5.6284553
20
5.2682263
40
5.3757036
50
179.1592824
51
179.5695604
0
ARC
8
DEFAULT_255_2_778
10
5.9166213
20
5.2659855
40
5.6638784
50
179.5687922
51
180.0013637
0
ARC
8
DEFAULT_255_2_778
10
6.1706445
20
5.2663036
40
5.9179017
50
180.0043853
51
181.1911476
0
ARC
8
DEFAULT_255_2_778
10
6.1502069
20
5.2652375
40
5.8974464
50
181.1849194
51
182.6920267
0
ARC
8
DEFAULT_255_2_778
10
5.717079
20
5.2437564
40
5.4637877
50
182.6803396
51
184.7296083
0
ARC
8
DEFAULT_255_2_778
10
4.6634911
20
5.1494574
40
4.4060179
50
184.6372044
51
189.2445823
0
ARC
8
DEFAULT_255_2_778
10
3.0846041
20
4.8816647
40
2.8046377
50
189.0266554
51
197.3909042
0
ARC
8
DEFAULT_255_2_778
10
2.0430843
20
4.5632449
40
1.7155721
50
197.6392158
51
204.4264386
0
ARC
8
DEFAULT_255_2_778
10
2.4597636
20
4.7513554
40
2.1727442
50
204.3991749
51
212.775291
0
ARC
8
DEFAULT_255_2_778
10
1.8891723
20
4.380624
40
1.4922998
50
212.6668696
51
224.7453051
0
ARC
8
DEFAULT_255_2_778
10
1.5908919
20
4.0824933
40
1.0705785
50
224.6506427
51
243.5362435
0
ARC
8
DEFAULT_255_2_778
10
1.5521591
20
4.027634
40
1.0042592
50
244.1197433
51
269.0476841
0
ARC
8
DEFAULT_255_2_778
10
1.5712603
20
4.2147332
40
1.1917572
50
268.2789648
51
269.9974059
0
ARC
8
DEFAULT_255_2_778
10
1.5745999
20
4.1338805
40
1.1109095
50
269.8249761
51
289.0573989
0
ARC
8
DEFAULT_255_2_778
10
1.581948
20
4.1063742
40
1.0825133
50
289.165151
51
309.5468193
0
ARC
8
DEFAULT_255_2_778
10
1.6165243
20
4.0665452
40
1.0297867
50
309.4743516
51
321.2525773
0
ARC
8
DEFAULT_255_2_778
10
1.6593623
20
3.9933326
40
0.9510363
50
323.0775824
51
342.0365449
0
ARC
8
DEFAULT_255_2_778
10
1.5257461
20
4.0453177
40
1.0942029
50
341.6049445
51
359.8795705
0
ARC
8
DEFAULT_255_2_778
10
1.5885807
20
4.0430782
40
1.0313659
50
359.9966463
51
1.9466357
0
ARC
8
DEFAULT_255_2_778
10
1.7064001
20
4.0536871
40
0.9132778
50
1.5325312
51
24.1005069
0
ARC
8
DEFAULT_255_2_778
10
1.3908678
20
3.9092996
40
1.2602678
50
24.2349571
51
59.0428077
0
ARC
8
DEFAULT_255_2_778
10
1.5296765
20
4.1324959
40
0.9974714
50
59.2854444
51
76.6750038
0
ARC
8
DEFAULT_255_2_778
10
1.2445954
20
2.7887426
40
2.3709724
50
77.455435
51
83.1369869
0
ARC
8
DEFAULT_255_2_778
10
0.9523916
20
0.5671472
40
4.6116322
50
82.8308728
51
84.2048661
0
ARC
8
DEFAULT_255_2_778
10
0.0089116
20
-9.1121557
40
14.3367841
50
84.3594419
51
85.2575446
0
ARC
8
DEFAULT_255_2_778
10
1.7225631
20
11.59754
40
6.4436909
50
263.5361466
51
265.296939
0
ARC
8
DEFAULT_255_2_778
10
1.2009793
20
7.0033187
40
1.819957
50
259.2337145
51
263.5697498
0
ARC
8
DEFAULT_255_2_778
10
1.0160932
20
6.0189813
40
0.8184122
50
254.1426776
51
259.0764862
0
ARC
8
DEFAULT_255_2_778
10
1.2452586
20
6.70044
40
1.5369374
50
248.8772551
51
252.8661013
0
ARC
8
DEFAULT_255_2_778
10
1.5557939
20
7.5217978
40
2.4150237
50
247.4085424
51
249.0271908
0
ARC
8
DEFAULT_255_2_778
10
1.9197177
20
8.3922953
40
3.3585302
50
245.4366149
51
247.3814051
0
ARC
8
DEFAULT_255_2_778
10
2.4621178
20
9.578814
40
4.6631469
50
243.4930993
51
245.4356501
0
ARC
8
DEFAULT_255_2_778
10
2.6536991
20
9.9702628
40
5.0989518
50
242.6256348
51
243.5297687
0
ARC
8
DEFAULT_255_2_778
10
2.2197146
20
9.1335337
40
4.1563715
50
242.0374305
51
242.6346959
0
ARC
8
DEFAULT_255_2_778
10
1.2141255
20
7.2412202
40
2.0134626
50
241.6159817
51
242.0628991
0
ARC
8
DEFAULT_255_2_778
10
5.440227
20
6.1818048
40
0.7036629
50
2.793339
51
3.0882189
0
ARC
8
DEFAULT_255_2_778
10
4.4878018
20
6.1344971
40
1.6572622
50
2.5689242
51
2.8222546
0
ARC
8
DEFAULT_255_2_778
10
3.5817259
20
6.0939912
40
2.564243
50
2.1933474
51
2.5656578
0
ARC
8
DEFAULT_255_2_778
10
2.718393
20
6.0607487
40
3.4282155
50
1.8039245
51
2.1963037
0
ARC
8
DEFAULT_255_2_778
10
2.4548808
20
6.0518253
40
3.6918781
50
1.7531648
51
1.8136056
0
ARC
8
DEFAULT_255_2_778
10
1.9362146
20
6.0362975
40
4.2107765
50
1.3485309
51
1.7484377
0
ARC
8
DEFAULT_255_2_778
10
1.39631
20
6.0236412
40
4.7508293
50
0.8697514
51
1.3478873
0
ARC
8
DEFAULT_255_2_778
10
1.0148688
20
6.0177371
40
5.1323161
50
0.4467836
51
0.8710165
0
ARC
8
DEFAULT_255_2_778
10
0.7579179
20
6.0156884
40
5.3892754
50
359.9986978
51
0.4472616
0
ARC
8
DEFAULT_255_2_778
10
0.5368637
20
6.0159434
40
5.6103297
50
358.7947567
51
359.9961452
0
ARC
8
DEFAULT_255_2_778
10
0.5708213
20
6.0146212
40
5.5763519
50
357.2773456
51
358.8010005
0
ARC
8
DEFAULT_255_2_778
10
1.040724
20
5.9905337
40
5.1058358
50
354.8401577
51
357.296863
0
ARC
8
DEFAULT_255_2_778
10
2.0388115
20
5.8956923
40
4.1032659
50
350.6500227
51
354.9057093
0
ARC
8
DEFAULT_255_2_778
10
3.4699775
20
5.648081
40
2.6509121
50
342.3041118
51
350.9052339
0
ARC
8
DEFAULT_255_2_778
10
4.4585397
20
5.3402925
40
1.615585
50
335.0429148
51
342.0465327
0
ARC
8
DEFAULT_255_2_778
10
4.0461379
20
5.5255941
40
2.0676732
50
326.3229036
51
335.2094429
0
ARC
8
DEFAULT_255_2_778
10
4.5905673
20
5.1601036
40
1.4119453
50
313.8499423
51
326.4146063
0
ARC
8
DEFAULT_255_2_778
10
4.853375
20
4.8844719
40
1.0311068
50
293.3747818
51
313.9290954
0
ARC
8
DEFAULT_255_2_778
10
4.8612103
20
4.8943882
40
1.0371606
50
271.3457163
51
292.7601114
0
ARC
8
DEFAULT_255_2_778
10
4.8486533
20
5.0610255
40
1.2040779
50
270.0024517
51
271.7568549
0
ARC
8
DEFAULT_255_2_778
10
4.8447825
20
4.9688151
40
1.1118745
50
251.4119302
51
270.2021182
0
ARC
8
DEFAULT_255_2_778
10
4.8242604
20
4.9040291
40
1.0439269
50
230.4590738
51
251.3460795
0
ARC
8
DEFAULT_255_2_778
10
4.7713755
20
4.8402391
40
0.9610658
50
218.3590484
51
230.4693702
0
ARC
8
DEFAULT_255_2_778
10
4.7386298
20
4.7968312
40
0.9085539
50
198.0541764
51
217.4940387
0
ARC
8
DEFAULT_255_2_778
10
4.8558483
20
4.8434309
40
1.0344739
50
180.1245549
51
198.4960195
0
ARC
8
DEFAULT_255_2_778
10
4.7941774
20
4.8412666
40
0.9728005
50
177.2844492
51
180.0049773
0
ARC
8
DEFAULT_255_2_778
10
4.6891981
20
4.8517577
40
0.8674595
50
155.2583234
51
177.6481047
0
ARC
8
DEFAULT_255_2_778
10
5.0155271
20
4.6947914
40
1.2295421
50
118.2163221
51
154.979672
0
ARC
8
DEFAULT_255_2_778
10
4.9011507
20
4.8922939
40
1.001459
50
103.3939256
51
117.7926403
0
ARC
8
DEFAULT_255_2_778
10
5.1625906
20
3.6780835
40
2.2433663
50
96.5878181
51
102.7059449
0
ARC
8
DEFAULT_255_2_778
10
5.4251678
20
1.6345181
40
4.3036437
50
95.6512598
51
96.9392042
0
ARC
8
DEFAULT_255_2_778
10
6.2008935
20
-6.6083655
40
12.5829155
50
94.4500673
51
95.4702688
0
ARC
8
DEFAULT_255_2_778
10
4.7525219
20
12.051756
40
6.1333327
50
274.4142095
51
276.2340097
0
ARC
8
DEFAULT_255_2_778
10
5.234086
20
7.6528708
40
1.708167
50
276.1989934
51
280.7420572
0
ARC
8
DEFAULT_255_2_778
10
5.4071997
20
6.7284117
40
0.7676449
50
280.9083393
51
286.0836187
0
ARC
8
DEFAULT_255_2_778
10
5.2734057
20
7.224205
40
1.2811285
50
285.6901663
51
290.4784434
0
ARC
8
DEFAULT_255_2_778
10
5.0001263
20
7.9761509
40
2.0811745
50
290.2840003
51
292.1766688
0
ARC
8
DEFAULT_255_2_778
10
4.6663333
20
8.7903607
40
2.9611478
50
292.2108363
51
294.4768581
0
ARC
8
DEFAULT_255_2_778
10
4.1856303
20
9.848152
40
4.1230415
50
294.4661777
51
296.5275974
0
ARC
8
DEFAULT_255_2_778
10
4.0344283
20
10.1575899
40
4.4674337
50
296.4901421
51
297.4553434
0
ARC
8
DEFAULT_255_2_778
10
4.4219788
20
9.4128763
40
3.6279139
50
297.4467292
51
298.0856801
0
ARC
8
DEFAULT_255_2_778
10
5.3059214
20
7.7581712
40
1.751907
50
298.0584503
51
298.5375505
0
LINE
8
DEFAULT_255_2_778
10
3.165068
20
8.7102136
11
3.162668
21
8.7102136
0
LINE
8
DEFAULT_255_2_778
10
0.256968
20
5.4698136
11
0.256968
21
5.4725136
0
LINE
8
DEFAULT_255_2_778
10
6.142868
20
6.2191136
11
6.142868
21
6.2197136
0
ARC
8
DEFAULT_255_2_778
10
1.7903973
20
6.5114344
40
2.1776296
50
355.2546698
51
0.0808836
0
ARC
8
DEFAULT_255_2_778
10
2.1970838
20
6.4771522
40
1.7695012
50
349.5356076
51
355.2715312
0
ARC
8
DEFAULT_255_2_778
10
2.529318
20
6.415298
40
1.4315585
50
342.6755212
51
349.55496
0
ARC
8
DEFAULT_255_2_778
10
2.7894336
20
6.3335862
40
1.1589111
50
334.1536144
51
342.7025586
0
ARC
8
DEFAULT_255_2_778
10
2.9770204
20
6.2422716
40
0.95028
50
323.3766008
51
334.1777197
0
ARC
8
DEFAULT_255_2_778
10
3.0902754
20
6.1578533
40
0.8090247
50
308.6523127
51
323.3900071
0
ARC
8
DEFAULT_255_2_778
10
3.10222
20
6.1566634
40
0.8006811
50
269.0971684
51
308.0379749
0
ARC
8
DEFAULT_255_2_778
10
3.0903553
20
6.3337056
40
0.9776242
50
263.3461964
51
269.9559617
0
ARC
8
DEFAULT_255_2_778
10
3.0963154
20
6.3902067
40
1.0344355
50
260.5054244
51
263.3809163
0
ARC
8
DEFAULT_255_2_778
10
3.1223548
20
6.5130221
40
1.1598765
50
242.7915806
51
260.2374987
0
ARC
8
DEFAULT_255_2_778
10
3.183178
20
6.6377399
40
1.2986076
50
225.343838
51
242.9209192
0
ARC
8
DEFAULT_255_2_778
10
3.184752
20
6.6420611
40
1.302789
50
207.794855
51
225.4281694
0
ARC
8
DEFAULT_255_2_778
10
3.1690026
20
6.6327078
40
1.2844956
50
193.1499916
51
207.7533675
0
ARC
8
DEFAULT_255_2_778
10
3.21833
20
6.6433133
40
1.3349426
50
181.1541431
51
193.1115934
0
ARC
8
DEFAULT_255_2_778
10
3.2814056
20
6.6464008
40
1.3980687
50
179.9993003
51
181.2285822
0
ARC
8
DEFAULT_255_2_778
10
3.3553917
20
6.6446469
40
1.4720558
50
171.3015372
51
179.9310703
0
ARC
8
DEFAULT_255_2_778
10
3.5232788
20
6.6192525
40
1.6418524
50
164.3162133
51
171.3115862
0
ARC
8
DEFAULT_255_2_778
10
3.73336
20
6.5602342
40
1.8600662
50
157.9776793
51
164.3152876
0
ARC
8
DEFAULT_255_2_778
10
3.9818725
20
6.4602108
40
2.1279522
50
152.7100984
51
157.9900306
0
ARC
8
DEFAULT_255_2_778
10
4.2599813
20
6.3169509
40
2.4407906
50
148.0035547
51
152.7147009
0
ARC
8
DEFAULT_255_2_778
10
4.5743511
20
6.1207598
40
2.8113568
50
143.7525562
51
148.007389
0
ARC
8
DEFAULT_255_2_778
10
4.9232328
20
5.8653275
40
3.24375
50
139.9523793
51
143.7576047
0
ARC
8
DEFAULT_255_2_778
10
5.2961647
20
5.5524795
40
3.7305269
50
136.6521211
51
139.9595225
0
ARC
8
DEFAULT_255_2_778
10
5.6822653
20
5.1886393
40
4.2610486
50
133.7674834
51
136.6581078
0
ARC
8
DEFAULT_255_2_778
10
6.0974853
20
4.7551303
40
4.86133
50
130.9877402
51
133.7672442
0
ARC
8
DEFAULT_255_2_778
10
6.5186746
20
4.271826
40
5.5024093
50
128.7859343
51
130.9974932
0
ARC
8
DEFAULT_255_2_778
10
6.7918486
20
3.9349909
40
5.9360895
50
128.0968572
51
128.8046513
0
ARC
8
DEFAULT_255_2_778
10
5.821295
20
9.5336604
40
2.847159
50
199.004418
51
204.0191545
0
ARC
8
DEFAULT_255_2_778
10
8.6200955
20
10.7816457
40
5.9115922
50
204.0258632
51
207.102408
0
ARC
8
DEFAULT_255_2_778
10
26.0516246
20
19.6814667
40
25.483637
50
207.0598419
51
207.8064171
0
ARC
8
DEFAULT_255_2_778
10
-12.0516918
20
-0.3891429
40
17.582507
50
26.8806896
51
27.7359589
0
ARC
8
DEFAULT_255_2_778
10
-1.0575673
20
5.1517988
40
5.2711268
50
22.1538991
51
27.1913058
0
ARC
8
DEFAULT_255_2_778
10
1.6121573
20
6.2421276
40
2.3873402
50
14.1233327
51
22.0796705
0
ARC
8
DEFAULT_255_2_778
10
2.6406993
20
6.4976503
40
1.3275419
50
1.1334115
51
14.2603859
0
ARC
8
DEFAULT_255_2_778
10
2.9439014
20
6.5145032
40
1.0241232
50
0.0002957
51
0.5262677
0
ARC
8
DEFAULT_255_2_778
10
2.5856172
20
6.4982451
40
1.5068953
50
0.6183845
51
15.5973162
0
ARC
8
DEFAULT_255_2_778
10
1.477496
20
6.1987433
40
2.6547555
50
15.3928652
51
23.3506497
0
ARC
8
DEFAULT_255_2_778
10
-0.1180583
20
5.5368635
40
4.3820389
50
23.0271675
51
25.2985111
0
ARC
8
DEFAULT_255_2_778
10
-5.6377522
20
2.8558892
40
10.5182331
50
25.6531151
51
28.2824979
0
ARC
8
DEFAULT_255_2_778
10
14.1414775
20
13.5110851
40
11.9484365
50
205.9191031
51
208.3372695
0
ARC
8
DEFAULT_255_2_778
10
6.570348
20
9.8205497
40
3.525746
50
200.1687302
51
205.7572665
0
ARC
8
DEFAULT_255_2_778
10
5.3552215
20
9.3622413
40
2.2271396
50
196.5748991
51
199.8793876
0
ARC
8
DEFAULT_255_2_778
10
7.0439062
20
3.595482
40
6.4828709
50
127.1893878
51
129.2781335
0
ARC
8
DEFAULT_255_2_778
10
6.5656327
20
4.1792763
40
5.7281782
50
129.2718206
51
131.7579425
0
ARC
8
DEFAULT_255_2_778
10
6.1027462
20
4.6977473
40
5.0331415
50
131.7579055
51
134.3554569
0
ARC
8
DEFAULT_255_2_778
10
5.6640115
20
5.1457517
40
4.4060882
50
134.3489654
51
137.3710777
0
ARC
8
DEFAULT_255_2_778
10
5.2463159
20
5.5300404
40
3.838508
50
137.3689764
51
140.6378906
0
ARC
8
DEFAULT_255_2_778
10
4.8558949
20
5.8497454
40
3.3338896
50
140.6304724
51
144.4039555
0
ARC
8
DEFAULT_255_2_778
10
4.4935998
20
6.1088738
40
2.8884626
50
144.4005429
51
148.5530079
0
ARC
8
DEFAULT_255_2_778
10
4.1670016
20
6.3082965
40
2.5057933
50
148.5471262
51
153.2407807
0
ARC
8
DEFAULT_255_2_778
10
3.8749555
20
6.4553227
40
2.1788261
50
153.2352353
51
158.5435483
0
ARC
8
DEFAULT_255_2_778
10
3.6153387
20
6.5569514
40
1.9000266
50
158.5320645
51
164.8633801
0
ARC
8
DEFAULT_255_2_778
10
3.3932907
20
6.616832
40
1.6700462
50
164.8572589
51
172.2397585
0
ARC
8
DEFAULT_255_2_778
10
3.2278387
20
6.6397298
40
1.5030175
50
172.2530042
51
179.9455088
0
ARC
8
DEFAULT_255_2_778
10
3.1069958
20
6.6392886
40
1.3821752
50
179.9224545
51
191.6019525
0
ARC
8
DEFAULT_255_2_778
10
3.0567287
20
6.6300762
40
1.331083
50
191.64866
51
207.0142027
0
ARC
8
DEFAULT_255_2_778
10
3.1102285
20
6.6606607
40
1.3926406
50
207.1354629
51
227.8520297
0
ARC
8
DEFAULT_255_2_778
10
3.1548979
20
6.7051662
40
1.4556164
50
227.7239766
51
247.5714467
0
ARC
8
DEFAULT_255_2_778
10
3.1120889
20
6.5980436
40
1.3402648
50
247.515878
51
261.2681751
0
ARC
8
DEFAULT_255_2_778
10
3.0896869
20
6.4692467
40
1.2095625
50
261.3908483
51
267.2123236
0
ARC
8
DEFAULT_255_2_778
10
3.0862557
20
6.4094165
40
1.1496365
50
267.2381045
51
269.9925911
0
ARC
8
DEFAULT_255_2_778
10
3.1037591
20
6.2042244
40
0.9446093
50
268.9292431
51
308.7724566
0
ARC
8
DEFAULT_255_2_778
10
3.1113501
20
6.1743944
40
0.9166878
50
309.5701571
51
323.9801495
0
ARC
8
DEFAULT_255_2_778
10
3.0016179
20
6.2542165
40
1.0523814
50
323.9784376
51
334.6324491
0
ARC
8
DEFAULT_255_2_778
10
2.818714
20
6.3415735
40
1.2550752
50
334.6062629
51
342.8418844
0
ARC
8
DEFAULT_255_2_778
10
2.5669716
20
6.4197533
40
1.5186774
50
342.8255157
51
349.6661931
0
ARC
8
DEFAULT_255_2_778
10
2.2395865
20
6.4798975
40
1.8515409
50
349.6525327
51
355.4721915
0
ARC
8
DEFAULT_255_2_778
10
1.8493484
20
6.5117778
40
2.243078
50
355.4473059
51
0.0697503
0
LINE
8
DEFAULT_255_2_778
10
3.9680247
20
6.5145085
11
3.9680247
21
6.5145085
0
LINE
8
DEFAULT_255_2_778
10
3.2206247
20
8.7269085
11
3.1253247
21
8.7600085
0
LINE
8
DEFAULT_255_2_778
10
4.0924247
20
6.5145085
11
4.0924247
21
6.5145085
0
ARC
8
DEFAULT_255_2_778
10
3.7853165
20
7.2246455
40
0.8762762
50
158.9256168
51
159.3533038
0
ARC
8
DEFAULT_255_2_778
10
5.105407
20
6.7267508
40
2.2871405
50
159.3421194
51
160.0214127
0
ARC
8
DEFAULT_255_2_778
10
6.1710457
20
6.3386332
40
3.4212574
50
160.0102739
51
160.8540938
0
ARC
8
DEFAULT_255_2_778
10
6.8062679
20
6.1176513
40
4.0938198
50
160.8481921
51
161.952274
0
ARC
8
DEFAULT_255_2_778
10
6.9715064
20
6.0630994
40
4.2678292
50
161.9432052
51
163.6208508
0
ARC
8
DEFAULT_255_2_778
10
6.8164784
20
6.1089617
40
4.10616
50
163.6248178
51
164.2774055
0
ARC
8
DEFAULT_255_2_778
10
6.4372329
20
6.2136182
40
3.7127447
50
164.2461221
51
166.7117218
0
ARC
8
DEFAULT_255_2_778
10
5.5585648
20
6.4167366
40
2.8109185
50
166.6244352
51
171.0902032
0
ARC
8
DEFAULT_255_2_778
10
4.5522538
20
6.5715608
40
1.7927735
50
170.9974968
51
177.4633865
0
ARC
8
DEFAULT_255_2_778
10
4.028963
20
6.6008813
40
1.2687126
50
177.7403146
51
179.9704062
0
ARC
8
DEFAULT_255_2_778
10
4.2931259
20
6.6016174
40
1.5328754
50
180.0030177
51
180.886803
0
ARC
8
DEFAULT_255_2_778
10
4.7941365
20
6.6253462
40
2.034256
50
181.3366618
51
191.0749599
0
ARC
8
DEFAULT_255_2_778
10
5.4878652
20
6.7467045
40
2.7384138
50
190.7786422
51
194.4020238
0
ARC
8
DEFAULT_255_2_778
10
5.6495102
20
6.786375
40
2.9048465
50
194.3668921
51
194.812653
0
ARC
8
DEFAULT_255_2_778
10
5.6826825
20
6.7951454
40
2.9391587
50
194.8126162
51
196.9314085
0
ARC
8
DEFAULT_255_2_778
10
5.5094742
20
6.7418139
40
2.7579267
50
196.9194225
51
198.5881279
0
ARC
8
DEFAULT_255_2_778
10
4.9936633
20
6.5677173
40
2.213528
50
198.5727694
51
199.9466602
0
ARC
8
DEFAULT_255_2_778
10
4.2594551
20
6.3015928
40
1.4325774
50
199.959125
51
200.7408251
0
ARC
8
DEFAULT_255_2_778
10
3.481601
20
6.0066396
40
0.6006795
50
200.7057665
51
201.3517547
0
ARC
8
DEFAULT_255_2_778
10
4.4117106
20
6.7270335
40
1.5444325
50
179.9582293
51
182.0332951
0
ARC
8
DEFAULT_255_2_778
10
5.1242128
20
6.7218072
40
2.2569431
50
176.2266083
51
179.8387399
0
ARC
8
DEFAULT_255_2_778
10
6.0748274
20
6.6649039
40
3.209247
50
174.7487614
51
176.3298098
0
ARC
8
DEFAULT_255_2_778
10
7.3655256
20
6.5396294
40
4.5059983
50
171.8051779
51
174.6645853
0
ARC
8
DEFAULT_255_2_778
10
8.5436666
20
6.3779087
40
5.6951666
50
171.0646956
51
171.8842756
0
ARC
8
DEFAULT_255_2_778
10
9.0065025
20
6.3050979
40
6.1636945
50
170.0188035
51
171.0643238
0
ARC
8
DEFAULT_255_2_778
10
8.9912909
20
6.3084087
40
6.1481394
50
169.3760844
51
170.0246206
0
ARC
8
DEFAULT_255_2_778
10
8.2924126
20
6.4401147
40
5.4369594
50
168.7613842
51
169.3824281
0
ARC
8
DEFAULT_255_2_778
10
6.7879302
20
6.7392587
40
3.9030252
50
168.3177195
51
168.7641869
0
ARC
8
DEFAULT_255_2_778
10
4.6431901
20
7.1833374
40
1.7127935
50
167.9798408
51
168.3378984
0
LINE
8
DEFAULT_255_2_778
10
2.9221506
20
5.7879366
11
2.8682506
21
6.6722366
0
LINE
8
DEFAULT_255_2_778
10
2.9679506
20
7.5400366
11
2.9676506
21
7.5397366
0
ARC
8
DEFAULT_255_2_778
10
0.9807998
20
3.9853783
40
1.5561081
50
12.3657699
51
15.8369807
0
ARC
8
DEFAULT_255_2_778
10
1.1047444
20
4.0125348
40
1.4292234
50
8.6698265
51
12.3664295
0
ARC
8
DEFAULT_255_2_778
10
1.2187386
20
4.0298343
40
1.3139239
50
4.5025626
51
8.6733867
0
ARC
8
DEFAULT_255_2_778
10
1.3216121
20
4.0379197
40
1.2107331
50
0.0290482
51
4.5032995
0
ARC
8
DEFAULT_255_2_778
10
1.4640333
20
4.0353769
40
1.0683164
50
348.0231876
51
0.1692966
0
ARC
8
DEFAULT_255_2_778
10
1.5998663
20
4.0064394
40
0.9294352
50
331.9318847
51
348.0305848
0
ARC
8
DEFAULT_255_2_778
10
1.6504287
20
3.9810102
40
0.8728558
50
302.7318928
51
331.8431258
0
ARC
8
DEFAULT_255_2_778
10
1.6197934
20
4.0342817
40
0.934238
50
271.499578
51
302.5458426
0
ARC
8
DEFAULT_255_2_778
10
1.6141284
20
4.0841032
40
0.9842002
50
269.9994869
51
271.7533516
0
ARC
8
DEFAULT_255_2_778
10
1.6144128
20
4.100065
40
1.0001619
50
262.3650153
51
269.9832024
0
ARC
8
DEFAULT_255_2_778
10
1.617344
20
4.1233446
40
1.0236245
50
257.782305
51
262.3755261
0
ARC
8
DEFAULT_255_2_778
10
1.6312098
20
4.177092
40
1.0790912
50
241.2783498
51
257.6666939
0
ARC
8
DEFAULT_255_2_778
10
1.6937148
20
4.29152
40
1.2094775
50
228.386373
51
241.2866038
0
ARC
8
DEFAULT_255_2_778
10
1.8174799
20
4.4314265
40
1.3962701
50
217.9930501
51
228.4019984
0
ARC
8
DEFAULT_255_2_778
10
2.0138626
20
4.5852879
40
1.6457483
50
209.2447993
51
218.0059122
0
ARC
8
DEFAULT_255_2_778
10
2.2917386
20
4.7415316
40
1.9645382
50
201.8842249
51
209.2615628
0
ARC
8
DEFAULT_255_2_778
10
2.6542395
20
4.8878353
40
2.3554492
50
195.6295558
51
201.8999163
0
ARC
8
DEFAULT_255_2_778
10
3.1044489
20
5.0144583
40
2.823126
50
190.2468271
51
195.6426876
0
ARC
8
DEFAULT_255_2_778
10
3.6413151
20
5.1122881
40
3.3688324
50
185.6369353
51
190.2598691
0
ARC
8
DEFAULT_255_2_778
10
4.2601313
20
5.1741081
40
3.9907286
50
181.6526464
51
185.6475343
0
ARC
8
DEFAULT_255_2_778
10
4.7698221
20
5.192249
40
4.500732
50
179.9894175
51
181.6963601
0
ARC
8
DEFAULT_255_2_778
10
5.0090306
20
5.1929638
40
4.7399404
50
179.3562237
51
179.9985914
0
ARC
8
DEFAULT_255_2_778
10
5.1604122
20
5.1912216
40
4.8913319
50
178.644871
51
179.3557415
0
ARC
8
DEFAULT_255_2_778
10
5.3093313
20
5.1877364
40
5.040292
50
178.0620055
51
178.6452979
0
ARC
8
DEFAULT_255_2_778
10
5.4495312
20
5.1829944
40
5.1805721
50
177.4870003
51
178.0620281
0
ARC
8
DEFAULT_255_2_778
10
1.440754
20
7.9842932
40
2.826253
50
245.6161351
51
255.0182756
0
ARC
8
DEFAULT_255_2_778
10
2.3414693
20
11.1695509
40
6.1362607
50
254.5824595
51
257.279286
0
ARC
8
DEFAULT_255_2_778
10
6.9338894
20
31.6745978
40
27.1492801
50
257.3541821
51
258.1058408
0
ARC
8
DEFAULT_255_2_778
10
-1.1336227
20
-6.4834662
40
11.8523178
50
76.986129
51
77.9619941
0
ARC
8
DEFAULT_255_2_778
10
-0.084093
20
-1.8855204
40
7.1361388
50
76.7778087
51
76.8831636
0
ARC
8
DEFAULT_255_2_778
10
1.010719
20
2.5605647
40
2.55797
50
68.5916996
51
77.8719536
0
ARC
8
DEFAULT_255_2_778
10
1.5625397
20
3.9398127
40
1.0725144
50
47.8612176
51
69.142227
0
ARC
8
DEFAULT_255_2_778
10
1.8045124
20
4.2262536
40
0.6978824
50
15.2435064
51
46.8141156
0
ARC
8
DEFAULT_255_2_778
10
1.8306718
20
4.2296797
40
0.7966721
50
15.5344137
51
37.5014545
0
ARC
8
DEFAULT_255_2_778
10
1.6838597
20
4.0890313
40
0.9990147
50
38.7750787
51
64.4440734
0
ARC
8
DEFAULT_255_2_778
10
1.2101792
20
3.1533556
40
2.0476273
50
63.7810398
51
74.4289206
0
ARC
8
DEFAULT_255_2_778
10
0.258135
20
-0.2944721
40
5.6244804
50
74.5145967
51
79.8480789
0
ARC
8
DEFAULT_255_2_778
10
-7.5612033
20
-41.2082679
40
47.2784441
50
79.2596999
51
79.4467937
0
ARC
8
DEFAULT_255_2_778
10
2.9609514
20
15.505584
40
10.4033129
50
257.771678
51
259.6829705
0
ARC
8
DEFAULT_255_2_778
10
1.4955723
20
8.7257582
40
3.4669357
50
253.5193663
51
257.7074039
0
ARC
8
DEFAULT_255_2_778
10
1.0321708
20
7.1631586
40
1.8370718
50
246.8729287
51
253.5526493
0
ARC
8
DEFAULT_255_2_778
10
0.7815488
20
6.5666248
40
1.190047
50
240.9250324
51
246.6889844
0
ARC
8
DEFAULT_255_2_778
10
6.9374584
20
5.266513
40
6.7452643
50
178.249671
51
178.6779951
0
ARC
8
DEFAULT_255_2_778
10
6.7459139
20
5.2708716
40
6.5536703
50
178.6774554
51
179.1672095
0
ARC
8
DEFAULT_255_2_778
10
6.5820827
20
5.2732617
40
6.3898216
50
179.1672865
51
179.5807849
0
ARC
8
DEFAULT_255_2_778
10
6.4311115
20
5.2743108
40
6.2388469
50
179.580275
51
179.9990776
0
ARC
8
DEFAULT_255_2_778
10
5.8881877
20
5.270634
40
5.6959243
50
179.9620042
51
182.8518854
0
ARC
8
DEFAULT_255_2_778
10
5.0223363
20
5.2268297
40
4.828966
50
182.843933
51
186.1733354
0
ARC
8
DEFAULT_255_2_778
10
4.2548142
20
5.1432913
40
4.0569111
50
186.1660314
51
189.94068
0
ARC
8
DEFAULT_255_2_778
10
3.5797128
20
5.0240902
40
3.3713675
50
189.9258985
51
194.4384473
0
ARC
8
DEFAULT_255_2_778
10
3.0010608
20
4.8745116
40
2.7736957
50
194.4266023
51
199.6482665
0
ARC
8
DEFAULT_255_2_778
10
2.5280027
20
4.7049521
40
2.2711681
50
199.6325411
51
205.7807869
0
ARC
8
DEFAULT_255_2_778
10
2.1520151
20
4.5225218
40
1.8532604
50
205.7577836
51
213.2243986
0
ARC
8
DEFAULT_255_2_778
10
1.8713938
20
4.3380553
40
1.5174393
50
213.2034752
51
222.254416
0
ARC
8
DEFAULT_255_2_778
10
1.6831698
20
4.1664105
40
1.2627043
50
222.2326645
51
233.5631359
0
ARC
8
DEFAULT_255_2_778
10
1.5801332
20
4.0265735
40
1.0890066
50
233.5547103
51
248.4698317
0
ARC
8
DEFAULT_255_2_778
10
1.5520753
20
3.9598752
40
1.0166664
50
248.5612709
51
262.6272916
0
ARC
8
DEFAULT_255_2_778
10
1.5514545
20
3.9584538
40
1.015177
50
262.6517425
51
269.9506294
0
LINE
8
DEFAULT_255_2_778
10
1.5505797
20
2.9432772
11
1.5515919
21
2.9432767
0
ARC
8
DEFAULT_255_2_778
10
1.5392874
20
4.0451628
40
1.1019548
50
270.6397803
51
321.726614
0
ARC
8
DEFAULT_255_2_778
10
1.5276168
20
4.0627424
40
1.1220253
50
321.3910061
51
343.3149037
0
ARC
8
DEFAULT_255_2_778
10
1.4902356
20
4.0726118
40
1.1606668
50
343.3780239
51
358.8049498
0
ARC
8
DEFAULT_255_2_778
10
1.4328855
20
4.0759904
40
1.2180769
50
358.7023264
51
0.0016917
0
ARC
8
DEFAULT_255_2_778
10
1.3981031
20
4.0756031
40
1.2528594
50
0.0193568
51
5.0879928
0
ARC
8
DEFAULT_255_2_778
10
1.3318933
20
4.0696676
40
1.3193347
50
5.0897405
51
9.8849831
0
ARC
8
DEFAULT_255_2_778
10
1.2530653
20
4.0559571
40
1.3993462
50
9.8839383
51
14.2159948
0
ARC
8
DEFAULT_255_2_778
10
1.1910838
20
4.0407519
40
1.4631639
50
14.1971319
51
15.8610379
0
LINE
8
DEFAULT_255_2_778
10
2.4778413
20
4.4097421
11
2.4778413
21
4.4100421
0
LINE
8
DEFAULT_255_2_778
10
0.2032413
20
5.5265421
11
0.1953413
21
5.4725421
0
LINE
8
DEFAULT_255_2_778
10
2.5985413
20
4.4406421
11
2.5982413
21
4.4430421
0
ARC
8
DEFAULT_255_2_778
10
1.7643782
20
5.1888413
40
1.0940112
50
210.4879518
51
211.0989401
0
ARC
8
DEFAULT_255_2_778
10
3.1271836
20
6.0099965
40
2.6850909
50
211.0823633
51
212.0972192
0
ARC
8
DEFAULT_255_2_778
10
4.0281472
20
6.5737268
40
3.7478826
50
212.079319
51
213.3989666
0
ARC
8
DEFAULT_255_2_778
10
4.3096081
20
6.7580734
40
4.0843388
50
213.3844987
51
215.2230131
0
ARC
8
DEFAULT_255_2_778
10
3.9915674
20
6.5298909
40
3.6929216
50
215.1769018
51
218.5320711
0
ARC
8
DEFAULT_255_2_778
10
3.5641987
20
6.1939905
40
3.1493604
50
218.5951847
51
219.5740618
0
ARC
8
DEFAULT_255_2_778
10
2.7175292
20
5.461158
40
2.0300366
50
218.8549926
51
230.5019319
0
ARC
8
DEFAULT_255_2_778
10
2.16249
20
4.8215293
40
1.1836304
50
231.5406342
51
233.1493195
0
ARC
8
DEFAULT_255_2_778
10
2.5079289
20
5.2993676
40
1.7731968
50
233.4774232
51
240.0064371
0
ARC
8
DEFAULT_255_2_778
10
2.796952
20
5.8025554
40
2.3534822
50
240.0363177
51
246.7928575
0
ARC
8
DEFAULT_255_2_778
10
2.935679
20
6.1125604
40
2.6930751
50
246.6791928
51
250.0562862
0
ARC
8
DEFAULT_255_2_778
10
2.8726639
20
5.9356255
40
2.5052576
50
250.0307625
51
252.2503711
0
ARC
8
DEFAULT_255_2_778
10
2.6821875
20
5.3389709
40
1.8789368
50
252.2355592
51
253.7853346
0
ARC
8
DEFAULT_255_2_778
10
2.3975552
20
4.3564688
40
0.8560373
50
253.715691
51
254.9260519
0
ARC
8
DEFAULT_255_2_778
10
2.4405199
20
5.3720886
40
1.6776004
50
230.9693278
51
234.44952
0
ARC
8
DEFAULT_255_2_778
10
2.8794845
20
5.9180076
40
2.3781089
50
229.0168785
51
231.0366296
0
ARC
8
DEFAULT_255_2_778
10
3.6654451
20
6.8115093
40
3.5680853
50
225.4866365
51
228.8991306
0
ARC
8
DEFAULT_255_2_778
10
4.951469
20
8.1264182
40
5.4073319
50
223.0722101
51
225.5375362
0
ARC
8
DEFAULT_255_2_778
10
5.6345958
20
8.7726956
40
6.3477095
50
222.1484887
51
223.1225838
0
ARC
8
DEFAULT_255_2_778
10
5.4624142
20
8.6182213
40
6.1163919
50
221.2769946
51
222.1579942
0
ARC
8
DEFAULT_255_2_778
10
4.4059816
20
7.6916154
40
4.7111703
50
220.6793447
51
221.283772
0
ARC
8
DEFAULT_255_2_778
10
2.4839135
20
6.040984
40
2.17761
50
220.2393513
51
220.7073351
0
LINE
8
DEFAULT_255_2_778
10
2.1749294
20
3.5298869
11
1.4651294
21
4.0071869
0
LINE
8
DEFAULT_255_2_778
10
0.8216294
20
4.6342869
11
0.8216294
21
4.6337869
0
ARC
8
DEFAULT_255_2_778
10
5.1617112
20
4.8466338
40
1.3721845
50
163.8851823
51
167.7934534
0
ARC
8
DEFAULT_255_2_778
10
5.0849916
20
4.8631593
40
1.2937054
50
167.7903817
51
172.2937848
0
ARC
8
DEFAULT_255_2_778
10
5.0177509
20
4.8722749
40
1.2258497
50
172.2945646
51
177.0785087
0
ARC
8
DEFAULT_255_2_778
10
4.9740186
20
4.8747802
40
1.1820465
50
177.0917477
51
179.9940941
0
ARC
8
DEFAULT_255_2_778
10
4.9082057
20
4.8728143
40
1.1162356
50
179.8928379
51
195.4174577
0
ARC
8
DEFAULT_255_2_778
10
4.8772877
20
4.865991
40
1.0846175
50
195.5041858
51
218.7872742
0
ARC
8
DEFAULT_255_2_778
10
4.8868724
20
4.8679659
40
1.0933348
50
218.553298
51
269.4377693
0
ARC
8
DEFAULT_255_2_778
10
4.8762873
20
4.7870259
40
1.0123422
50
269.991883
51
277.0314924
0
ARC
8
DEFAULT_255_2_778
10
4.8749886
20
4.7903296
40
1.0157804
50
277.0813847
51
296.5621177
0
ARC
8
DEFAULT_255_2_778
10
4.8289393
20
4.8806537
40
1.1171628
50
296.6030816
51
310.4515666
0
ARC
8
DEFAULT_255_2_778
10
4.7053451
20
5.0263174
40
1.3081949
50
310.4315201
51
320.9203302
0
ARC
8
DEFAULT_255_2_778
10
4.4983371
20
5.1951332
40
1.5753107
50
320.9003723
51
329.4097033
0
ARC
8
DEFAULT_255_2_778
10
4.2003767
20
5.3720718
40
1.9218469
50
329.3893404
51
336.4389649
0
ARC
8
DEFAULT_255_2_778
10
3.8077671
20
5.5441455
40
2.3505089
50
336.4196468
51
342.3097035
0
ARC
8
DEFAULT_255_2_778
10
3.311763
20
5.7029477
40
2.8713143
50
342.2983032
51
347.4167058
0
ARC
8
DEFAULT_255_2_778
10
2.7043067
20
5.8393603
40
3.4938985
50
347.4036456
51
351.7913251
0
ARC
8
DEFAULT_255_2_778
10
1.9895096
20
5.9432812
40
4.2162101
50
351.7804758
51
355.5668771
0
ARC
8
DEFAULT_255_2_778
10
1.1693688
20
6.007659
40
5.0388735
50
355.5578707
51
358.8414909
0
ARC
8
DEFAULT_255_2_778
10
0.5282198
20
6.02457
40
5.6802347
50
358.8017033
51
0.0065468
0
ARC
8
DEFAULT_255_2_778
10
0.259306
20
6.025124
40
5.9491484
50
0.0009154
51
0.4608029
0
ARC
8
DEFAULT_255_2_778
10
0.0855545
20
6.0236611
40
6.122906
50
0.4614159
51
0.9706146
0
ARC
8
DEFAULT_255_2_778
10
-0.0692818
20
6.0210701
40
6.2777639
50
0.9703204
51
1.3893672
0
ARC
8
DEFAULT_255_2_778
10
-0.2401181
20
6.0169008
40
6.4486511
50
1.3895971
51
1.802167
0
ARC
8
DEFAULT_255_2_778
10
5.4863107
20
7.4248479
40
1.3111774
50
289.9040532
51
298.6041134
0
ARC
8
DEFAULT_255_2_778
10
5.1420922
20
8.3672458
40
2.3144698
50
284.461251
51
289.9738789
0
ARC
8
DEFAULT_255_2_778
10
4.4720414
20
10.9716474
40
5.0036841
50
281.1859519
51
284.4433514
0
ARC
8
DEFAULT_255_2_778
10
2.0796269
20
22.7891293
40
17.060867
50
280.7741222
51
281.3688012
0
ARC
8
DEFAULT_255_2_778
10
13.8219463
20
-38.7797981
40
45.6177987
50
100.8064932
51
100.9824095
0
ARC
8
DEFAULT_255_2_778
10
5.9836416
20
1.2587193
40
4.8197685
50
100.1846104
51
106.8451706
0
ARC
8
DEFAULT_255_2_778
10
5.0841928
20
4.2519763
40
1.6943128
50
107.0666913
51
119.7088886
0
ARC
8
DEFAULT_255_2_778
10
4.6466092
20
4.9871855
40
0.8390268
50
118.6366652
51
159.3861484
0
ARC
8
DEFAULT_255_2_778
10
4.6660749
20
4.9899171
40
0.8563362
50
160.0157664
51
163.8714559
0
ARC
8
DEFAULT_255_2_778
10
4.6659985
20
4.9751799
40
0.7356112
50
117.5218063
51
162.6535477
0
ARC
8
DEFAULT_255_2_778
10
5.1757204
20
4.1117118
40
1.7377102
50
105.6622274
51
119.2709971
0
ARC
8
DEFAULT_255_2_778
10
5.6536686
20
2.558194
40
3.362823
50
102.5306455
51
106.3574874
0
ARC
8
DEFAULT_255_2_778
10
6.3216073
20
-0.4680088
40
6.4618608
50
100.1045667
51
102.490374
0
ARC
8
DEFAULT_255_2_778
10
6.3520201
20
-0.5156847
40
6.5141689
50
100.2763261
51
100.2943451
0
ARC
8
DEFAULT_255_2_778
10
6.3340899
20
-0.4080811
40
6.4050928
50
100.2720491
51
100.2902217
0
ARC
8
DEFAULT_255_2_778
10
0.1201246
20
33.888063
40
28.4494459
50
280.2692381
51
280.2732952
0
ARC
8
DEFAULT_255_2_778
10
6.2973251
20
-0.1961103
40
6.1899633
50
100.2499397
51
100.2684307
0
ARC
8
DEFAULT_255_2_778
10
6.280053
20
-0.0934443
40
6.0858626
50
100.2432666
51
100.2619166
0
ARC
8
DEFAULT_255_2_778
10
6.2630101
20
0.007929
40
5.9830744
50
100.2364799
51
100.2552917
0
ARC
8
DEFAULT_255_2_778
10
6.2461388
20
0.1071205
40
5.8824635
50
100.2274869
51
100.2464605
0
ARC
8
DEFAULT_255_2_778
10
6.2294927
20
0.2050627
40
5.7831219
50
100.2183419
51
100.2374802
0
ARC
8
DEFAULT_255_2_778
10
6.4972981
20
-1.2757184
40
7.2879248
50
100.2101025
51
100.2251622
0
ARC
8
DEFAULT_255_2_778
10
0.6961353
20
30.9310108
40
25.4370946
50
280.2109778
51
280.2152565
0
ARC
8
DEFAULT_255_2_778
10
6.1822341
20
0.4881563
40
5.4961346
50
100.197628
51
100.2172649
0
ARC
8
DEFAULT_255_2_778
10
6.4349302
20
-0.9134245
40
6.9203128
50
100.1868217
51
100.2022871
0
ARC
8
DEFAULT_255_2_778
10
0.9232994
20
29.7629423
40
24.2472594
50
280.1853451
51
280.1897221
0
ARC
8
DEFAULT_255_2_778
10
0.9964279
20
29.3713814
40
23.8489375
50
280.1832239
51
280.1876369
0
ARC
8
DEFAULT_255_2_778
10
6.1227843
20
0.8436566
40
5.1357241
50
100.1647151
51
100.1850366
0
ARC
8
DEFAULT_255_2_778
10
8.7787074
20
-13.9579303
40
20.1737061
50
100.1629101
51
100.1706043
0
ARC
8
DEFAULT_255_2_778
10
7.7183528
20
-8.04191
40
14.163411
50
100.1526946
51
100.1635166
0
ARC
8
DEFAULT_255_2_778
10
7.6546242
20
-7.6864095
40
13.8022435
50
100.1414548
51
100.1524209
0
ARC
8
DEFAULT_255_2_778
10
8.5104387
20
-12.4599433
40
18.651887
50
100.1393529
51
100.1473661
0
ARC
8
DEFAULT_255_2_778
10
8.4210415
20
-11.9721315
40
18.1559559
50
100.1245171
51
100.1326462
0
ARC
8
DEFAULT_255_2_778
10
8.3389274
20
-11.5117325
40
17.6882916
50
100.1165923
51
100.1248319
0
ARC
8
DEFAULT_255_2_778
10
1.2897219
20
28.0037433
40
22.4510173
50
280.1131259
51
280.1195364
0
ARC
8
DEFAULT_255_2_778
10
7.3669492
20
-6.0515263
40
12.1422491
50
100.103552
51
100.1152567
0
ARC
8
DEFAULT_255_2_778
10
1.4879655
20
26.9541891
40
21.3829608
50
280.0973771
51
280.1039405
0
ARC
8
DEFAULT_255_2_778
10
2.8026009
20
19.5953462
40
13.9076134
50
280.0905413
51
280.1005064
0
ARC
8
DEFAULT_255_2_778
10
1.6769965
20
25.9451104
40
20.3563707
50
280.0852138
51
280.091937
0
ARC
8
DEFAULT_255_2_778
10
7.1647235
20
-4.8902298
40
10.9634848
50
100.0775168
51
100.089844
0
ARC
8
DEFAULT_255_2_778
10
8.7602554
20
-13.8633865
40
20.0773897
50
100.072015
51
100.0797697
0
ARC
8
DEFAULT_255_2_778
10
8.6567236
20
-13.2778327
40
19.4827537
50
100.0655189
51
100.073394
0
ARC
8
DEFAULT_255_2_778
10
8.5549314
20
-12.7047697
40
18.9007203
50
100.0573108
51
100.0653101
0
ARC
8
DEFAULT_255_2_778
10
8.4603943
20
-12.1620778
40
18.3498585
50
100.0544607
51
100.0625802
0
ARC
8
DEFAULT_255_2_778
10
1.1538958
20
29.0627876
40
23.5174851
50
280.0473416
51
280.0535848
0
ARC
8
DEFAULT_255_2_778
10
8.7177462
20
-13.6151442
40
19.8255386
50
100.0384181
51
100.0462373
0
ARC
8
DEFAULT_255_2_778
10
-0.2174224
20
37.2132951
40
31.7823079
50
279.9276445
51
280.2434553
0
ARC
8
DEFAULT_255_2_778
10
4.2496769
20
12.4290435
40
6.5987126
50
280.3434249
51
280.9205815
0
ARC
8
DEFAULT_255_2_778
10
4.7366434
20
9.9070935
40
4.0301785
50
280.9153347
51
281.8151686
0
ARC
8
DEFAULT_255_2_778
10
4.9788902
20
8.8810559
40
2.9764007
50
281.2948738
51
290.7521265
0
ARC
8
DEFAULT_255_2_778
10
5.5249376
20
7.3444008
40
1.3463878
50
292.1930073
51
294.5780234
0
ARC
8
DEFAULT_255_2_778
10
0.7771347
20
6.0478627
40
5.3082988
50
0.391627
51
0.7786636
0
ARC
8
DEFAULT_255_2_778
10
0.8712713
20
6.0485356
40
5.2141598
50
0.0009076
51
0.3913036
0
ARC
8
DEFAULT_255_2_778
10
1.3368486
20
6.0446147
40
4.7485841
50
356.515723
51
0.0483059
0
ARC
8
DEFAULT_255_2_778
10
2.0544761
20
6.0008711
40
4.0296245
50
352.7700985
51
356.5164218
0
ARC
8
DEFAULT_255_2_778
10
2.6811159
20
5.9204525
40
3.3978463
50
348.2624683
51
352.7855452
0
ARC
8
DEFAULT_255_2_778
10
3.2354507
20
5.8046526
40
2.8315457
50
343.0278725
51
348.2748294
0
ARC
8
DEFAULT_255_2_778
10
3.6911349
20
5.6652953
40
2.3550288
50
337.175569
51
343.0344578
0
ARC
8
DEFAULT_255_2_778
10
4.0584715
20
5.5099571
40
1.9561985
50
330.1722883
51
337.1955389
0
ARC
8
DEFAULT_255_2_778
10
4.3479462
20
5.3433055
40
1.6221806
50
321.7656512
51
330.1931838
0
ARC
8
DEFAULT_255_2_778
10
4.5575446
20
5.1776239
40
1.3550072
50
311.6883962
51
321.7835968
0
ARC
8
DEFAULT_255_2_778
10
4.6938446
20
5.0237976
40
1.1494838
50
298.978336
51
311.7143893
0
ARC
8
DEFAULT_255_2_778
10
4.7636798
20
4.8976929
40
1.0053333
50
283.3811366
51
298.9785121
0
ARC
8
DEFAULT_255_2_778
10
4.7806804
20
4.8344643
40
0.9398887
50
276.0350548
51
283.2649313
0
ARC
8
DEFAULT_255_2_778
10
4.7833821
20
4.8101849
40
0.9154598
50
270.0099969
51
276.0266625
0
ARC
8
DEFAULT_255_2_778
10
4.7773559
20
4.7552957
40
0.8605928
50
214.4846212
51
270.411845
0
ARC
8
DEFAULT_255_2_778
10
4.8095349
20
4.772647
40
0.8969499
50
196.5942403
51
214.2344112
0
ARC
8
DEFAULT_255_2_778
10
4.923228
20
4.8065707
40
1.015596
50
183.3703029
51
196.5965521
0
ARC
8
DEFAULT_255_2_778
10
5.0366324
20
4.8162993
40
1.1293803
50
179.984317
51
183.5247742
0
ARC
8
DEFAULT_255_2_778
10
5.1142413
20
4.8159418
40
1.2069893
50
175.2334145
51
179.9683563
0
ARC
8
DEFAULT_255_2_778
10
5.2172369
20
4.8074142
40
1.3103374
50
170.9685343
51
175.2360572
0
ARC
8
DEFAULT_255_2_778
10
5.3270897
20
4.7900953
40
1.4215468
50
167.3155635
51
170.9741835
0
ARC
8
DEFAULT_255_2_778
10
5.4458112
20
4.7633664
40
1.54324
50
163.8005801
51
167.3152832
0
LINE
8
DEFAULT_255_2_778
10
6.2053433
20
6.2197016
11
6.1140433
21
6.2737016
0
LINE
8
DEFAULT_255_2_778
10
3.8434433
20
5.2278016
11
3.8434433
21
5.2275016
0
LINE
8
DEFAULT_255_2_778
10
3.9638433
20
5.1939016
11
3.9638433
21
5.1945016
0
ARC
8
DEFAULT_255_2_778
10
3.9919733
20
5.2148704
40
0.9064361
50
290.1546322
51
291.0667603
0
ARC
8
DEFAULT_255_2_778
10
3.5206789
20
6.4408019
40
2.2198385
50
291.0442116
51
292.5620812
0
ARC
8
DEFAULT_255_2_778
10
3.1859513
20
7.2501219
40
3.0956465
50
292.5359034
51
294.5113093
0
ARC
8
DEFAULT_255_2_778
10
3.0694091
20
7.5087825
40
3.3793469
50
294.4897446
51
297.4957601
0
ARC
8
DEFAULT_255_2_778
10
3.2294284
20
7.209559
40
3.0400465
50
297.42418
51
302.6586804
0
ARC
8
DEFAULT_255_2_778
10
3.4448844
20
6.8646082
40
2.6333694
50
302.762127
51
303.6900722
0
ARC
8
DEFAULT_255_2_778
10
3.5806819
20
6.6636089
40
2.3908013
50
303.6542216
51
306.8407753
0
ARC
8
DEFAULT_255_2_778
10
3.9630017
20
6.1323758
40
1.736462
50
307.2549192
51
317.8182136
0
ARC
8
DEFAULT_255_2_778
10
3.6592479
20
6.4225123
40
2.1563996
50
317.5251385
51
319.4083329
0
ARC
8
DEFAULT_255_2_778
10
3.4224472
20
6.6205375
40
2.4650687
50
319.4944263
51
325.205287
0
ARC
8
DEFAULT_255_2_778
10
3.2354265
20
6.7542093
40
2.6949304
50
325.1404332
51
328.5398456
0
ARC
8
DEFAULT_255_2_778
10
3.4064091
20
6.6508734
40
2.4951503
50
328.5147944
51
330.9268946
0
ARC
8
DEFAULT_255_2_778
10
3.9504873
20
6.3490094
40
1.8729425
50
330.9100073
51
332.6256291
0
ARC
8
DEFAULT_255_2_778
10
4.8532946
20
5.8827932
40
0.8568638
50
332.5518533
51
333.8860273
0
ARC
8
DEFAULT_255_2_778
10
3.5352494
20
7.3027005
40
2.754422
50
319.0423743
51
319.2750975
0
ARC
8
DEFAULT_255_2_778
10
0.5083331
20
9.9289639
40
6.7618502
50
318.6642196
51
319.0492022
0
ARC
8
DEFAULT_255_2_778
10
-1.3694377
20
11.5792978
40
9.2617749
50
318.1635965
51
318.6707543
0
ARC
8
DEFAULT_255_2_778
10
-1.760152
20
11.9273671
40
9.7850419
50
317.3136585
51
318.1710853
0
ARC
8
DEFAULT_255_2_778
10
-0.4756018
20
10.7360476
40
8.0331049
50
315.7319855
51
317.347934
0
ARC
8
DEFAULT_255_2_778
10
1.2005645
20
9.1057544
40
5.694862
50
314.4470148
51
315.7061712
0
ARC
8
DEFAULT_255_2_778
10
2.5106515
20
7.765171
40
3.8204357
50
312.257838
51
314.4991116
0
ARC
8
DEFAULT_255_2_778
10
3.3265887
20
6.8728821
40
2.6113404
50
311.0554998
51
312.1731303
0
ARC
8
DEFAULT_255_2_778
10
3.2666604
20
6.8882758
40
2.6625399
50
309.7256624
51
311.8104147
0
ARC
8
DEFAULT_255_2_778
10
2.5035286
20
7.804384
40
3.8548581
50
308.2185266
51
309.7470467
0
ARC
8
DEFAULT_255_2_778
10
1.4733529
20
9.1152012
40
5.522042
50
306.5682701
51
308.2020422
0
ARC
8
DEFAULT_255_2_778
10
-0.107924
20
11.2514189
40
8.1798339
50
304.7649574
51
306.5492351
0
ARC
8
DEFAULT_255_2_778
10
-1.1424905
20
12.7288984
40
9.9835047
50
304.1205483
51
304.8075352
0
ARC
8
DEFAULT_255_2_778
10
-1.0493085
20
12.589261
40
9.8156356
50
303.5143245
51
304.1274714
0
ARC
8
DEFAULT_255_2_778
10
0.1249652
20
10.814831
40
7.6878387
50
303.1035681
51
303.5195071
0
ARC
8
DEFAULT_255_2_778
10
2.3315578
20
7.4284456
40
3.6459758
50
302.8055117
51
303.1202172
0
LINE
8
DEFAULT_255_2_778
10
4.3068904
20
4.3639388
11
4.3042904
21
4.3639388
0
ARC
8
DEFAULT_255_2_778
10
4.0571022
20
3.8086324
40
0.5135079
50
102.3595103
51
104.0150354
0
ARC
8
DEFAULT_255_2_778
10
4.177744
20
3.3190518
40
1.0177327
50
103.9297794
51
106.5299713
0
ARC
8
DEFAULT_255_2_778
10
4.2039837
20
3.2254068
40
1.1149741
50
106.4534916
51
111.3854676
0
ARC
8
DEFAULT_255_2_778
10
4.1328208
20
3.4065069
40
0.9203942
50
111.3713543
51
115.9477358
0
ARC
8
DEFAULT_255_2_778
10
3.910879
20
3.8180296
40
0.4536645
50
113.4833944
51
143.2552773
0
ARC
8
DEFAULT_255_2_778
10
3.7390091
20
3.9642043
40
0.2289421
50
146.8388366
51
154.83982
0
ARC
8
DEFAULT_255_2_778
10
4.4187475
20
3.2243424
40
0.9125505
50
150.605296
51
166.3988552
0
ARC
8
DEFAULT_255_2_778
10
4.5733613
20
3.1368835
40
1.090186
50
138.6872117
51
150.5889347
0
ARC
8
DEFAULT_255_2_778
10
4.6959015
20
3.0341073
40
1.250083
50
135.1056274
51
138.8568129
0
ARC
8
DEFAULT_255_2_778
10
4.7760382
20
2.9529318
40
1.3641468
50
128.2611789
51
135.0659415
0
ARC
8
DEFAULT_255_2_778
10
4.7972307
20
2.9281097
40
1.3967611
50
123.8880143
51
128.3132468
0
ARC
8
DEFAULT_255_2_778
10
4.7072078
20
3.0630005
40
1.2345902
50
120.9012715
51
123.9103199
0
ARC
8
DEFAULT_255_2_778
10
4.5340632
20
3.3527941
40
0.8970118
50
118.7719827
51
120.9178223
0
ARC
8
DEFAULT_255_2_778
10
4.2953516
20
3.7889171
40
0.3998344
50
117.1677483
51
118.8688792
0
ARC
8
DEFAULT_255_2_778
10
2.3428745
20
2.9368324
40
0.5135079
50
75.9849646
51
77.6404897
0
ARC
8
DEFAULT_255_2_778
10
2.2222327
20
2.4472518
40
1.0177327
50
73.4700287
51
76.0702206
0
ARC
8
DEFAULT_255_2_778
10
2.195993
20
2.3536068
40
1.1149741
50
68.6145324
51
73.5465084
0
ARC
8
DEFAULT_255_2_778
10
2.2671558
20
2.5347069
40
0.9203942
50
64.0522642
51
68.6286457
0
ARC
8
DEFAULT_255_2_778
10
2.4890977
20
2.9462296
40
0.4536645
50
36.7447227
51
66.5166056
0
ARC
8
DEFAULT_255_2_778
10
2.6609675
20
3.0924043
40
0.2289421
50
25.16018
51
33.1611634
0
ARC
8
DEFAULT_255_2_778
10
1.9812292
20
2.3525424
40
0.9125505
50
13.6011448
51
29.394704
0
ARC
8
DEFAULT_255_2_778
10
1.8266154
20
2.2650835
40
1.090186
50
29.4110653
51
41.3127883
0
ARC
8
DEFAULT_255_2_778
10
1.7040752
20
2.1623073
40
1.250083
50
41.1431871
51
44.8943726
0
ARC
8
DEFAULT_255_2_778
10
1.6239385
20
2.0811318
40
1.3641468
50
44.9340585
51
51.7388211
0
ARC
8
DEFAULT_255_2_778
10
1.6027459
20
2.0563097
40
1.3967611
50
51.6867532
51
56.1119857
0
ARC
8
DEFAULT_255_2_778
10
1.6927689
20
2.1912005
40
1.2345902
50
56.0896801
51
59.0987285
0
ARC
8
DEFAULT_255_2_778
10
1.8659135
20
2.4809941
40
0.8970118
50
59.0821777
51
61.2280173
0
ARC
8
DEFAULT_255_2_778
10
2.1046251
20
2.9171171
40
0.3998344
50
61.1311208
51
62.8322517
0
LINE
8
DEFAULT_255_2_778
10
3.5317883
20
4.0615392
11
3.5317883
21
3.4389392
0
LINE
8
DEFAULT_255_2_778
10
4.1127883
20
4.1446392
11
3.9471883
21
4.3102392
0
LINE
8
DEFAULT_255_2_778
10
2.8681883
20
3.1897392
11
2.8681883
21
2.5671392
0
LINE
8
DEFAULT_255_2_778
10
2.2871883
20
3.2728392
11
2.4527883
21
3.4384392
0
ARC
8
DEFAULT_255_2_778
10
3.926746
20
1.5112134
40
1.2863568
50
342.9562912
51
0.3777332
0
ARC
8
DEFAULT_255_2_778
10
4.2728997
20
1.3999267
40
0.9228007
50
319.5663985
51
343.2630839
0
ARC
8
DEFAULT_255_2_778
10
4.4968086
20
1.2014828
40
0.6236937
50
270.2265699
51
320.1017387
0
ARC
8
DEFAULT_255_2_778
10
4.4821257
20
1.4418599
40
0.8642362
50
246.0462027
51
271.1370033
0
ARC
8
DEFAULT_255_2_778
10
4.4238503
20
1.273443
40
0.6868313
50
208.4436436
51
244.7847107
0
ARC
8
DEFAULT_255_2_778
10
4.7393707
20
1.4528582
40
1.049745
50
193.4089609
51
208.8517319
0
ARC
8
DEFAULT_255_2_778
10
5.3500885
20
1.6044139
40
1.6789705
50
183.5934764
51
193.6068488
0
ARC
8
DEFAULT_255_2_778
10
6.0340431
20
1.6595907
40
2.36507
50
179.9272458
51
183.889037
0
ARC
8
DEFAULT_255_2_778
10
4.8416503
20
1.669655
40
1.1726967
50
158.4591128
51
180.3449951
0
ARC
8
DEFAULT_255_2_778
10
4.5715464
20
1.7831394
40
0.8798136
50
130.2595751
51
158.874956
0
ARC
8
DEFAULT_255_2_778
10
4.4141772
20
1.965688
40
0.6388098
50
90.1975256
51
130.0694245
0
ARC
8
DEFAULT_255_2_778
10
4.4233634
20
1.2189211
40
1.3856196
50
90.0027817
51
90.4709221
0
ARC
8
DEFAULT_255_2_778
10
4.4398202
20
1.6561976
40
0.948487
50
72.702284
51
90.9982311
0
ARC
8
DEFAULT_255_2_778
10
4.5378405
20
1.989672
40
0.6009754
50
26.3815789
51
72.1715195
0
ARC
8
DEFAULT_255_2_778
10
4.1654242
20
1.78993
40
1.0234495
50
12.7767982
51
27.135003
0
ARC
8
DEFAULT_255_2_778
10
3.4443965
20
1.6178167
40
1.7647075
50
4.572944
51
13.0493251
0
ARC
8
DEFAULT_255_2_778
10
2.4242249
20
1.5273241
40
2.7888605
50
359.8432411
51
4.7551334
0
ARC
8
DEFAULT_255_2_778
10
4.0491945
20
1.6732685
40
2.0317965
50
359.7723005
51
14.6638586
0
ARC
8
DEFAULT_255_2_778
10
4.3720924
20
1.7603062
40
1.6973844
50
14.5807568
51
34.8773337
0
ARC
8
DEFAULT_255_2_778
10
4.5839993
20
1.9161448
40
1.4344444
50
34.6107689
51
90.1625482
0
ARC
8
DEFAULT_255_2_778
10
4.5742295
20
1.8180114
40
1.5325825
50
89.7868953
51
90.0020431
0
ARC
8
DEFAULT_255_2_778
10
4.5698427
20
2.3250546
40
1.0255485
50
89.7579667
51
107.4642265
0
ARC
8
DEFAULT_255_2_778
10
4.5835231
20
2.3080618
40
1.0458938
50
107.8997472
51
130.0908666
0
ARC
8
DEFAULT_255_2_778
10
4.7669642
20
2.0842749
40
1.3352381
50
129.9285688
51
141.7426977
0
ARC
8
DEFAULT_255_2_778
10
4.9397391
20
1.9410253
40
1.5596165
50
141.5405023
51
144.8020126
0
ARC
8
DEFAULT_255_2_778
10
2.8729925
20
4.6525216
40
0.7923551
50
359.2242502
51
16.3473692
0
ARC
8
DEFAULT_255_2_778
10
3.1839499
20
4.7490886
40
0.4668173
50
15.7163651
51
54.5550537
0
ARC
8
DEFAULT_255_2_778
10
3.1453688
20
4.6592246
40
0.5627813
50
56.6612217
51
88.9961762
0
ARC
8
DEFAULT_255_2_778
10
3.1173248
20
4.4008742
40
0.8219198
50
87.3568296
51
90.0174223
0
ARC
8
DEFAULT_255_2_778
10
4.7684949
20
1.5423029
40
1.9419337
50
179.7848819
51
195.6873599
0
ARC
8
DEFAULT_255_2_778
10
4.5302683
20
1.4744053
40
1.6942222
50
195.6550692
51
217.6304642
0
ARC
8
DEFAULT_255_2_778
10
4.4063503
20
1.3741974
40
1.5349044
50
217.4923101
51
270.060644
0
ARC
8
DEFAULT_255_2_778
10
4.4158271
20
1.7422188
40
1.9029411
50
269.7635767
51
270.0013381
0
ARC
8
DEFAULT_255_2_778
10
4.4242457
20
1.5685011
40
1.7292437
50
269.7225331
51
286.2261053
0
ARC
8
DEFAULT_255_2_778
10
4.4490939
20
1.424733
40
1.5843432
50
286.8161117
51
338.5086591
0
ARC
8
DEFAULT_255_2_778
10
4.0119406
20
1.6321205
40
2.0673415
50
337.5992273
51
356.0890266
0
ARC
8
DEFAULT_255_2_778
10
3.7561945
20
1.6608758
40
2.3244806
50
355.8118528
51
0.015236
0
ARC
8
DEFAULT_255_2_778
10
8.3304999
20
2.128664
40
0.2292928
50
291.6482294
51
4.5350324
0
ARC
8
DEFAULT_255_2_778
10
8.1428392
20
2.5150476
40
0.6584251
50
281.2213973
51
294.4239016
0
ARC
8
DEFAULT_255_2_778
10
7.938991
20
3.4676494
40
1.6325497
50
275.3663468
51
281.7328986
0
ARC
8
DEFAULT_255_2_778
10
7.7445604
20
5.4223632
40
3.596896
50
271.9706614
51
275.5378522
0
ARC
8
DEFAULT_255_2_778
10
7.6072961
20
9.0961863
40
7.2732746
50
269.9997583
51
272.0561216
0
ARC
8
DEFAULT_255_2_778
10
7.5881414
20
12.0954169
40
10.2725229
50
269.9990712
51
270.106666
0
ARC
8
DEFAULT_255_2_778
10
7.986909
20
1.9118413
40
0.7682861
50
131.3244497
51
178.265645
0
ARC
8
DEFAULT_255_2_778
10
7.9140249
20
1.9792014
40
0.6696513
50
90.1740914
51
130.4469669
0
ARC
8
DEFAULT_255_2_778
10
7.9200487
20
1.9142864
40
0.7346075
50
89.9979551
51
90.6285342
0
ARC
8
DEFAULT_255_2_778
10
7.9348227
20
1.3129788
40
1.3359965
50
90.0022461
51
90.6324888
0
ARC
8
DEFAULT_255_2_778
10
7.9475048
20
1.6706445
40
0.9784136
50
75.0098095
51
90.7457507
0
ARC
8
DEFAULT_255_2_778
10
8.0778028
20
2.1245916
40
0.5062827
50
42.0137939
51
75.9660115
0
ARC
8
DEFAULT_255_2_778
10
8.1063441
20
2.175404
40
0.4514532
50
3.2143062
51
39.6461959
0
ARC
8
DEFAULT_255_2_778
10
7.9089632
20
2.1474128
40
0.6503119
50
359.9454724
51
4.7016713
0
ARC
8
DEFAULT_255_2_778
10
8.008287
20
2.0588484
40
1.3353081
50
359.6844306
51
18.5896364
0
ARC
8
DEFAULT_255_2_778
10
8.0587531
20
2.0493058
40
1.2907617
50
19.7053246
51
80.5042818
0
ARC
8
DEFAULT_255_2_778
10
7.998959
20
1.8830606
40
1.4649333
50
79.2702659
51
90.0111098
0
ARC
8
DEFAULT_255_2_778
10
7.9879423
20
1.6140863
40
1.7339408
50
89.6453537
51
108.3529878
0
ARC
8
DEFAULT_255_2_778
10
7.9246282
20
1.8277939
40
1.5111848
50
108.6258441
51
154.0723331
0
ARC
8
DEFAULT_255_2_778
10
8.2851567
20
1.6347493
40
1.9198975
50
153.5954951
51
168.6456593
0
ARC
8
DEFAULT_255_2_778
10
8.7858579
20
1.5317033
40
2.4310876
50
168.5878432
51
180.1444741
0
ARC
8
DEFAULT_255_2_778
10
9.324839
20
1.5213493
40
2.9700641
50
179.9185171
51
179.9972112
0
ARC
8
DEFAULT_255_2_778
10
8.0123777
20
1.4901245
40
1.6578996
50
178.9158318
51
179.9994931
0
ARC
8
DEFAULT_255_2_778
10
8.0082008
20
1.4900696
40
1.6537227
50
179.997589
51
224.4303878
0
ARC
8
DEFAULT_255_2_778
10
8.0083092
20
1.490482
40
1.6540889
50
224.4379607
51
269.9503164
0
ARC
8
DEFAULT_255_2_778
10
8.0173125
20
2.951491
40
3.1151146
50
269.8080219
51
275.4740148
0
ARC
8
DEFAULT_255_2_778
10
8.1273384
20
1.837092
40
1.9953044
50
275.3816435
51
283.3455433
0
ARC
8
DEFAULT_255_2_778
10
8.3080908
20
1.0900794
40
1.2267475
50
283.1847178
51
295.0914426
0
ARC
8
DEFAULT_255_2_778
10
8.5121384
20
0.6622976
40
0.7528129
50
294.8337996
51
314.6204241
0
ARC
8
DEFAULT_255_2_778
10
8.5790452
20
0.569722
40
0.6401607
50
316.1782264
51
2.3341331
0
ARC
8
DEFAULT_255_2_778
10
8.384329
20
1.7993061
40
1.236758
50
277.7339279
51
310.3804371
0
ARC
8
DEFAULT_255_2_778
10
8.2107777
20
2.5393977
40
1.9947863
50
277.6974717
51
279.8132343
0
ARC
8
DEFAULT_255_2_778
10
8.1625477
20
2.9499208
40
2.408081
50
270.2568047
51
277.5263727
0
ARC
8
DEFAULT_255_2_778
10
8.1537009
20
3.2970194
40
2.7552255
50
269.9994589
51
270.4084226
0
ARC
8
DEFAULT_255_2_778
10
8.143451
20
1.7273517
40
1.1856019
50
250.6436432
51
270.4940881
0
ARC
8
DEFAULT_255_2_778
10
8.0167572
20
1.3944533
40
0.8295795
50
213.784453
51
251.2787748
0
ARC
8
DEFAULT_255_2_778
10
7.9632038
20
1.3418103
40
0.7559254
50
188.4450918
51
212.7252227
0
ARC
8
DEFAULT_255_2_778
10
7.7793137
20
8.3327034
40
7.1019267
50
269.8738314
51
272.8170406
0
ARC
8
DEFAULT_255_2_778
10
7.9332042
20
5.3054169
40
4.0707383
50
272.7477495
51
277.3542392
0
ARC
8
DEFAULT_255_2_778
10
8.1714966
20
3.4977309
40
2.2474259
50
277.2282492
51
284.6377485
0
ARC
8
DEFAULT_255_2_778
10
8.4417574
20
2.4833491
40
1.1976823
50
284.3914893
51
297.1029769
0
ARC
8
DEFAULT_255_2_778
10
8.7049525
20
1.987965
40
0.6368456
50
296.3291584
51
327.8483552
0
ARC
8
DEFAULT_255_2_778
10
8.6504089
20
1.9960076
40
0.6876635
50
329.6997714
51
355.5270651
0
ARC
8
DEFAULT_255_2_778
10
8.2524319
20
2.0486573
40
1.0887455
50
354.3980783
51
0.1229632
0
ARC
8
DEFAULT_255_2_778
10
10.8305941
20
1.0423135
40
0.6922025
50
341.9414002
51
1.0744919
0
ARC
8
DEFAULT_255_2_778
10
11.1013949
20
0.9579313
40
0.4086008
50
279.0727056
51
341.4197712
0
ARC
8
DEFAULT_255_2_778
10
10.9948415
20
1.3721829
40
0.8354252
50
269.4673347
51
281.8100549
0
ARC
8
DEFAULT_255_2_778
10
10.9760514
20
1.5145362
40
0.9778045
50
256.5061983
51
270.6459491
0
ARC
8
DEFAULT_255_2_778
10
10.863889
20
1.0712965
40
0.520659
50
231.5601666
51
257.1269277
0
ARC
8
DEFAULT_255_2_778
10
10.7704277
20
0.9405556
40
0.3602409
50
178.1486193
51
230.2755695
0
ARC
8
DEFAULT_255_2_778
10
10.7383475
20
0.9787864
40
0.329049
50
117.8025273
51
184.6354864
0
ARC
8
DEFAULT_255_2_778
10
10.897884
20
0.6838974
40
0.6643176
50
102.8045974
51
118.110937
0
ARC
8
DEFAULT_255_2_778
10
11.0768973
20
-0.0561977
40
1.4257208
50
94.9185989
51
103.2280386
0
ARC
8
DEFAULT_255_2_778
10
11.2021207
20
-1.3916704
40
2.7670312
50
90.3218311
51
95.1310158
0
ARC
8
DEFAULT_255_2_778
10
11.2236095
20
-2.5025262
40
3.8780202
50
89.9960789
51
90.5471254
0
ARC
8
DEFAULT_255_2_778
10
9.8388536
20
1.8423666
40
2.5040419
50
359.7672351
51
7.8351034
0
ARC
8
DEFAULT_255_2_778
10
10.5789704
20
1.9467691
40
1.7566038
50
7.7524763
51
18.8866584
0
ARC
8
DEFAULT_255_2_778
10
11.0409882
20
2.1069991
40
1.2675964
50
18.7940156
51
35.3339812
0
ARC
8
DEFAULT_255_2_778
10
11.1070011
20
2.1116233
40
1.2115578
50
36.9612797
51
83.6927127
0
ARC
8
DEFAULT_255_2_778
10
10.930772
20
1.261645
40
2.0773622
50
81.4364662
51
90.2040209
0
ARC
8
DEFAULT_255_2_778
10
10.9159646
20
1.0908664
40
2.2481398
50
89.8111419
51
97.3830881
0
ARC
8
DEFAULT_255_2_778
10
10.8372448
20
1.685528
40
1.6482934
50
97.3256855
51
107.0441733
0
ARC
8
DEFAULT_255_2_778
10
10.7056598
20
2.1092264
40
1.2046365
50
106.9673156
51
119.8564014
0
ARC
8
DEFAULT_255_2_778
10
10.5537759
20
2.3714331
40
0.9016196
50
119.7806868
51
137.3716563
0
ARC
8
DEFAULT_255_2_778
10
10.4247647
20
2.4900441
40
0.72637
50
137.3636112
51
161.6120897
0
ARC
8
DEFAULT_255_2_778
10
10.3745541
20
2.5103666
40
0.6723212
50
161.9057633
51
165.3714568
0
ARC
8
DEFAULT_255_2_778
10
10.3517598
20
2.5156796
40
0.6489245
50
165.3170671
51
177.8724822
0
ARC
8
DEFAULT_255_2_778
10
10.3295454
20
2.5171659
40
0.6266705
50
177.9328823
51
179.9974402
0
ARC
8
DEFAULT_255_2_778
10
10.1971847
20
1.8809214
40
0.5890973
50
134.8946936
51
141.5433813
0
ARC
8
DEFAULT_255_2_778
10
10.3236658
20
1.7550254
40
0.767554
50
129.2018279
51
134.9500612
0
ARC
8
DEFAULT_255_2_778
10
10.3936585
20
1.6714275
40
0.8765764
50
127.4598244
51
129.2933768
0
ARC
8
DEFAULT_255_2_778
10
10.495529
20
1.5315084
40
1.0496081
50
117.2008903
51
127.2285486
0
ARC
8
DEFAULT_255_2_778
10
10.6266762
20
1.2784961
40
1.3345889
50
107.8019394
51
117.2433358
0
ARC
8
DEFAULT_255_2_778
10
10.723391
20
0.9792291
40
1.6490952
50
99.191295
51
107.8224321
0
ARC
8
DEFAULT_255_2_778
10
10.7852275
20
0.6007157
40
2.0326261
50
91.5586744
51
99.2077031
0
ARC
8
DEFAULT_255_2_778
10
10.7981817
20
0.3143193
40
2.3192746
50
89.9927561
51
91.6861298
0
ARC
8
DEFAULT_255_2_778
10
10.8141334
20
0.9414036
40
1.6922627
50
82.1430365
51
90.5301645
0
ARC
8
DEFAULT_255_2_778
10
10.9522547
20
1.8890173
40
0.7346996
50
64.7560087
51
82.7112013
0
ARC
8
DEFAULT_255_2_778
10
11.0778341
20
2.1709373
40
0.4261986
50
11.1579771
51
63.8626662
0
ARC
8
DEFAULT_255_2_778
10
10.5672556
20
2.037778
40
0.9534258
50
359.882533
51
13.0716057
0
ARC
8
DEFAULT_255_2_778
10
10.0921533
20
2.019296
40
1.4286216
50
359.995906
51
0.662855
0
ARC
8
DEFAULT_255_2_778
10
11.2197865
20
-2.2223902
40
4.2000972
50
89.8569221
51
94.9130448
0
ARC
8
DEFAULT_255_2_778
10
11.1081011
20
-0.9498683
40
2.9226865
50
94.8681234
51
101.3856237
0
ARC
8
DEFAULT_255_2_778
10
10.9166553
20
-0.0165826
40
1.9699764
50
101.2856567
51
110.5241069
0
ARC
8
DEFAULT_255_2_778
10
10.6790925
20
0.6092927
40
1.3005424
50
110.3897107
51
123.9133152
0
ARC
8
DEFAULT_255_2_778
10
10.4527527
20
0.9413223
40
0.898717
50
123.7486057
51
146.8811238
0
ARC
8
DEFAULT_255_2_778
10
10.4866908
20
0.9450256
40
0.9253712
50
148.2214072
51
181.3456723
0
ARC
8
DEFAULT_255_2_778
10
10.5325097
20
0.9243973
40
0.9709355
50
180.0651123
51
238.7337228
0
ARC
8
DEFAULT_255_2_778
10
10.7793653
20
1.272957
40
1.3973179
50
237.4995994
51
255.7124705
0
ARC
8
DEFAULT_255_2_778
10
10.8927848
20
1.7003413
40
1.8394788
50
255.5742363
51
269.314913
0
ARC
8
DEFAULT_255_2_778
10
10.9063273
20
1.9641875
40
2.1034937
50
269.0319924
51
270.0012978
0
ARC
8
DEFAULT_255_2_778
10
11.0859956
20
1.3508925
40
1.4902283
50
269.637794
51
287.3089736
0
ARC
8
DEFAULT_255_2_778
10
11.187458
20
1.0440599
40
1.1671168
50
287.0351673
51
319.2517104
0
ARC
8
DEFAULT_255_2_778
10
11.1999367
20
1.0143538
40
1.1383633
50
319.9744723
51
350.8817763
0
ARC
8
DEFAULT_255_2_778
10
10.9890607
20
1.0579424
40
1.3535164
50
350.4745552
51
0.1037758
0
ARC
8
DEFAULT_255_2_778
10
13.7973815
20
1.8810579
40
1.816317
50
359.7077656
51
12.9147093
0
ARC
8
DEFAULT_255_2_778
10
14.1714296
20
1.9682398
40
1.4322463
50
12.8596376
51
31.666691
0
ARC
8
DEFAULT_255_2_778
10
14.2428601
20
1.9852368
40
1.3627223
50
32.63516
51
85.0658738
0
ARC
8
DEFAULT_255_2_778
10
14.1700532
20
1.6427112
40
1.710783
50
83.6230536
51
90.0361149
0
ARC
8
DEFAULT_255_2_778
10
14.1603666
20
1.3887791
40
1.9647336
50
89.748963
51
100.8522653
0
ARC
8
DEFAULT_255_2_778
10
14.0769103
20
1.8166496
40
1.5288029
50
100.7995918
51
116.0582714
0
ARC
8
DEFAULT_255_2_778
10
13.9794582
20
2.0191561
40
1.3040732
50
116.12032
51
139.3463297
0
ARC
8
DEFAULT_255_2_778
10
14.1060765
20
1.9404169
40
1.4516094
50
140.2444596
51
179.0410539
0
ARC
8
DEFAULT_255_2_778
10
14.2634112
20
1.9173975
40
1.6094363
50
178.315402
51
180.000128
0
ARC
8
DEFAULT_255_2_778
10
13.1782022
20
0.4473394
40
0.5244349
50
178.3878236
51
254.5542783
0
ARC
8
DEFAULT_255_2_778
10
13.234713
20
0.6159569
40
0.7020778
50
253.7738469
51
270.3722903
0
ARC
8
DEFAULT_255_2_778
10
14.5934252
20
1.8662799
40
1.1054982
50
165.433427
51
180.5331126
0
ARC
8
DEFAULT_255_2_778
10
14.2037773
20
1.9721317
40
0.7017668
50
141.0120565
51
165.7968281
0
ARC
8
DEFAULT_255_2_778
10
14.0827332
20
2.057634
40
0.5539724
50
88.4130518
51
140.0091148
0
ARC
8
DEFAULT_255_2_778
10
14.1124535
20
1.8006441
40
0.8108773
50
70.8318724
51
91.0160285
0
ARC
8
DEFAULT_255_2_778
10
14.1925518
20
2.0535839
40
0.5457111
50
21.0178681
51
70.0556403
0
ARC
8
DEFAULT_255_2_778
10
13.8043722
20
1.8854697
40
0.9685222
50
6.8622059
51
22.0653326
0
ARC
8
DEFAULT_255_2_778
10
13.1804585
20
1.7982581
40
1.598432
50
359.7467815
51
7.2937969
0
ARC
8
DEFAULT_255_2_778
10
15.3039166
20
0.4487895
40
0.5251295
50
178.9520247
51
254.4949306
0
ARC
8
DEFAULT_255_2_778
10
15.3831495
20
0.6661978
40
0.7560262
50
253.1131464
51
270.4414814
0
LINE
8
DEFAULT_255_2_778
10
5.2130749
20
1.5196939
11
5.2130749
21
1.5196939
0
LINE
8
DEFAULT_255_2_778
10
3.6652749
20
2.8399939
11
3.6652749
21
4.6417939
0
LINE
8
DEFAULT_255_2_778
10
3.1170749
20
5.2227939
11
2.8265749
21
5.2227939
0
LINE
8
DEFAULT_255_2_778
10
2.8265749
20
5.2227939
11
2.8265749
21
1.5495939
0
LINE
8
DEFAULT_255_2_778
10
6.0806749
20
1.6614939
11
6.0809749
21
1.6651939
0
LINE
8
DEFAULT_255_2_778
10
7.5879749
20
1.8228939
11
7.2146749
21
1.8228939
0
LINE
8
DEFAULT_255_2_778
10
7.2146749
20
1.8228939
11
7.2189749
21
1.9350939
0
LINE
8
DEFAULT_255_2_778
10
8.5592749
20
2.1467939
11
8.5590749
21
2.1467939
0
LINE
8
DEFAULT_255_2_778
10
9.2186749
20
0.5957939
11
9.2186749
21
0.8571939
0
LINE
8
DEFAULT_255_2_778
10
9.2186749
20
0.8571939
11
9.1855749
21
0.8571939
0
LINE
8
DEFAULT_255_2_778
10
7.2154749
20
1.2307939
11
7.7636749
21
1.2307939
0
LINE
8
DEFAULT_255_2_778
10
9.3411749
20
2.0509939
11
9.3435749
21
2.0514939
0
LINE
8
DEFAULT_255_2_778
10
11.2238749
20
1.3754939
11
11.5228749
21
1.3754939
0
LINE
8
DEFAULT_255_2_778
10
11.5228749
20
1.3754939
11
11.5226749
21
1.0552939
0
LINE
8
DEFAULT_255_2_778
10
12.3428749
20
1.0595939
11
12.3428749
21
1.8321939
0
LINE
8
DEFAULT_255_2_778
10
9.7028749
20
2.5171939
11
9.7028749
21
2.2472939
0
LINE
8
DEFAULT_255_2_778
10
9.7028749
20
2.2472939
11
9.7358749
21
2.2472939
0
LINE
8
DEFAULT_255_2_778
10
11.5207749
20
2.0191939
11
11.5207749
21
1.9776939
0
LINE
8
DEFAULT_255_2_778
10
11.5207749
20
1.9776939
11
11.2302749
21
1.9776939
0
LINE
8
DEFAULT_255_2_778
10
10.9063749
20
-0.1393061
11
11.0765749
21
-0.1393061
0
LINE
8
DEFAULT_255_2_778
10
12.3425749
20
1.0603939
11
12.3428749
21
1.0595939
0
LINE
8
DEFAULT_255_2_778
10
15.6136749
20
-0.0861061
11
15.6136749
21
1.8717939
0
LINE
8
DEFAULT_255_2_778
10
12.6539749
20
1.9173939
11
12.6539749
21
0.4620939
0
LINE
8
DEFAULT_255_2_778
10
13.2392749
20
-0.0861061
11
13.4879749
21
-0.0861061
0
LINE
8
DEFAULT_255_2_778
10
13.4879749
20
-0.0861061
11
13.4879749
21
1.8559939
0
LINE
8
DEFAULT_255_2_778
10
14.7788749
20
1.7911939
11
14.7788749
21
0.4583939
0
LINE
8
DEFAULT_255_2_778
10
15.3889749
20
-0.0898061
11
15.6136749
21
-0.0861061
0
ENDSEC
0
EOF