0
SECTION
2
HEADER
9
$MEASUREMENT
70
1
0
ENDSEC
0
SECTION
2
TABLES
0
TABLE
2
LTYPE
0
LTYPE
72
65
70
64
2
CONTINUOUS
3
______
73
0
40
0
0
ENDTAB
0
TABLE
2
LAYER
0
LAYER
2
DEFAULT_255_2_778
70
0
62
255
6
CONTINUOUS
0
ENDTAB
0
ENDSEC
0
SECTION
2
ENTITIES
0
ARC
8
DEFAULT_255_2_778
10
-1.3083792
20
11.207153
40
7.366444
50
29.7589793
51
49.3989111
0
ARC
8
DEFAULT_255_2_778
10
0.8172068
20
12.5024854
40
4.878731
50
14.3832069
51
28.9431519
0
ARC
8
DEFAULT_255_2_778
10
1.7779091
20
12.9282593
40
3.8463041
50
7.6997779
51
11.7935796
0
ARC
8
DEFAULT_255_2_778
10
3.1036866
20
13.1041418
40
2.5089173
50
0.2110358
51
7.7759193
0
ARC
8
DEFAULT_255_2_778
10
3.5247157
20
13.1127273
40
2.0878713
50
356.7170986
51
0.0179872
0
ARC
8
DEFAULT_255_2_778
10
3.5897118
20
13.1103454
40
2.0228458
50
345.3446317
51
356.6790278
0
ARC
8
DEFAULT_255_2_778
10
3.2003828
20
13.2123063
40
2.4253047
50
338.8405254
51
345.3412856
0
ARC
8
DEFAULT_255_2_778
10
2.7977138
20
13.3615325
40
2.8546975
50
337.6108444
51
338.9646454
0
ARC
8
DEFAULT_255_2_778
10
2.6130493
20
13.0005616
40
2.9160843
50
344.9879881
51
345.5762758
0
ARC
8
DEFAULT_255_2_778
10
0.922492
20
13.5087431
40
4.6808748
50
337.3930258
51
344.3398782
0
ARC
8
DEFAULT_255_2_778
10
-3.671742
20
15.3055564
40
9.6134114
50
337.9789763
51
338.0325842
0
ARC
8
DEFAULT_255_2_778
10
-4.3564453
20
15.5823849
40
10.3519589
50
337.9302114
51
337.979499
0
ARC
8
DEFAULT_255_2_778
10
-4.1819538
20
15.5115055
40
10.163621
50
337.8812056
51
337.9309059
0
ARC
8
DEFAULT_255_2_778
10
-5.4713618
20
16.0354885
40
11.5554296
50
337.838314
51
337.8815918
0
ARC
8
DEFAULT_255_2_778
10
-6.6107765
20
16.5004392
40
12.7860572
50
337.7960538
51
337.8347752
0
ARC
8
DEFAULT_255_2_778
10
-5.8236081
20
16.1797668
40
11.9360781
50
337.7521975
51
337.7932614
0
ARC
8
DEFAULT_255_2_778
10
-5.6219077
20
16.0972044
40
11.718134
50
337.7110313
51
337.7524398
0
ARC
8
DEFAULT_255_2_778
10
-6.8892885
20
16.6165709
40
13.087804
50
337.6748922
51
337.7115953
0
ARC
8
DEFAULT_255_2_778
10
-7.5421628
20
16.8852459
40
13.7938002
50
337.6324473
51
337.6726737
0
ARC
8
DEFAULT_255_2_778
10
-6.733555
20
16.5525662
40
12.9194304
50
337.5897203
51
337.6321651
0
ARC
8
DEFAULT_255_2_778
10
-7.8398387
20
17.0087982
40
14.1160971
50
337.5512455
51
337.5896356
0
ARC
8
DEFAULT_255_2_778
10
-9.2469113
20
17.5901768
40
15.6385473
50
337.5169199
51
337.5511647
0
ARC
8
DEFAULT_255_2_778
10
-8.936282
20
17.4619522
40
15.3024937
50
337.4811769
51
337.5157613
0
ARC
8
DEFAULT_255_2_778
10
-8.6306009
20
17.3348741
40
14.9714503
50
337.4474585
51
337.4823903
0
ARC
8
DEFAULT_255_2_778
10
-9.2146251
20
17.5768908
40
15.6036339
50
337.4137394
51
337.4492278
0
ARC
8
DEFAULT_255_2_778
10
-10.8600683
20
18.260709
40
17.3855124
50
337.3842726
51
337.4157195
0
ARC
8
DEFAULT_255_2_778
10
-12.5938817
20
18.98278
40
19.2636752
50
337.3558784
51
337.3848337
0
ARC
8
DEFAULT_255_2_778
10
-13.9300267
20
19.5411196
40
20.7117863
50
337.3264511
51
337.3534567
0
ARC
8
DEFAULT_255_2_778
10
-13.906177
20
19.5308795
40
20.6858326
50
337.3001624
51
337.3271578
0
ARC
8
DEFAULT_255_2_778
10
-15.5142637
20
20.2042239
40
22.4292014
50
337.273922
51
337.2985776
0
ARC
8
DEFAULT_255_2_778
10
-14.9918518
20
19.9848069
40
21.8625821
50
337.250442
51
337.2753914
0
ARC
8
DEFAULT_255_2_778
10
-18.7420643
20
21.5570878
40
25.9290499
50
337.230263
51
337.251012
0
ARC
8
DEFAULT_255_2_778
10
-21.500571
20
22.7156698
40
28.9209843
50
337.2105878
51
337.2289355
0
ARC
8
DEFAULT_255_2_778
10
59.2125994
20
-11.4383567
40
58.721118
50
156.9921001
51
157.4409368
0
ARC
8
DEFAULT_255_2_778
10
18.2164241
20
5.6409227
40
14.309634
50
157.6205492
51
158.2779
0
ARC
8
DEFAULT_255_2_778
10
7.5657627
20
10.0552995
40
2.7860373
50
161.5505349
51
174.6463047
0
ARC
8
DEFAULT_255_2_778
10
7.5775463
20
10.0542292
40
2.7978693
50
174.6469974
51
180.0032096
0
ARC
8
DEFAULT_255_2_778
10
7.6313387
20
10.0555813
40
2.851662
50
180.0303167
51
191.0268328
0
ARC
8
DEFAULT_255_2_778
10
7.7871727
20
10.0865242
40
3.0105373
50
191.0375935
51
200.3855755
0
ARC
8
DEFAULT_255_2_778
10
7.9450327
20
10.1422575
40
3.1779257
50
200.3360735
51
203.4109925
0
ARC
8
DEFAULT_255_2_778
10
1.7900338
20
7.2925788
40
3.6066175
50
10.5225132
51
26.1056668
0
ARC
8
DEFAULT_255_2_778
10
-0.1392064
20
6.9091922
40
5.5734833
50
3.2078094
51
10.7755874
0
ARC
8
DEFAULT_255_2_778
10
-2.8323077
20
6.7334156
40
8.2722382
50
359.9042503
51
3.379593
0
ARC
8
DEFAULT_255_2_778
10
3.4771784
20
6.9606387
40
1.9774868
50
339.4714245
51
352.9984745
0
ARC
8
DEFAULT_255_2_778
10
3.9920684
20
6.7615491
40
1.4254902
50
316.9705064
51
339.7080908
0
ARC
8
DEFAULT_255_2_778
10
4.1169507
20
6.6649244
40
1.2683506
50
284.6023564
51
316.3116969
0
ARC
8
DEFAULT_255_2_778
10
4.0126972
20
7.041561
40
1.6591151
50
270.0597952
51
284.807231
0
ARC
8
DEFAULT_255_2_778
10
3.9997354
20
7.3379658
40
1.9555743
50
269.9995162
51
270.430497
0
ARC
8
DEFAULT_255_2_778
10
4.0055108
20
9.28251
40
3.9001229
50
258.5040105
51
269.9149125
0
ARC
8
DEFAULT_255_2_778
10
4.118965
20
9.8418781
40
4.4708805
50
250.1572263
51
258.5079009
0
ARC
8
DEFAULT_255_2_778
10
4.2803667
20
10.3164035
40
4.9720271
50
248.482736
51
250.2638666
0
ARC
8
DEFAULT_255_2_778
10
4.2395152
20
9.2906154
40
4.0170107
50
235.9699052
51
243.6526635
0
ARC
8
DEFAULT_255_2_778
10
3.6078259
20
8.3640867
40
2.895649
50
223.7370605
51
236.0687802
0
ARC
8
DEFAULT_255_2_778
10
3.2977602
20
8.0506163
40
2.4549324
50
196.53808
51
223.4540767
0
ARC
8
DEFAULT_255_2_778
10
4.1120255
20
8.3092736
40
3.3091791
50
187.2380667
51
196.8181244
0
ARC
8
DEFAULT_255_2_778
10
4.9034473
20
8.4264195
40
4.1090869
50
185.16095
51
187.4681279
0
ARC
8
DEFAULT_255_2_778
10
5.8025872
20
8.3999272
40
5.0033485
50
181.9900973
51
183.9325012
0
ARC
8
DEFAULT_255_2_778
10
5.619201
20
8.3935348
40
4.8198508
50
180.0058144
51
181.9898581
0
ARC
8
DEFAULT_255_2_778
10
5.1999858
20
8.4021814
40
4.4006451
50
169.8792567
51
180.1189466
0
ARC
8
DEFAULT_255_2_778
10
4.8108957
20
8.4699319
40
4.0057044
50
149.9801752
51
169.8552855
0
ARC
8
DEFAULT_255_2_778
10
5.2094814
20
8.2235102
40
4.4741273
50
134.9294907
51
149.8014976
0
ARC
8
DEFAULT_255_2_778
10
5.8315192
20
7.6263199
40
5.3362619
50
129.229468
51
135.129531
0
ARC
8
DEFAULT_255_2_778
10
-207.1483477
20
221.3736472
40
296.4324722
50
314.9988124
51
315.0067277
0
ARC
8
DEFAULT_255_2_778
10
-2.8884498
20
17.4912332
40
7.8357124
50
313.3025029
51
324.2172393
0
ARC
8
DEFAULT_255_2_778
10
0.0915398
20
15.2050901
40
4.0830285
50
325.7914789
51
328.916742
0
ARC
8
DEFAULT_255_2_778
10
0.3142013
20
14.8877072
40
3.7317758
50
331.325739
51
338.3045803
0
ARC
8
DEFAULT_255_2_778
10
0.5712945
20
14.7847399
40
3.4548304
50
338.3150786
51
347.3721149
0
ARC
8
DEFAULT_255_2_778
10
0.5225711
20
14.7892377
40
3.5033641
50
347.4745401
51
0.0842862
0
ARC
8
DEFAULT_255_2_778
10
0.4271733
20
14.796791
40
3.5987589
50
359.9617964
51
360
0
ARC
8
DEFAULT_255_2_778
10
-0.3011408
20
14.7711379
40
4.327149
50
0.3396743
51
13.0763652
0
ARC
8
DEFAULT_255_2_778
10
-2.0749985
20
14.3776196
40
6.1440692
50
12.9083191
51
19.6662047
0
ARC
8
DEFAULT_255_2_778
10
-3.3232225
20
13.9577468
40
7.460828
50
19.4765515
51
19.8545263
0
ARC
8
DEFAULT_255_2_778
10
4.0197745
20
16.8169462
40
0.4602632
50
209.9452412
51
224.9647213
0
ARC
8
DEFAULT_255_2_778
10
4.6006774
20
17.1483097
40
1.1290282
50
206.1104984
51
209.8009607
0
ARC
8
DEFAULT_255_2_778
10
2.4514616
20
16.089861
40
1.266689
50
26.3164438
51
28.9433929
0
ARC
8
DEFAULT_255_2_778
10
3.1550073
20
16.4804486
40
0.4619964
50
28.7790836
51
41.4780764
0
ARC
8
DEFAULT_255_2_778
10
3.1776275
20
16.4975944
40
0.4336983
50
41.7602976
51
44.2438359
0
ARC
8
DEFAULT_255_2_778
10
11.2014561
20
11.3992416
40
3.8842372
50
168.5427846
51
180.0000018
0
ARC
8
DEFAULT_255_2_778
10
11.2014561
20
11.3992413
40
3.8842372
50
179.9999982
51
191.4572154
0
ARC
8
DEFAULT_255_2_778
10
10.3446198
20
11.0489335
40
2.9799246
50
188.1265505
51
212.0554721
0
ARC
8
DEFAULT_255_2_778
10
10.2262101
20
11.0332214
40
2.8716563
50
213.0437158
51
222.2454138
0
ARC
8
DEFAULT_255_2_778
10
10.6306066
20
11.3885843
40
3.4099443
50
222.0973224
51
224.8907542
0
ARC
8
DEFAULT_255_2_778
10
4.12197
20
3.5687382
40
6.786363
50
49.6137472
51
52.9078273
0
ARC
8
DEFAULT_255_2_778
10
0.0755307
20
-1.2549404
40
13.082439
50
49.2197712
51
49.8033528
0
ARC
8
DEFAULT_255_2_778
10
-14.0459275
20
-17.5665285
40
34.6574921
50
48.6896826
51
49.1553109
0
ARC
8
DEFAULT_255_2_778
10
17.4992293
20
18.1910246
40
13.0260597
50
228.2933093
51
231.1778532
0
ARC
8
DEFAULT_255_2_778
10
12.6532363
20
12.2404531
40
5.3522073
50
231.6601147
51
233.2264809
0
ARC
8
DEFAULT_255_2_778
10
6.6090277
20
4.8459518
40
4.2097123
50
41.3958865
51
47.5728619
0
ARC
8
DEFAULT_255_2_778
10
7.0714328
20
5.2526135
40
3.5939269
50
33.6900282
51
41.4071784
0
ARC
8
DEFAULT_255_2_778
10
7.4178855
20
5.4834014
40
3.1776427
50
23.1781831
51
33.692732
0
ARC
8
DEFAULT_255_2_778
10
7.3501741
20
5.4780401
40
3.2420718
50
359.4368438
51
22.7942944
0
ARC
8
DEFAULT_255_2_778
10
6.3385421
20
5.4550627
40
4.2535564
50
352.909579
51
359.8802748
0
ARC
8
DEFAULT_255_2_778
10
5.3105051
20
5.5811006
40
5.2892895
50
347.5681248
51
352.9293191
0
ARC
8
DEFAULT_255_2_778
10
4.0903734
20
5.8454263
40
6.5377176
50
344.0091566
51
347.607916
0
ARC
8
DEFAULT_255_2_778
10
8.1842389
20
4.6917379
40
2.2845158
50
331.3247202
51
343.5389994
0
ARC
8
DEFAULT_255_2_778
10
8.2421133
20
4.7040237
40
2.2399666
50
296.8651319
51
330.338613
0
ARC
8
DEFAULT_255_2_778
10
7.1726642
20
6.6155099
40
4.4293459
50
289.2023382
51
298.0325271
0
ARC
8
DEFAULT_255_2_778
10
5.9229007
20
10.0652874
40
8.09837
50
286.4421353
51
289.524822
0
ARC
8
DEFAULT_255_2_778
10
7.7553579
20
4.5907112
40
2.3382655
50
275.7412322
51
281.3396556
0
ARC
8
DEFAULT_255_2_778
10
7.7669618
20
4.476674
40
2.2236395
50
270.020824
51
275.7376782
0
ARC
8
DEFAULT_255_2_778
10
7.7615966
20
4.31843
40
2.0654046
50
248.0425437
51
270.1712541
0
ARC
8
DEFAULT_255_2_778
10
7.7759327
20
4.3234143
40
2.0754193
50
214.995545
51
247.7269288
0
ARC
8
DEFAULT_255_2_778
10
7.9656642
20
4.4693616
40
2.3145743
50
203.8794207
51
215.2615586
0
ARC
8
DEFAULT_255_2_778
10
7.9023149
20
4.5659879
40
2.2985919
50
198.0573484
51
206.7221964
0
ARC
8
DEFAULT_255_2_778
10
7.42613
20
4.4132158
40
1.7985077
50
185.9977192
51
198.1323678
0
ARC
8
DEFAULT_255_2_778
10
7.1685036
20
4.3805865
40
1.5388921
50
180.0364447
51
185.791767
0
ARC
8
DEFAULT_255_2_778
10
7.0056907
20
4.385387
40
1.376091
50
150.3019027
51
180.240635
0
ARC
8
DEFAULT_255_2_778
10
7.1620301
20
4.2980386
40
1.5551707
50
140.9073943
51
150.3601221
0
ARC
8
DEFAULT_255_2_778
10
3.2095527
20
7.0089486
40
3.2452079
50
327.7799082
51
339.4807826
0
ARC
8
DEFAULT_255_2_778
10
3.4593205
20
6.9137653
40
2.9779234
50
339.5114778
51
0.0253212
0
ARC
8
DEFAULT_255_2_778
10
3.2853027
20
6.9108419
40
3.1519437
50
0.0770649
51
11.0147735
0
ARC
8
DEFAULT_255_2_778
10
2.955601
20
6.8483889
40
3.4875046
50
10.9869922
51
18.4671061
0
ARC
8
DEFAULT_255_2_778
10
8.1827159
20
10.1422183
40
2.4237407
50
202.7768468
51
203.2029274
0
ARC
8
DEFAULT_255_2_778
10
8.085917
20
10.1042801
40
2.3198041
50
193.4825904
51
202.8384751
0
ARC
8
DEFAULT_255_2_778
10
7.9981492
20
10.0817742
40
2.2292081
50
181.2103123
51
193.4460255
0
ARC
8
DEFAULT_255_2_778
10
8.0264273
20
10.0828591
40
2.2575029
50
179.9994477
51
181.2226831
0
ARC
8
DEFAULT_255_2_778
10
8.3497322
20
10.0520495
40
2.5809919
50
152.4781605
51
179.3155529
0
ARC
8
DEFAULT_255_2_778
10
10.8833013
20
8.783532
40
5.4142074
50
140.5746306
51
152.962454
0
ARC
8
DEFAULT_255_2_778
10
17.3996205
20
3.2708412
40
13.9492287
50
134.0282776
51
140.0819124
0
LINE
8
DEFAULT_255_2_778
10
7.704721
20
13.300293
11
7.7065189
21
13.3020914
0
ARC
8
DEFAULT_255_2_778
10
9.7754884
20
1.3536001
40
0.4608645
50
135.0332448
51
150.028256
0
ARC
8
DEFAULT_255_2_778
10
10.3555391
20
1.0225106
40
1.1287535
50
150.178712
51
153.8818023
0
ARC
8
DEFAULT_255_2_778
10
8.2758649
20
2.0456895
40
1.1889931
50
330.7352691
51
333.7287292
0
ARC
8
DEFAULT_255_2_778
10
8.915267
20
1.6869236
40
0.4558167
50
318.2297575
51
330.7865373
0
ARC
8
DEFAULT_255_2_778
10
8.9330337
20
1.6734717
40
0.4336086
50
315.7292761
51
317.9915807
0
ARC
8
DEFAULT_255_2_778
10
5.8220496
20
4.3543157
40
4.5395891
50
310.2337301
51
318.9115436
0
ARC
8
DEFAULT_255_2_778
10
6.1438144
20
4.0045797
40
4.0648127
50
287.214586
51
309.9554349
0
ARC
8
DEFAULT_255_2_778
10
5.5658855
20
5.7124888
40
5.8674366
50
281.3719618
51
287.6694626
0
ARC
8
DEFAULT_255_2_778
10
5.2638361
20
7.1094406
40
7.2965497
50
280.3051358
51
281.5342865
0
ARC
8
DEFAULT_255_2_778
10
5.7427302
20
5.3112806
40
5.4437794
50
271.5786658
51
278.7314984
0
ARC
8
DEFAULT_255_2_778
10
5.7373644
20
5.4376543
40
5.5702532
50
269.9986635
51
271.598026
0
ARC
8
DEFAULT_255_2_778
10
5.7676561
20
5.9352053
40
6.0678804
50
249.4551629
51
269.7127442
0
ARC
8
DEFAULT_255_2_778
10
5.9727766
20
6.5615671
40
6.7264465
50
241.4992744
51
249.691462
0
ARC
8
DEFAULT_255_2_778
10
4.6655876
20
4.3685346
40
4.1766875
50
210.0987982
51
242.9030829
0
ARC
8
DEFAULT_255_2_778
10
5.8080729
20
5.1071102
40
5.5359065
50
199.9089097
51
210.7823143
0
ARC
8
DEFAULT_255_2_778
10
4.5905137
20
4.9121405
40
4.3309027
50
185.619151
51
202.9702615
0
ARC
8
DEFAULT_255_2_778
10
5.0205041
20
4.9705796
40
4.764576
50
179.9801034
51
185.8122248
0
ARC
8
DEFAULT_255_2_778
10
5.2170658
20
4.9702547
40
4.9611379
50
173.0136561
51
179.9771397
0
ARC
8
DEFAULT_255_2_778
10
5.311097
20
4.9605176
40
5.0556556
50
172.8715925
51
173.0337435
0
ARC
8
DEFAULT_255_2_778
10
0.6943479
20
5.6196439
40
0.4010878
50
162.1471157
51
184.5406134
0
ARC
8
DEFAULT_255_2_778
10
0.3918284
20
5.7075444
40
0.0866641
50
84.3776672
51
156.1351868
0
ARC
8
DEFAULT_255_2_778
10
0.3978001
20
5.6864599
40
0.1073611
50
80.8775049
51
88.6556855
0
ARC
8
DEFAULT_255_2_778
10
0.3957643
20
5.662799
40
0.131057
50
63.9742406
51
81.6387812
0
ARC
8
DEFAULT_255_2_778
10
0.4144158
20
5.6987998
40
0.0905282
50
15.1361904
51
64.5842841
0
ARC
8
DEFAULT_255_2_778
10
0.3792821
20
5.6892261
40
0.1269429
50
359.4427232
51
15.1667336
0
ARC
8
DEFAULT_255_2_778
10
3.4922338
20
8.2970287
40
3.9652693
50
221.1454104
51
233.2805974
0
ARC
8
DEFAULT_255_2_778
10
3.5186959
20
8.4043348
40
4.0673312
50
233.8855907
51
264.9818794
0
ARC
8
DEFAULT_255_2_778
10
3.6780021
20
9.323479
40
4.9975005
50
264.0841718
51
264.2881007
0
ARC
8
DEFAULT_255_2_778
10
3.8570178
20
2.2079423
40
2.2470687
50
89.5394086
51
107.5185095
0
ARC
8
DEFAULT_255_2_778
10
4.06803
20
-6.3548913
40
10.8115515
50
89.7954978
51
91.0225847
0
ARC
8
DEFAULT_255_2_778
10
4.1190624
20
4.0790855
40
0.3777109
50
65.186415
51
91.8879238
0
ARC
8
DEFAULT_255_2_778
10
4.1598448
20
4.1995292
40
0.2516359
50
3.3105355
51
62.1044748
0
ARC
8
DEFAULT_255_2_778
10
3.9054979
20
4.1498522
40
0.509624
50
359.8020425
51
7.2380264
0
ARC
8
DEFAULT_255_2_778
10
3.2917314
20
3.5992734
40
1.2502802
50
12.8817478
51
26.0372898
0
ARC
8
DEFAULT_255_2_778
10
-2.71004
20
2.0347247
40
7.4521507
50
14.0148839
51
14.320724
0
ARC
8
DEFAULT_255_2_778
10
-47.3898558
20
-9.1480743
40
53.5101665
50
14.0368535
51
14.046612
0
ARC
8
DEFAULT_255_2_778
10
5.9766247
20
4.142378
40
1.4871804
50
192.1014696
51
204.2826904
0
ARC
8
DEFAULT_255_2_778
10
7.8339569
20
4.6866151
40
3.414513
50
199.7857094
51
209.7545168
0
ARC
8
DEFAULT_255_2_778
10
7.3776052
20
4.4316866
40
2.8918141
50
209.8567878
51
242.0207324
0
ARC
8
DEFAULT_255_2_778
10
7.9404909
20
5.4205162
40
4.0292824
50
241.5488727
51
250.9332444
0
ARC
8
DEFAULT_255_2_778
10
8.3986324
20
6.7074302
40
5.3952701
50
250.7993142
51
255.9575357
0
ARC
8
DEFAULT_255_2_778
10
7.8037186
20
5.4459739
40
4.0362721
50
259.8081123
51
269.5379276
0
ARC
8
DEFAULT_255_2_778
10
7.7738545
20
4.3455796
40
2.9357478
50
269.9475625
51
274.7178899
0
ARC
8
DEFAULT_255_2_778
10
7.8126213
20
3.9386912
40
2.5270547
50
274.6006943
51
287.6647825
0
ARC
8
DEFAULT_255_2_778
10
7.8212901
20
3.8919532
40
2.4798968
50
287.8016166
51
296.8439862
0
LINE
8
DEFAULT_255_2_778
10
9.4554189
20
1.6792914
11
9.4554189
21
1.6792914
0
LINE
8
DEFAULT_255_2_778
10
3.4883189
20
16.8001914
11
3.4856189
21
16.8001914
0
LINE
8
DEFAULT_255_2_778
10
7.7031189
20
13.3023914
11
7.3946189
21
12.1707914
0
LINE
8
DEFAULT_255_2_778
10
6.2635189
20
7.9530914
11
5.9550189
21
9.1872914
0
LINE
8
DEFAULT_255_2_778
10
7.7065189
20
13.3020914
11
7.7031189
21
13.3023914
0
LINE
8
DEFAULT_255_2_778
10
8.9411189
20
1.6792914
11
9.4554189
21
1.6792914
0
LINE
8
DEFAULT_255_2_778
10
9.4554189
20
1.6792914
11
9.4494189
21
1.6792914
0
ENDSEC
0
EOF