0
SECTION
2
HEADER
9
$MEASUREMENT
70
1
0
ENDSEC
0
SECTION
2
TABLES
0
TABLE
2
LTYPE
0
LTYPE
72
65
70
64
2
CONTINUOUS
3
______
73
0
40
0
0
ENDTAB
0
TABLE
2
LAYER
0
LAYER
2
DEFAULT_255_2_778
70
0
62
255
6
CONTINUOUS
0
ENDTAB
0
ENDSEC
0
SECTION
2
ENTITIES
0
ARC
8
DEFAULT_255_2_778
10
8.7821172
20
10.8105127
40
0.9703917
50
296.5534021
51
315.2282829
0
ARC
8
DEFAULT_255_2_778
10
8.8226049
20
10.7307386
40
0.8809333
50
270.0836597
51
296.5172746
0
ARC
8
DEFAULT_255_2_778
10
8.823861
20
10.7087103
40
0.8589038
50
269.622924
51
270.0020146
0
ARC
8
DEFAULT_255_2_778
10
8.826454
20
10.7407353
40
0.8909484
50
239.8595842
51
269.4697282
0
ARC
8
DEFAULT_255_2_778
10
8.8764099
20
10.8307793
40
0.9939042
50
225.0735445
51
239.9755311
0
ARC
8
DEFAULT_255_2_778
10
3.4986127
20
15.2801963
40
0.3354411
50
220.4623089
51
221.9450619
0
ARC
8
DEFAULT_255_2_778
10
3.8340622
20
15.5676942
40
0.7772341
50
218.5881054
51
220.5396182
0
ARC
8
DEFAULT_255_2_778
10
4.0795814
20
15.7641597
40
1.0916832
50
216.1066564
51
218.6108145
0
ARC
8
DEFAULT_255_2_778
10
4.2170491
20
15.8648913
40
1.2621063
50
212.8913171
51
216.1236719
0
ARC
8
DEFAULT_255_2_778
10
4.2468417
20
15.8846942
40
1.2978774
50
209.048645
51
212.9111733
0
ARC
8
DEFAULT_255_2_778
10
4.1833085
20
15.8502863
40
1.2256294
50
203.106177
51
209.0845941
0
ARC
8
DEFAULT_255_2_778
10
4.0306325
20
15.7868282
40
1.0602991
50
193.5985089
51
203.1898343
0
ARC
8
DEFAULT_255_2_778
10
3.8509445
20
15.7441373
40
0.8756112
50
180.1972902
51
193.6478163
0
ARC
8
DEFAULT_255_2_778
10
3.7543941
20
15.7420464
40
0.7790562
50
167.0131522
51
180.0679671
0
ARC
8
DEFAULT_255_2_778
10
3.7629072
20
15.7389093
40
0.7880574
50
155.9656129
51
166.9299936
0
ARC
8
DEFAULT_255_2_778
10
3.8396883
20
15.7042596
40
0.8722941
50
146.7913707
51
155.9410576
0
ARC
8
DEFAULT_255_2_778
10
3.9083905
20
15.6613218
40
0.9532941
50
145.2508404
51
146.893676
0
ARC
8
DEFAULT_255_2_778
10
3.9581748
20
15.6261689
40
1.0142363
50
140.9737074
51
145.2221868
0
ARC
8
DEFAULT_255_2_778
10
4.0381303
20
15.5614626
40
1.1170945
50
137.2597215
51
140.9777365
0
ARC
8
DEFAULT_255_2_778
10
4.1076521
20
15.4977917
40
1.211366
50
135.1319775
51
137.2796093
0
ARC
8
DEFAULT_255_2_778
10
4.0838159
20
15.5231698
40
1.1765694
50
131.3276305
51
135.1889742
0
ARC
8
DEFAULT_255_2_778
10
4.0042936
20
15.6136639
40
1.0560995
50
127.0337312
51
131.3299166
0
ARC
8
DEFAULT_255_2_778
10
3.9531521
20
15.6808549
40
0.9716605
50
123.9661377
51
127.0126728
0
ARC
8
DEFAULT_255_2_778
10
3.8998897
20
15.7624649
40
0.8742191
50
114.9996755
51
124.059309
0
ARC
8
DEFAULT_255_2_778
10
3.8621456
20
15.8427199
40
0.7855321
50
104.0266066
51
114.9784446
0
ARC
8
DEFAULT_255_2_778
10
3.8575661
20
15.8566859
40
0.7708732
50
91.1688233
51
103.947975
0
ARC
8
DEFAULT_255_2_778
10
3.8589335
20
15.8275636
40
0.8000177
50
89.9985875
51
91.2241836
0
ARC
8
DEFAULT_255_2_778
10
3.8554832
20
15.7502641
40
0.8773242
50
75.6427359
51
89.7733815
0
ARC
8
DEFAULT_255_2_778
10
3.8088469
20
15.5618254
40
1.0714431
50
66.4064614
51
75.7254559
0
ARC
8
DEFAULT_255_2_778
10
3.7454353
20
15.4120902
40
1.2340432
50
60.8635956
51
66.4909626
0
ARC
8
DEFAULT_255_2_778
10
3.7110326
20
15.3489301
40
1.3059618
50
56.6800745
51
60.8944207
0
ARC
8
DEFAULT_255_2_778
10
3.7350886
20
15.3847692
40
1.2627998
50
53.6650411
51
56.6988867
0
ARC
8
DEFAULT_255_2_778
10
3.8401077
20
15.5269755
40
1.0860186
50
51.2442451
51
53.6830845
0
ARC
8
DEFAULT_255_2_778
10
4.0363298
20
15.7710706
40
0.7728328
50
49.4275315
51
51.2601319
0
ARC
8
DEFAULT_255_2_778
10
4.3188487
20
16.1002675
40
0.3390275
50
48.0423096
51
49.5093377
0
ARC
8
DEFAULT_255_2_778
10
8.7472288
20
12.8050186
40
0.4627826
50
226.1140365
51
262.3377015
0
ARC
8
DEFAULT_255_2_778
10
8.7717282
20
12.9121024
40
0.5722643
50
261.3361691
51
270.0487149
0
ARC
8
DEFAULT_255_2_778
10
8.7715666
20
12.9514838
40
0.6116459
50
270.0607191
51
281.4057276
0
ARC
8
DEFAULT_255_2_778
10
8.7639742
20
12.9862659
40
0.6472427
50
281.4556619
51
303.3253747
0
ARC
8
DEFAULT_255_2_778
10
8.7473113
20
13.0127034
40
0.6784879
50
303.274568
51
315.0288412
0
LINE
8
DEFAULT_255_2_778
10
9.2242162
20
12.5302815
11
11.4419162
21
14.7479815
0
LINE
8
DEFAULT_255_2_778
10
11.4419162
20
14.7479815
11
10.7026162
21
15.4252815
0
LINE
8
DEFAULT_255_2_778
10
10.7026162
20
15.4252815
11
14.3989162
21
16.4108815
0
LINE
8
DEFAULT_255_2_778
10
14.3989162
20
16.4108815
11
13.4133162
21
12.7146815
0
LINE
8
DEFAULT_255_2_778
10
13.4133162
20
12.7146815
11
12.7360162
21
13.3919815
0
LINE
8
DEFAULT_255_2_778
10
12.7360162
20
13.3919815
11
9.4710162
21
10.1270815
0
LINE
8
DEFAULT_255_2_778
10
8.1745162
20
10.1270815
11
3.2491162
21
15.0559815
0
LINE
8
DEFAULT_255_2_778
10
4.5455162
20
16.3523815
11
8.4264162
21
12.4714815
0
ARC
8
DEFAULT_255_2_778
10
11.3859779
20
8.167248
40
0.9707557
50
206.543919
51
225.2124053
0
ARC
8
DEFAULT_255_2_778
10
11.3061812
20
8.1267732
40
0.8812828
50
180.0840685
51
206.5082519
0
ARC
8
DEFAULT_255_2_778
10
11.2826044
20
8.1255125
40
0.857705
50
179.6478448
51
180.002159
0
ARC
8
DEFAULT_255_2_778
10
11.3157955
20
8.1229512
40
0.8909144
50
149.8721233
51
179.4962486
0
ARC
8
DEFAULT_255_2_778
10
11.4054834
20
8.0732036
40
0.993458
50
135.0737061
51
149.9868965
0
ARC
8
DEFAULT_255_2_778
10
15.8547142
20
13.4509837
40
0.3354411
50
130.4623089
51
131.9450619
0
ARC
8
DEFAULT_255_2_778
10
16.1422122
20
13.1155341
40
0.7772341
50
128.5881054
51
130.5396182
0
ARC
8
DEFAULT_255_2_778
10
16.3386777
20
12.8700149
40
1.0916832
50
126.1066564
51
128.6108145
0
ARC
8
DEFAULT_255_2_778
10
16.4394093
20
12.7325472
40
1.2621063
50
122.8913171
51
126.1236719
0
ARC
8
DEFAULT_255_2_778
10
16.4592122
20
12.7027546
40
1.2978774
50
119.048645
51
122.9111733
0
ARC
8
DEFAULT_255_2_778
10
16.4248043
20
12.7662879
40
1.2256294
50
113.106177
51
119.0845941
0
ARC
8
DEFAULT_255_2_778
10
16.3613462
20
12.9189638
40
1.0602991
50
103.5985089
51
113.1898343
0
ARC
8
DEFAULT_255_2_778
10
16.3186553
20
13.0986519
40
0.8756112
50
90.1972902
51
103.6478163
0
ARC
8
DEFAULT_255_2_778
10
16.3165644
20
13.1952023
40
0.7790562
50
77.0131522
51
90.0679671
0
ARC
8
DEFAULT_255_2_778
10
16.3134272
20
13.1866891
40
0.7880574
50
65.9656129
51
76.9299936
0
ARC
8
DEFAULT_255_2_778
10
16.2787775
20
13.1099081
40
0.8722941
50
56.7913707
51
65.9410576
0
ARC
8
DEFAULT_255_2_778
10
16.2358397
20
13.0412059
40
0.9532941
50
55.2508404
51
56.893676
0
ARC
8
DEFAULT_255_2_778
10
16.2006869
20
12.9914216
40
1.0142363
50
50.9737074
51
55.2221868
0
ARC
8
DEFAULT_255_2_778
10
16.1359805
20
12.911466
40
1.1170945
50
47.2597215
51
50.9777365
0
ARC
8
DEFAULT_255_2_778
10
16.0723096
20
12.8419442
40
1.211366
50
45.1319775
51
47.2796093
0
ARC
8
DEFAULT_255_2_778
10
16.0976877
20
12.8657805
40
1.1765694
50
41.3276305
51
45.1889742
0
ARC
8
DEFAULT_255_2_778
10
16.1881819
20
12.9453028
40
1.0560995
50
37.0337312
51
41.3299166
0
ARC
8
DEFAULT_255_2_778
10
16.2553728
20
12.9964442
40
0.9716605
50
33.9661377
51
37.0126728
0
ARC
8
DEFAULT_255_2_778
10
16.3369829
20
13.0497067
40
0.8742191
50
24.9996755
51
34.059309
0
ARC
8
DEFAULT_255_2_778
10
16.4172378
20
13.0874508
40
0.7855321
50
14.0266066
51
24.9784446
0
ARC
8
DEFAULT_255_2_778
10
16.4312038
20
13.0920302
40
0.7708732
50
1.1688233
51
13.947975
0
ARC
8
DEFAULT_255_2_778
10
16.4020816
20
13.0906629
40
0.8000177
50
359.9985875
51
1.2241836
0
ARC
8
DEFAULT_255_2_778
10
16.3247821
20
13.0941132
40
0.8773242
50
345.6427359
51
359.7733815
0
ARC
8
DEFAULT_255_2_778
10
16.1363434
20
13.1407495
40
1.0714431
50
336.4064614
51
345.7254559
0
ARC
8
DEFAULT_255_2_778
10
15.9866082
20
13.2041611
40
1.2340432
50
330.8635956
51
336.4909626
0
ARC
8
DEFAULT_255_2_778
10
15.9234481
20
13.2385637
40
1.3059618
50
326.6800745
51
330.8944207
0
ARC
8
DEFAULT_255_2_778
10
15.9592872
20
13.2145078
40
1.2627998
50
323.6650411
51
326.6988867
0
ARC
8
DEFAULT_255_2_778
10
16.1014935
20
13.1094886
40
1.0860186
50
321.2442451
51
323.6830845
0
ARC
8
DEFAULT_255_2_778
10
16.3455885
20
12.9132666
40
0.7728328
50
319.4275315
51
321.2601319
0
ARC
8
DEFAULT_255_2_778
10
16.6747855
20
12.6307476
40
0.3390275
50
318.0423096
51
319.5093377
0
ARC
8
DEFAULT_255_2_778
10
13.4143135
20
8.1791256
40
0.5080974
50
136.8868877
51
176.4772171
0
ARC
8
DEFAULT_255_2_778
10
13.5269046
20
8.156883
40
0.6220302
50
175.0693956
51
180.003713
0
LINE
8
DEFAULT_255_2_778
10
12.9048744
20
8.1568426
11
12.9048745
21
8.156505
0
ARC
8
DEFAULT_255_2_778
10
13.444597
20
8.145903
40
0.5398266
50
178.8746629
51
217.9059133
0
ARC
8
DEFAULT_255_2_778
10
13.3283487
20
8.0713435
40
0.4024944
50
219.6984176
51
224.9309513
0
ARC
8
DEFAULT_255_2_778
10
6.0738668
20
8.2068761
40
0.9703957
50
26.5470769
51
45.2200839
0
ARC
8
DEFAULT_255_2_778
10
6.1535031
20
8.2472818
40
0.8810973
50
0.0836177
51
26.5110826
0
ARC
8
DEFAULT_255_2_778
10
6.1579254
20
8.2485996
40
0.876674
50
359.6390084
51
359.9979117
0
ARC
8
DEFAULT_255_2_778
10
6.1437087
20
8.2511077
40
0.8909096
50
329.8676116
51
359.4834693
0
ARC
8
DEFAULT_255_2_778
10
6.0539956
20
8.3008738
40
0.9934841
50
315.0738204
51
329.9826605
0
ARC
8
DEFAULT_255_2_778
10
1.6076846
20
2.9237766
40
0.3354411
50
310.4623089
51
311.9450619
0
ARC
8
DEFAULT_255_2_778
10
1.3201867
20
3.2592262
40
0.7772341
50
308.5881054
51
310.5396182
0
ARC
8
DEFAULT_255_2_778
10
1.1237211
20
3.5047454
40
1.0916832
50
306.1066564
51
308.6108145
0
ARC
8
DEFAULT_255_2_778
10
1.0229896
20
3.6422131
40
1.2621063
50
302.8913171
51
306.1236719
0
ARC
8
DEFAULT_255_2_778
10
1.0031866
20
3.6720056
40
1.2978774
50
299.048645
51
302.9111733
0
ARC
8
DEFAULT_255_2_778
10
1.0375946
20
3.6084724
40
1.2256294
50
293.106177
51
299.0845941
0
ARC
8
DEFAULT_255_2_778
10
1.1010527
20
3.4557965
40
1.0602991
50
283.5985089
51
293.1898343
0
ARC
8
DEFAULT_255_2_778
10
1.1437436
20
3.2761084
40
0.8756112
50
270.1972902
51
283.6478163
0
ARC
8
DEFAULT_255_2_778
10
1.1458345
20
3.179558
40
0.7790562
50
257.0131522
51
270.0679671
0
ARC
8
DEFAULT_255_2_778
10
1.1489716
20
3.1880712
40
0.7880574
50
245.9656129
51
256.9299936
0
ARC
8
DEFAULT_255_2_778
10
1.1836213
20
3.2648522
40
0.8722941
50
236.7913707
51
245.9410576
0
ARC
8
DEFAULT_255_2_778
10
1.2265591
20
3.3335544
40
0.9532941
50
235.2508404
51
236.893676
0
ARC
8
DEFAULT_255_2_778
10
1.2617119
20
3.3833387
40
1.0142363
50
230.9737074
51
235.2221868
0
ARC
8
DEFAULT_255_2_778
10
1.3264183
20
3.4632942
40
1.1170945
50
227.2597215
51
230.9777365
0
ARC
8
DEFAULT_255_2_778
10
1.3900892
20
3.532816
40
1.211366
50
225.1319775
51
227.2796093
0
ARC
8
DEFAULT_255_2_778
10
1.3645855
20
3.5088582
40
1.1763946
50
221.3224122
51
225.1891389
0
ARC
8
DEFAULT_255_2_778
10
1.2740295
20
3.4292948
40
1.055851
50
217.0223719
51
221.3246451
0
ARC
8
DEFAULT_255_2_778
10
1.2068198
20
3.3781582
40
0.9714001
50
213.9504033
51
217.0012134
0
ARC
8
DEFAULT_255_2_778
10
1.1252712
20
3.3249618
40
0.8740461
50
204.9868839
51
214.0431799
0
ARC
8
DEFAULT_255_2_778
10
1.0451467
20
3.2873014
40
0.7855128
50
194.018873
51
204.9657259
0
ARC
8
DEFAULT_255_2_778
10
1.0312956
20
3.2827558
40
0.7709739
50
181.1681759
51
193.9404735
0
ARC
8
DEFAULT_255_2_778
10
1.0597192
20
3.2841233
40
0.7994199
50
179.9985871
51
181.2246403
0
ARC
8
DEFAULT_255_2_778
10
1.1377744
20
3.2806718
40
0.8774818
50
165.6440322
51
179.7733412
0
ARC
8
DEFAULT_255_2_778
10
1.3262637
20
3.2340282
40
1.0716516
50
156.4087515
51
165.7267938
0
ARC
8
DEFAULT_255_2_778
10
1.4760534
20
3.1706005
40
1.2343082
50
150.8665827
51
156.4932613
0
ARC
8
DEFAULT_255_2_778
10
1.5391463
20
3.1362412
40
1.3061471
50
146.6833344
51
150.897464
0
ARC
8
DEFAULT_255_2_778
10
1.5033688
20
3.1602561
40
1.2630589
50
143.668742
51
146.7022318
0
ARC
8
DEFAULT_255_2_778
10
1.3612004
20
3.2652327
40
1.0863335
50
141.2484217
51
143.686763
0
ARC
8
DEFAULT_255_2_778
10
1.1168668
20
3.4616068
40
0.7728664
50
139.4310445
51
141.263718
0
ARC
8
DEFAULT_255_2_778
10
0.7872343
20
3.7444784
40
0.3385011
50
138.0454549
51
139.5148844
0
ARC
8
DEFAULT_255_2_778
10
4.1379664
20
8.2215925
40
0.4629904
50
306.9687732
51
0.9018962
0
ARC
8
DEFAULT_255_2_778
10
4.0618678
20
8.2284075
40
0.5390318
50
0.0502355
51
9.5476054
0
ARC
8
DEFAULT_255_2_778
10
4.0035371
20
8.2161168
40
0.5985982
50
9.7816645
51
33.0151319
0
ARC
8
DEFAULT_255_2_778
10
3.9443532
20
8.1802717
40
0.6677595
50
32.8272369
51
45.0159113
0
LINE
8
DEFAULT_255_2_778
10
13.0433994
20
7.7870801
11
15.2610994
21
5.5693801
0
LINE
8
DEFAULT_255_2_778
10
15.2610994
20
5.5693801
11
16.0003994
21
6.2466801
0
LINE
8
DEFAULT_255_2_778
10
16.0003994
20
6.2466801
11
16.9858994
21
2.5504801
0
LINE
8
DEFAULT_255_2_778
10
16.9858994
20
2.5504801
11
13.2896994
21
3.5359801
0
LINE
8
DEFAULT_255_2_778
10
13.2896994
20
3.5359801
11
13.9669994
21
4.2133801
0
LINE
8
DEFAULT_255_2_778
10
13.9669994
20
4.2133801
11
10.7020994
21
7.4782801
0
LINE
8
DEFAULT_255_2_778
10
10.7020994
20
8.7747801
11
15.6304994
21
13.7004801
0
LINE
8
DEFAULT_255_2_778
10
16.9268994
20
12.4040801
11
13.0433994
21
8.5263801
0
LINE
8
DEFAULT_255_2_778
10
4.4192994
20
8.6495801
11
2.2012994
21
10.8641801
0
LINE
8
DEFAULT_255_2_778
10
2.2012994
20
10.8641801
11
1.5238994
21
10.1249801
0
LINE
8
DEFAULT_255_2_778
10
1.5238994
20
10.1249801
11
0.5383994
21
13.8211801
0
LINE
8
DEFAULT_255_2_778
10
0.5383994
20
13.8211801
11
4.2345994
21
12.8355801
0
LINE
8
DEFAULT_255_2_778
10
4.2345994
20
12.8355801
11
3.4923994
21
12.1606801
0
LINE
8
DEFAULT_255_2_778
10
3.4923994
20
12.1606801
11
6.7573994
21
8.8956801
0
LINE
8
DEFAULT_255_2_778
10
6.7573994
20
7.5992801
11
1.8318994
21
2.6742801
0
LINE
8
DEFAULT_255_2_778
10
0.5354994
20
3.9707801
11
4.4163994
21
7.8516801
0
ARC
8
DEFAULT_255_2_778
10
8.741387
20
5.625821
40
0.9703957
50
116.5470769
51
135.2200839
0
ARC
8
DEFAULT_255_2_778
10
8.7009814
20
5.7054572
40
0.8810973
50
90.0836177
51
116.5110826
0
ARC
8
DEFAULT_255_2_778
10
8.6996635
20
5.7098796
40
0.876674
50
89.6390084
51
89.9979117
0
ARC
8
DEFAULT_255_2_778
10
8.6971554
20
5.6956628
40
0.8909096
50
59.8676116
51
89.4834693
0
ARC
8
DEFAULT_255_2_778
10
8.6473893
20
5.6059497
40
0.9934841
50
45.0738204
51
59.9826605
0
ARC
8
DEFAULT_255_2_778
10
14.0253379
20
1.1573151
40
0.3353519
50
40.4581903
51
41.9412335
0
ARC
8
DEFAULT_255_2_778
10
13.6897887
20
0.8697851
40
0.7772413
50
38.5835066
51
40.5348727
0
ARC
8
DEFAULT_255_2_778
10
13.4443013
20
0.6733771
40
1.0916297
50
36.1020875
51
38.6062187
0
ARC
8
DEFAULT_255_2_778
10
13.3067115
20
0.5725734
40
1.262194
50
32.8871368
51
36.1190986
0
ARC
8
DEFAULT_255_2_778
10
13.2770215
20
0.5528401
40
1.2978411
50
29.0445181
51
32.906988
0
ARC
8
DEFAULT_255_2_778
10
13.3404515
20
0.5871799
40
1.2257164
50
23.1028604
51
29.0806647
0
ARC
8
DEFAULT_255_2_778
10
13.4931151
20
0.6506233
40
1.0604031
50
13.5962366
51
23.1864632
0
ARC
8
DEFAULT_255_2_778
10
13.6727657
20
0.6932969
40
0.8757558
50
0.1973124
51
13.6455758
0
ARC
8
DEFAULT_255_2_778
10
13.7693465
20
0.6953878
40
0.7791704
50
347.0151551
51
0.0680219
0
ARC
8
DEFAULT_255_2_778
10
13.7608456
20
0.6985217
40
0.7881589
50
335.9692243
51
346.9320082
0
ARC
8
DEFAULT_255_2_778
10
13.6841452
20
0.7331286
40
0.8723044
50
326.7955014
51
335.9447374
0
ARC
8
DEFAULT_255_2_778
10
13.6155664
20
0.7759764
40
0.953152
50
325.2549344
51
326.8979318
0
ARC
8
DEFAULT_255_2_778
10
13.5656148
20
0.811239
40
1.0142944
50
320.9783402
51
325.2263274
0
ARC
8
DEFAULT_255_2_778
10
13.485766
20
0.8758471
40
1.1170078
50
317.2643692
51
320.9824143
0
ARC
8
DEFAULT_255_2_778
10
13.4160769
20
0.9396708
40
1.2115058
50
315.1367389
51
317.2839558
0
ARC
8
DEFAULT_255_2_778
10
13.4398796
20
0.9146085
40
1.1769558
50
311.3290183
51
315.1841118
0
ARC
8
DEFAULT_255_2_778
10
13.5194185
20
0.824101
40
1.0564649
50
307.0417518
51
311.3312595
0
ARC
8
DEFAULT_255_2_778
10
13.5705246
20
0.7569679
40
0.9720932
50
303.979324
51
307.0210094
0
ARC
8
DEFAULT_255_2_778
10
13.6238353
20
0.6753201
40
0.8745938
50
295.0101526
51
304.0726866
0
ARC
8
DEFAULT_255_2_778
10
13.6616607
20
0.5949288
40
0.7857488
50
284.0327414
51
294.9889419
0
ARC
8
DEFAULT_255_2_778
10
13.6662645
20
0.5808661
40
0.7709902
50
271.1692479
51
283.954227
0
ARC
8
DEFAULT_255_2_778
10
13.6649046
20
0.6090555
40
0.7992018
50
269.9979208
51
271.2254758
0
ARC
8
DEFAULT_255_2_778
10
13.6683444
20
0.6872729
40
0.8774262
50
255.6435692
51
269.7734894
0
ARC
8
DEFAULT_255_2_778
10
13.714969
20
0.8756741
40
1.0715059
50
246.40739
51
255.7262395
0
ARC
8
DEFAULT_255_2_778
10
13.7783625
20
1.0253714
40
1.234064
50
240.8644025
51
246.4918342
0
ARC
8
DEFAULT_255_2_778
10
13.8127204
20
1.0884516
40
1.305891
50
236.6805377
51
240.8951922
0
ARC
8
DEFAULT_255_2_778
10
13.7887436
20
1.0527269
40
1.262868
50
233.6654975
51
236.6992161
0
ARC
8
DEFAULT_255_2_778
10
13.6835781
20
0.9103256
40
1.0858432
50
231.2444909
51
233.683743
0
ARC
8
DEFAULT_255_2_778
10
13.4874715
20
0.6663669
40
0.7728359
50
229.4275318
51
231.2601323
0
ARC
8
DEFAULT_255_2_778
10
13.2049509
20
0.3371679
40
0.339028
50
228.0423098
51
229.5093379
0
ARC
8
DEFAULT_255_2_778
10
8.8626034
20
3.7990314
40
0.2919663
50
35.3017371
51
75.062141
0
ARC
8
DEFAULT_255_2_778
10
8.8099908
20
3.6431583
40
0.4562584
50
73.7239957
51
90.3786837
0
ARC
8
DEFAULT_255_2_778
10
8.8089437
20
3.5277661
40
0.5716441
50
90.197291
51
103.6801008
0
ARC
8
DEFAULT_255_2_778
10
8.819076
20
3.4790325
40
0.6213936
50
103.5251349
51
107.1704571
0
ARC
8
DEFAULT_255_2_778
10
8.8305253
20
3.4458314
40
0.6564961
50
107.2697338
51
124.4538513
0
ARC
8
DEFAULT_255_2_778
10
8.8456384
20
3.4225989
40
0.6842037
50
124.3967762
51
135.0296535
0
LINE
8
DEFAULT_255_2_778
10
8.361583
20
3.9061536
11
6.143583
21
1.6883536
0
LINE
8
DEFAULT_255_2_778
10
6.143583
20
1.6883536
11
6.820883
21
1.0110536
0
LINE
8
DEFAULT_255_2_778
10
6.820883
20
1.0110536
11
3.124683
21
0.0254536
0
LINE
8
DEFAULT_255_2_778
10
3.124683
20
0.0254536
11
4.110283
21
3.7217536
0
LINE
8
DEFAULT_255_2_778
10
4.110283
20
3.7217536
11
4.787583
21
3.0443536
0
LINE
8
DEFAULT_255_2_778
10
4.787583
20
3.0443536
11
8.052583
21
6.3093536
0
LINE
8
DEFAULT_255_2_778
10
9.348983
20
6.3093536
11
14.274783
21
1.3814536
0
LINE
8
DEFAULT_255_2_778
10
12.978283
20
0.0850536
11
9.100883
21
3.9677536
0
ENDSEC
0
EOF