0
SECTION
2
HEADER
9
$MEASUREMENT
70
1
0
ENDSEC
0
SECTION
2
TABLES
0
TABLE
2
LTYPE
0
LTYPE
72
65
70
64
2
CONTINUOUS
3
______
73
0
40
0
0
ENDTAB
0
TABLE
2
LAYER
0
LAYER
2
DEFAULT_255_2_778
70
0
62
255
6
CONTINUOUS
0
ENDTAB
0
ENDSEC
0
SECTION
2
ENTITIES
0
ARC
8
DEFAULT_255_2_778
10
11.3157415
20
3.7232058
40
2.0156024
50
339.4484592
51
353.9088404
0
ARC
8
DEFAULT_255_2_778
10
12.192047
20
3.3711156
40
1.0716935
50
316.0256179
51
340.6276772
0
ARC
8
DEFAULT_255_2_778
10
12.2688726
20
3.3083985
40
0.9728938
50
314.7052627
51
315.5421971
0
ARC
8
DEFAULT_255_2_778
10
12.2905429
20
3.2893897
40
0.9441416
50
292.7930321
51
314.5820817
0
ARC
8
DEFAULT_255_2_778
10
12.1123404
20
3.6573324
40
1.3525629
50
290.5971075
51
293.7141817
0
ARC
8
DEFAULT_255_2_778
10
12.1158952
20
3.6821237
40
1.3745718
50
269.3943087
51
290.0948662
0
ARC
8
DEFAULT_255_2_778
10
12.0879986
20
3.8358588
40
1.5282883
50
257.740249
51
270.5010973
0
ARC
8
DEFAULT_255_2_778
10
11.9853077
20
3.337849
40
1.0198442
50
247.1367482
51
257.4368493
0
ARC
8
DEFAULT_255_2_778
10
11.9850065
20
3.2931864
40
0.9787226
50
227.0648422
51
246.1370822
0
ARC
8
DEFAULT_255_2_778
10
12.2761445
20
3.6257248
40
1.4205598
50
219.6050734
51
227.6039381
0
ARC
8
DEFAULT_255_2_778
10
12.0607136
20
4.7748528
40
1.1161001
50
122.3923827
51
140.8352212
0
ARC
8
DEFAULT_255_2_778
10
11.9352784
20
4.9576118
40
0.894617
50
112.2478165
51
121.8793304
0
ARC
8
DEFAULT_255_2_778
10
12.0502173
20
4.6381453
40
1.2339042
50
94.6578909
51
111.5711567
0
ARC
8
DEFAULT_255_2_778
10
12.1058192
20
4.1515344
40
1.7234966
50
89.91206
51
95.1865595
0
ARC
8
DEFAULT_255_2_778
10
12.1217576
20
4.522615
40
1.3524793
50
69.741389
51
90.5631535
0
ARC
8
DEFAULT_255_2_778
10
12.2334878
20
4.8071365
40
1.04689
50
51.2461187
51
70.0862219
0
ARC
8
DEFAULT_255_2_778
10
12.3690239
20
4.9919443
40
0.8179878
50
44.3087583
51
50.546452
0
ARC
8
DEFAULT_255_2_778
10
12.1964692
20
4.8108752
40
1.067985
50
19.3437434
51
44.7935747
0
ARC
8
DEFAULT_255_2_778
10
11.3685102
20
4.4675382
40
1.9635585
50
6.068748
51
20.7943014
0
ARC
8
DEFAULT_255_2_778
10
8.8162303
20
4.2038235
40
4.5294216
50
1.8159576
51
5.9726795
0
ARC
8
DEFAULT_255_2_778
10
6.0347769
20
4.099797
40
7.3127918
50
359.9391373
51
1.9400046
0
ARC
8
DEFAULT_255_2_778
10
8.9641566
20
4.1023968
40
3.6812249
50
359.8261798
51
4.9522285
0
ARC
8
DEFAULT_255_2_778
10
10.3068986
20
4.2216246
40
2.3332047
50
4.8817421
51
11.7316026
0
ARC
8
DEFAULT_255_2_778
10
11.8160965
20
4.5447236
40
0.7898948
50
11.0433269
51
35.9333608
0
ARC
8
DEFAULT_255_2_778
10
11.9289042
20
4.6150425
40
0.6573535
50
36.740788
51
46.8632342
0
ARC
8
DEFAULT_255_2_778
10
12.0128643
20
4.6900526
40
0.5453012
50
47.9119248
51
80.9324191
0
ARC
8
DEFAULT_255_2_778
10
11.9295943
20
4.2949762
40
0.9487737
50
79.7266237
51
90.3822579
0
ARC
8
DEFAULT_255_2_778
10
11.9115127
20
4.3990961
40
0.8447146
50
89.2028691
51
106.8336953
0
ARC
8
DEFAULT_255_2_778
10
11.8246981
20
4.6901583
40
0.5409849
50
106.9603122
51
131.977765
0
ARC
8
DEFAULT_255_2_778
10
11.9480149
20
4.5785808
40
0.7066174
50
133.3601146
51
165.5960922
0
ARC
8
DEFAULT_255_2_778
10
12.2210706
20
4.4849236
40
0.9946488
50
164.2832391
51
167.8877153
0
ARC
8
DEFAULT_255_2_778
10
13.4771122
20
4.2258804
40
2.2771064
50
168.146289
51
175.1297949
0
ARC
8
DEFAULT_255_2_778
10
14.8608662
20
4.1039977
40
3.6662144
50
175.0678519
51
180.1561185
0
ARC
8
DEFAULT_255_2_778
10
16.0192111
20
4.0912298
40
4.8245465
50
179.9670052
51
180.0000097
0
ARC
8
DEFAULT_255_2_778
10
14.8872123
20
4.079782
40
3.6925656
50
179.8223819
51
184.9357482
0
ARC
8
DEFAULT_255_2_778
10
13.5273677
20
3.9595581
40
2.3274213
50
184.8673354
51
191.731619
0
ARC
8
DEFAULT_255_2_778
10
12.0273093
20
3.6389423
40
0.793558
50
191.0879359
51
217.5158043
0
ARC
8
DEFAULT_255_2_778
10
11.9368776
20
3.5806843
40
0.6864083
50
218.2555249
51
226.3247362
0
ARC
8
DEFAULT_255_2_778
10
11.8315751
20
3.4861308
40
0.5454105
50
227.4662765
51
260.5179043
0
ARC
8
DEFAULT_255_2_778
10
11.9168049
20
3.876519
40
0.9447121
50
259.3198193
51
270.3917698
0
ARC
8
DEFAULT_255_2_778
10
11.9360901
20
3.8075785
40
0.8758434
50
269.1609442
51
285.7848543
0
ARC
8
DEFAULT_255_2_778
10
12.0402532
20
3.453956
40
0.5072371
50
285.328436
51
334.8928471
0
ARC
8
DEFAULT_255_2_778
10
11.3816616
20
3.7679368
40
1.2368378
50
334.6674334
51
348.1951277
0
ARC
8
DEFAULT_255_2_778
10
10.4463764
20
3.9733647
40
2.1943896
50
347.9407324
51
355.9152756
0
ARC
8
DEFAULT_255_2_778
10
9.0871973
20
4.0820752
40
3.5578788
50
355.7281808
51
0.1474113
0
ARC
8
DEFAULT_255_2_778
10
16.016169
20
3.4594622
40
1.1119116
50
252.9811075
51
270.6799669
0
ARC
8
DEFAULT_255_2_778
10
15.9419085
20
3.1932988
40
0.8356972
50
238.3717744
51
252.5084397
0
ARC
8
DEFAULT_255_2_778
10
15.9376204
20
3.2016126
40
0.8405654
50
205.8032884
51
238.9178426
0
ARC
8
DEFAULT_255_2_778
10
16.1656032
20
3.308803
40
1.0924786
50
179.5108888
51
205.6598936
0
ARC
8
DEFAULT_255_2_778
10
16.3405709
20
3.3385797
40
0.5664454
50
178.730541
51
198.6598138
0
ARC
8
DEFAULT_255_2_778
10
16.0973581
20
3.2610649
40
0.3112472
50
199.4652697
51
267.1741659
0
ARC
8
DEFAULT_255_2_778
10
16.1585159
20
3.574407
40
0.6288815
50
263.0127614
51
270.1866391
0
ARC
8
DEFAULT_255_2_778
10
17.7570055
20
4.4820122
40
1.1026296
50
359.3513224
51
14.0227623
0
ARC
8
DEFAULT_255_2_778
10
18.1245033
20
4.5690543
40
0.725007
50
14.3862297
51
27.6072882
0
ARC
8
DEFAULT_255_2_778
10
18.2418859
20
4.6440642
40
0.5863532
50
26.4274401
51
61.9886693
0
ARC
8
DEFAULT_255_2_778
10
18.1683994
20
4.4661009
40
0.7782064
50
63.3657335
51
90.8124779
0
ARC
8
DEFAULT_255_2_778
10
18.1425765
20
4.4741483
40
0.7702226
50
88.8998717
51
116.7590788
0
ARC
8
DEFAULT_255_2_778
10
18.1147865
20
4.552898
40
0.6874767
50
117.6460729
51
133.8796957
0
ARC
8
DEFAULT_255_2_778
10
18.0843262
20
4.5965018
40
0.6349875
50
134.6257598
51
168.2945706
0
ARC
8
DEFAULT_255_2_778
10
18.5554547
20
4.4807475
40
1.1199435
50
167.3857111
51
180.558594
0
ARC
8
DEFAULT_255_2_778
10
18.2705602
20
4.710589
40
1.1453858
50
111.8181161
51
137.8364011
0
ARC
8
DEFAULT_255_2_778
10
18.4074166
20
4.3853018
40
1.4982491
50
109.8755649
51
112.0535495
0
ARC
8
DEFAULT_255_2_778
10
18.3503277
20
4.559487
40
1.3150423
50
89.9548283
51
110.1165489
0
ARC
8
DEFAULT_255_2_778
10
18.3646385
20
4.4304114
40
1.4441786
50
74.773609
51
90.5266343
0
ARC
8
DEFAULT_255_2_778
10
18.4624401
20
4.7937
40
1.0679577
50
45.5388742
51
74.7176256
0
ARC
8
DEFAULT_255_2_778
10
18.4434526
20
4.7733154
40
1.0958063
50
15.3244672
51
45.5768361
0
ARC
8
DEFAULT_255_2_778
10
17.9176711
20
4.6165787
40
1.6443618
50
2.5974962
51
15.7498357
0
ARC
8
DEFAULT_255_2_778
10
17.3835084
20
4.5763695
40
2.1798565
50
359.9673949
51
3.0169958
0
ARC
8
DEFAULT_255_2_778
10
21.066136
20
3.5813191
40
1.3093436
50
300.5544985
51
315.5086488
0
ARC
8
DEFAULT_255_2_778
10
21.2317503
20
3.3166412
40
0.9972586
50
291.6802795
51
300.0910151
0
ARC
8
DEFAULT_255_2_778
10
21.1951796
20
3.4482371
40
1.13315
50
277.3155226
51
290.9404478
0
ARC
8
DEFAULT_255_2_778
10
21.083477
20
4.2420543
40
1.9347532
50
269.6916426
51
277.6031938
0
ARC
8
DEFAULT_255_2_778
10
21.0603026
20
4.280309
40
1.9730213
50
260.3276639
51
270.3706032
0
ARC
8
DEFAULT_255_2_778
10
20.9624825
20
3.6793533
40
1.3641807
50
251.3601198
51
260.137022
0
ARC
8
DEFAULT_255_2_778
10
20.8403018
20
3.3441134
40
1.0075112
50
225.7257361
51
251.8504969
0
ARC
8
DEFAULT_255_2_778
10
20.8427582
20
3.2951463
40
0.9748281
50
186.924064
51
223.6127281
0
ARC
8
DEFAULT_255_2_778
10
21.2463217
20
3.3682103
40
1.3844625
50
179.8419654
51
187.9123864
0
ARC
8
DEFAULT_255_2_778
10
20.8959561
20
3.3867253
40
1.034196
50
157.4519373
51
180.8142252
0
ARC
8
DEFAULT_255_2_778
10
20.7520895
20
3.4357169
40
0.8825964
50
148.5109146
51
156.8079285
0
ARC
8
DEFAULT_255_2_778
10
20.7691702
20
3.4173642
40
0.906773
50
116.426651
51
148.085777
0
ARC
8
DEFAULT_255_2_778
10
20.8850618
20
3.2230025
40
1.1325345
50
114.9758607
51
117.3009178
0
ARC
8
DEFAULT_255_2_778
10
20.9491621
20
3.0573754
40
1.3097921
50
98.4016359
51
114.4584546
0
ARC
8
DEFAULT_255_2_778
10
21.0544481
20
2.4120441
40
1.9636061
50
89.7339928
51
98.6895142
0
ARC
8
DEFAULT_255_2_778
10
21.1001502
20
4.6358268
40
0.8856039
50
359.1849317
51
15.4929771
0
ARC
8
DEFAULT_255_2_778
10
21.4702909
20
4.742194
40
0.5005133
50
15.0774291
51
48.0823817
0
ARC
8
DEFAULT_255_2_778
10
21.4435006
20
4.6815262
40
0.5639303
50
50.1753136
51
74.4319281
0
ARC
8
DEFAULT_255_2_778
10
21.2829079
20
4.1514069
40
1.1177701
50
73.7949773
51
86.4034467
0
ARC
8
DEFAULT_255_2_778
10
21.2266803
20
3.5172244
40
1.7543068
50
85.8699585
51
90.0919638
0
ARC
8
DEFAULT_255_2_778
10
21.2109094
20
3.565929
40
1.7056492
50
89.5648099
51
97.7064412
0
ARC
8
DEFAULT_255_2_778
10
21.0852689
20
4.451275
40
0.811472
50
97.2981228
51
112.0825538
0
ARC
8
DEFAULT_255_2_778
10
20.9914255
20
4.7080416
40
0.5383466
50
113.1011334
51
114.4195901
0
ARC
8
DEFAULT_255_2_778
10
21.0910874
20
4.5192928
40
0.7515197
50
115.3890042
51
136.3305097
0
ARC
8
DEFAULT_255_2_778
10
21.4114059
20
4.1883946
40
1.2118378
50
135.4713418
51
141.8466878
0
ARC
8
DEFAULT_255_2_778
10
21.1714045
20
4.3983383
40
1.522263
50
125.750298
51
140.3773418
0
ARC
8
DEFAULT_255_2_778
10
20.936296
20
4.7153946
40
1.1275999
50
111.5144602
51
125.4674858
0
ARC
8
DEFAULT_255_2_778
10
21.0548874
20
4.3618278
40
1.5001483
50
98.869951
51
110.7758894
0
ARC
8
DEFAULT_255_2_778
10
21.2136384
20
3.3939725
40
2.4809186
50
91.3196577
51
99.0458562
0
ARC
8
DEFAULT_255_2_778
10
21.2494498
20
2.5416224
40
3.3339066
50
89.9842812
51
91.5975876
0
ARC
8
DEFAULT_255_2_778
10
21.2631307
20
3.0874771
40
2.7880811
50
82.5712158
51
90.2623502
0
ARC
8
DEFAULT_255_2_778
10
21.3956194
20
4.0723716
40
1.794328
50
71.3964505
51
82.7000881
0
ARC
8
DEFAULT_255_2_778
10
21.6070515
20
4.6846533
40
1.1465993
50
52.346111
51
71.6490795
0
ARC
8
DEFAULT_255_2_778
10
21.7136957
20
4.8467928
40
0.9531953
50
13.6032892
51
51.4674309
0
ARC
8
DEFAULT_255_2_778
10
21.1933787
20
4.7013848
40
1.493236
50
1.1159632
51
14.3304813
0
ARC
8
DEFAULT_255_2_778
10
20.7538885
20
4.6772356
40
1.933176
50
359.990912
51
1.5778809
0
ARC
8
DEFAULT_255_2_778
10
21.15485
20
2.8540667
40
1.0348404
50
89.2960222
51
102.9691063
0
ARC
8
DEFAULT_255_2_778
10
21.0405352
20
3.330111
40
0.5453034
50
102.4897391
51
128.28701
0
ARC
8
DEFAULT_255_2_778
10
20.9870672
20
3.4187999
40
0.4427518
50
129.9674588
51
179.4817424
0
ARC
8
DEFAULT_255_2_778
10
21.237014
20
3.3861515
40
0.6936497
50
176.9710218
51
180.0266394
0
ARC
8
DEFAULT_255_2_778
10
21.0703683
20
3.3725284
40
0.5271716
50
178.5542733
51
204.6336249
0
ARC
8
DEFAULT_255_2_778
10
20.9650378
20
3.3423248
40
0.4191605
50
206.8825749
51
252.0199658
0
ARC
8
DEFAULT_255_2_778
10
21.1217054
20
3.7537277
40
0.8591155
50
250.5510874
51
265.8259038
0
ARC
8
DEFAULT_255_2_778
10
21.1785199
20
4.300373
40
1.4085473
50
265.139461
51
270.1238461
0
ARC
8
DEFAULT_255_2_778
10
21.1940432
20
4.8125977
40
1.9208093
50
269.627769
51
276.8321243
0
ARC
8
DEFAULT_255_2_778
10
21.2922281
20
3.9706561
40
1.0731695
50
276.9746918
51
284.2980507
0
ARC
8
DEFAULT_255_2_778
10
21.3887199
20
3.5487684
40
0.6406091
50
285.2541118
51
314.266679
0
ARC
8
DEFAULT_255_2_778
10
21.4969198
20
3.4110505
40
0.4668386
50
316.5556427
51
344.5475397
0
ARC
8
DEFAULT_255_2_778
10
21.0222507
20
3.556436
40
0.9631826
50
343.7349434
51
356.9428633
0
ARC
8
DEFAULT_255_2_778
10
20.440432
20
3.6045682
40
1.546834
50
356.3118901
51
0.0800374
0
ARC
8
DEFAULT_255_2_778
10
26.0478739
20
4.4821645
40
1.1736586
50
359.3831465
51
12.8285362
0
ARC
8
DEFAULT_255_2_778
10
26.5530754
20
4.6036494
40
0.6541239
50
12.2784079
51
38.8924498
0
ARC
8
DEFAULT_255_2_778
10
26.6542848
20
4.6733191
40
0.5316888
50
39.8968013
51
45.5280817
0
ARC
8
DEFAULT_255_2_778
10
26.556571
20
4.5669521
40
0.6760629
50
45.9339054
51
88.7432838
0
ARC
8
DEFAULT_255_2_778
10
26.5243795
20
4.3040021
40
0.9400269
50
87.1329412
51
90.0192017
0
ARC
8
DEFAULT_255_2_778
10
26.5072152
20
4.5198983
40
0.7243266
50
88.6670635
51
89.9992639
0
ARC
8
DEFAULT_255_2_778
10
26.5071733
20
4.5214643
40
0.7227604
50
89.9959447
51
133.0962631
0
ARC
8
DEFAULT_255_2_778
10
26.4601907
20
4.57744
40
0.6497988
50
133.4434119
51
172.3414233
0
ARC
8
DEFAULT_255_2_778
10
26.8136791
20
4.5067037
40
1.0098229
50
171.0365513
51
180.2311956
0
ARC
8
DEFAULT_255_2_778
10
23.9988249
20
4.4823554
40
1.1039142
50
359.3342652
51
13.9877549
0
ARC
8
DEFAULT_255_2_778
10
24.3743766
20
4.571079
40
0.7180679
50
14.3614658
51
27.7145793
0
ARC
8
DEFAULT_255_2_778
10
24.4849862
20
4.6440645
40
0.5863528
50
26.4274253
51
61.9886817
0
ARC
8
DEFAULT_255_2_778
10
24.4116353
20
4.4666938
40
0.7776156
50
63.3551018
51
90.8231096
0
ARC
8
DEFAULT_255_2_778
10
24.3857656
20
4.4728779
40
0.7714911
50
88.9083029
51
116.4089579
0
ARC
8
DEFAULT_255_2_778
10
24.3578193
20
4.5531529
40
0.6872464
50
117.2989258
51
133.8903917
0
ARC
8
DEFAULT_255_2_778
10
24.327233
20
4.5967404
40
0.6346821
50
134.62848
51
168.3108512
0
ARC
8
DEFAULT_255_2_778
10
24.7996677
20
4.4807715
40
1.1209566
50
167.3985595
51
180.5593188
0
ARC
8
DEFAULT_255_2_778
10
24.5306799
20
4.6937473
40
1.1690846
50
112.7562485
51
137.774627
0
ARC
8
DEFAULT_255_2_778
10
24.5852344
20
4.5793733
40
1.2956721
50
89.7112324
51
113.0245254
0
ARC
8
DEFAULT_255_2_778
10
24.6051667
20
4.5131782
40
1.3619167
50
74.0170122
51
90.5638399
0
ARC
8
DEFAULT_255_2_778
10
24.6784025
20
4.802923
40
1.0632482
50
31.7062829
51
73.5116978
0
ARC
8
DEFAULT_255_2_778
10
26.6760188
20
4.4889904
40
1.3987282
50
118.9629553
51
141.394724
0
ARC
8
DEFAULT_255_2_778
10
26.6408838
20
4.5112388
40
1.3623946
50
92.6555765
51
118.1232048
0
ARC
8
DEFAULT_255_2_778
10
26.6765788
20
4.1656978
40
1.7093313
50
89.9770155
51
93.3141491
0
ARC
8
DEFAULT_255_2_778
10
26.6903952
20
4.3447758
40
1.5303095
50
75.7935836
51
90.4916293
0
ARC
8
DEFAULT_255_2_778
10
26.8001046
20
4.7687831
40
1.0923474
50
46.1419011
51
75.9140176
0
ARC
8
DEFAULT_255_2_778
10
26.7470032
20
4.7213477
40
1.1633563
50
11.6931982
51
45.8748462
0
ARC
8
DEFAULT_255_2_778
10
26.187332
20
4.5882117
40
1.7384782
50
359.5853027
51
12.2516336
0
LINE
8
DEFAULT_255_2_778
10
13.3464645
20
4.092529
11
13.3199645
21
3.509329
0
LINE
8
DEFAULT_255_2_778
10
11.1816645
20
2.720129
11
11.1816645
21
2.347829
0
LINE
8
DEFAULT_255_2_778
10
11.1816645
20
2.347829
11
10.4942645
21
2.347829
0
LINE
8
DEFAULT_255_2_778
10
10.4942645
20
2.347829
11
10.4942645
21
7.240829
0
LINE
8
DEFAULT_255_2_778
10
10.4942645
20
7.240829
11
11.1953645
21
7.240829
0
LINE
8
DEFAULT_255_2_778
10
11.1953645
20
7.240829
11
11.1953645
21
5.479729
0
LINE
8
DEFAULT_255_2_778
10
13.3475645
20
4.092029
11
13.3464645
21
4.092529
0
LINE
8
DEFAULT_255_2_778
10
12.6450645
20
4.091229
11
12.6453645
21
4.091229
0
LINE
8
DEFAULT_255_2_778
10
14.4114645
20
6.520029
11
13.6700645
21
6.520029
0
LINE
8
DEFAULT_255_2_778
10
13.6700645
20
6.520029
11
13.6700645
21
7.261429
0
LINE
8
DEFAULT_255_2_778
10
13.6700645
20
7.261429
11
14.4114645
21
7.261429
0
LINE
8
DEFAULT_255_2_778
10
14.4114645
20
7.261429
11
14.4114645
21
6.520029
0
LINE
8
DEFAULT_255_2_778
10
14.3907645
20
2.347629
11
13.6904645
21
2.347629
0
LINE
8
DEFAULT_255_2_778
10
13.6904645
20
2.347629
11
13.6904645
21
5.831329
0
LINE
8
DEFAULT_255_2_778
10
13.6904645
20
5.831329
11
14.3905645
21
5.831329
0
LINE
8
DEFAULT_255_2_778
10
14.3905645
20
5.831329
11
14.3907645
21
2.347629
0
LINE
8
DEFAULT_255_2_778
10
16.4486645
20
2.347629
11
16.0293645
21
2.347629
0
LINE
8
DEFAULT_255_2_778
10
15.0731645
20
3.318129
11
15.0731645
21
5.233629
0
LINE
8
DEFAULT_255_2_778
10
15.0731645
20
5.233629
11
14.6762645
21
5.233629
0
LINE
8
DEFAULT_255_2_778
10
14.6762645
20
5.233629
11
14.6762645
21
5.770729
0
LINE
8
DEFAULT_255_2_778
10
14.6762645
20
5.770729
11
15.0731645
21
5.770729
0
LINE
8
DEFAULT_255_2_778
10
15.0731645
20
5.770729
11
15.0731645
21
6.828329
0
LINE
8
DEFAULT_255_2_778
10
15.0731645
20
6.828329
11
15.7742645
21
6.828329
0
LINE
8
DEFAULT_255_2_778
10
15.7742645
20
6.828329
11
15.7742645
21
5.770729
0
LINE
8
DEFAULT_255_2_778
10
15.7742645
20
5.770729
11
16.4489645
21
5.770729
0
LINE
8
DEFAULT_255_2_778
10
16.4489645
20
5.770729
11
16.4489645
21
5.233629
0
LINE
8
DEFAULT_255_2_778
10
16.4489645
20
5.233629
11
15.7742645
21
5.233629
0
LINE
8
DEFAULT_255_2_778
10
15.7742645
20
5.233629
11
15.7742645
21
3.351129
0
LINE
8
DEFAULT_255_2_778
10
16.1605645
20
2.945529
11
16.4489645
21
2.945529
0
LINE
8
DEFAULT_255_2_778
10
16.4489645
20
2.945529
11
16.4489645
21
2.347629
0
LINE
8
DEFAULT_255_2_778
10
16.4489645
20
2.347629
11
16.4486645
21
2.347629
0
LINE
8
DEFAULT_255_2_778
10
19.5607645
20
2.347629
11
18.8595645
21
2.347629
0
LINE
8
DEFAULT_255_2_778
10
18.8595645
20
2.347629
11
18.8595645
21
4.469529
0
LINE
8
DEFAULT_255_2_778
10
17.4355645
20
4.469829
11
17.4355645
21
2.347829
0
LINE
8
DEFAULT_255_2_778
10
17.4355645
20
2.347829
11
16.7344645
21
2.347829
0
LINE
8
DEFAULT_255_2_778
10
16.7344645
20
2.347829
11
16.7344645
21
5.831329
0
LINE
8
DEFAULT_255_2_778
10
16.7344645
20
5.831329
11
17.4215645
21
5.831329
0
LINE
8
DEFAULT_255_2_778
10
17.4215645
20
5.831329
11
17.4215645
21
5.479429
0
LINE
8
DEFAULT_255_2_778
10
19.5633645
20
4.575129
11
19.5607645
21
2.347629
0
LINE
8
DEFAULT_255_2_778
10
22.6875645
20
2.347629
11
22.0001645
21
2.347629
0
LINE
8
DEFAULT_255_2_778
10
22.0001645
20
2.347629
11
22.0001645
21
2.663729
0
LINE
8
DEFAULT_255_2_778
10
21.0635645
20
4.375629
11
21.9856645
21
4.375629
0
LINE
8
DEFAULT_255_2_778
10
21.9856645
20
4.375629
11
21.9856645
21
4.623229
0
LINE
8
DEFAULT_255_2_778
10
20.4584645
20
4.937029
11
19.9988645
21
5.369129
0
LINE
8
DEFAULT_255_2_778
10
22.6870645
20
4.676929
11
22.6870645
21
2.347629
0
LINE
8
DEFAULT_255_2_778
10
22.6870645
20
2.347629
11
22.6875645
21
2.347629
0
LINE
8
DEFAULT_255_2_778
10
21.9864645
20
3.607029
11
21.9864645
21
3.888829
0
LINE
8
DEFAULT_255_2_778
10
21.9864645
20
3.888829
11
21.1675645
21
3.888829
0
LINE
8
DEFAULT_255_2_778
10
21.9872645
20
3.606729
11
21.9864645
21
3.607029
0
LINE
8
DEFAULT_255_2_778
10
27.9226645
20
2.347629
11
27.2214645
21
2.347629
0
LINE
8
DEFAULT_255_2_778
10
27.2214645
20
2.347629
11
27.2214645
21
4.469529
0
LINE
8
DEFAULT_255_2_778
10
25.8038645
20
4.502629
11
25.8038645
21
2.347629
0
LINE
8
DEFAULT_255_2_778
10
25.8038645
20
2.347629
11
25.1026645
21
2.347629
0
LINE
8
DEFAULT_255_2_778
10
25.1026645
20
2.347629
11
25.1026645
21
4.469529
0
LINE
8
DEFAULT_255_2_778
10
23.6787645
20
4.469829
11
23.6787645
21
2.347829
0
LINE
8
DEFAULT_255_2_778
10
23.6787645
20
2.347829
11
22.9775645
21
2.347829
0
LINE
8
DEFAULT_255_2_778
10
22.9775645
20
2.347829
11
22.9775645
21
5.831329
0
LINE
8
DEFAULT_255_2_778
10
22.9775645
20
5.831329
11
23.6649645
21
5.831329
0
LINE
8
DEFAULT_255_2_778
10
23.6649645
20
5.831329
11
23.6649645
21
5.479429
0
LINE
8
DEFAULT_255_2_778
10
27.9257645
20
4.575629
11
27.9226645
21
2.347629
0
LINE
8
DEFAULT_255_2_778
10
28.9333645
20
6.520029
11
28.1919645
21
6.520029
0
LINE
8
DEFAULT_255_2_778
10
28.1919645
20
6.520029
11
28.1919645
21
7.261429
0
LINE
8
DEFAULT_255_2_778
10
28.1919645
20
7.261429
11
28.9333645
21
7.261429
0
LINE
8
DEFAULT_255_2_778
10
28.9333645
20
7.261429
11
28.9333645
21
6.520029
0
LINE
8
DEFAULT_255_2_778
10
28.9126645
20
2.347629
11
28.2125645
21
2.347629
0
LINE
8
DEFAULT_255_2_778
10
28.2125645
20
2.347629
11
28.2125645
21
5.831329
0
LINE
8
DEFAULT_255_2_778
10
28.2125645
20
5.831329
11
28.9126645
21
5.831329
0
LINE
8
DEFAULT_255_2_778
10
28.9126645
20
5.831329
11
28.9126645
21
2.347629
0
ARC
8
DEFAULT_255_2_778
10
8.194202
20
6.8260972
40
0.9659818
50
7.4372465
51
61.1363051
0
ARC
8
DEFAULT_255_2_778
10
7.9167095
20
6.7731659
40
1.2481012
50
359.8810867
51
8.1978101
0
ARC
8
DEFAULT_255_2_778
10
8.1403796
20
2.7519711
40
1.0245161
50
336.2156172
51
0.7496668
0
ARC
8
DEFAULT_255_2_778
10
8.2173042
20
2.7372552
40
0.9483523
50
301.4463904
51
335.1548128
0
ARC
8
DEFAULT_255_2_778
10
8.072621
20
2.935698
40
1.193297
50
299.9522473
51
302.4021964
0
ARC
8
DEFAULT_255_2_778
10
4.63074
20
0.8509141
40
1.1094132
50
283.9578309
51
300.1588406
0
ARC
8
DEFAULT_255_2_778
10
4.6676181
20
0.7161674
40
0.9697554
50
270.0495326
51
283.7636076
0
ARC
8
DEFAULT_255_2_778
10
4.6684481
20
0.7001484
40
0.9537362
50
268.7959084
51
270.0004995
0
ARC
8
DEFAULT_255_2_778
10
4.6739274
20
0.7531566
40
1.0068571
50
246.3911194
51
268.5475629
0
ARC
8
DEFAULT_255_2_778
10
4.7412308
20
0.9230912
40
1.1895399
50
239.9080258
51
246.6987657
0
ARC
8
DEFAULT_255_2_778
10
1.1804408
20
2.7681918
40
1.0068086
50
210.154873
51
239.6821976
0
ARC
8
DEFAULT_255_2_778
10
1.1898548
20
2.7758992
40
1.0188222
50
183.786164
51
210.2637108
0
ARC
8
DEFAULT_255_2_778
10
1.2365105
20
2.7808215
40
1.0657026
50
179.9917138
51
183.8845889
0
ARC
8
DEFAULT_255_2_778
10
1.0175458
20
6.9618377
40
0.8468238
50
163.8398588
51
180.8161463
0
ARC
8
DEFAULT_255_2_778
10
0.8865897
20
6.9745124
40
0.7179249
50
123.8465583
51
161.9022201
0
ARC
8
DEFAULT_255_2_778
10
1.5690544
20
6.0944509
40
1.8305621
50
119.887741
51
126.2460732
0
ARC
8
DEFAULT_255_2_778
10
2.0588792
20
5.2781285
40
2.7824548
50
120.0176858
51
120.2564281
0
ARC
8
DEFAULT_255_2_778
10
4.6681606
20
8.8205559
40
1.0020199
50
90.0087303
51
120.2341858
0
LINE
8
DEFAULT_255_2_778
10
4.6680079
20
9.8225758
11
4.6683517
21
9.8225759
0
ARC
8
DEFAULT_255_2_778
10
4.6685392
20
8.8204933
40
1.0020825
50
59.6873871
51
90.0107237
0
LINE
8
DEFAULT_255_2_778
10
5.173308
20
9.6855756
11
8.660508
21
7.6720756
0
LINE
8
DEFAULT_255_2_778
10
9.164808
20
6.7705756
11
9.164808
21
2.7653756
0
LINE
8
DEFAULT_255_2_778
10
8.668408
20
1.9017756
11
5.188108
21
-0.1083244
0
LINE
8
DEFAULT_255_2_778
10
4.144808
20
-0.1061244
11
0.672208
21
1.8990756
0
LINE
8
DEFAULT_255_2_778
10
0.170808
20
2.7809756
11
0.170808
21
6.9497756
0
LINE
8
DEFAULT_255_2_778
10
0.666908
20
7.6873756
11
2.057508
21
8.4903756
0
LINE
8
DEFAULT_255_2_778
10
2.057508
20
8.4903756
11
2.057508
21
3.2783756
0
LINE
8
DEFAULT_255_2_778
10
2.057508
20
3.2783756
11
4.668208
21
1.7712756
0
LINE
8
DEFAULT_255_2_778
10
4.668208
20
1.7712756
11
7.279408
21
3.2772756
0
LINE
8
DEFAULT_255_2_778
10
7.279408
20
3.2772756
11
7.279408
21
6.2916756
0
LINE
8
DEFAULT_255_2_778
10
7.279408
20
6.2916756
11
4.668208
21
7.7987756
0
LINE
8
DEFAULT_255_2_778
10
4.668208
20
7.7987756
11
3.571008
21
7.1653756
0
LINE
8
DEFAULT_255_2_778
10
3.571008
20
7.1653756
11
3.571008
21
9.3441756
0
LINE
8
DEFAULT_255_2_778
10
3.571008
20
9.3441756
11
4.163608
21
9.6862756
0
LINE
8
DEFAULT_255_2_778
10
5.174308
20
9.6855756
11
5.173308
21
9.6855756
0
LINE
8
DEFAULT_255_2_778
10
4.1199339
20
5.7395698
11
4.6682339
21
6.0559698
0
LINE
8
DEFAULT_255_2_778
10
4.6682339
20
6.0559698
11
5.7643339
21
5.4230698
0
LINE
8
DEFAULT_255_2_778
10
5.7643339
20
5.4230698
11
5.7643339
21
4.1573698
0
LINE
8
DEFAULT_255_2_778
10
5.7643339
20
4.1573698
11
4.6682339
21
3.5244698
0
LINE
8
DEFAULT_255_2_778
10
4.6682339
20
3.5244698
11
3.5720339
21
4.1573698
0
LINE
8
DEFAULT_255_2_778
10
3.5720339
20
4.1573698
11
3.5720339
21
5.4230698
0
LINE
8
DEFAULT_255_2_778
10
3.5720339
20
5.4230698
11
4.1199339
21
5.7395698
0
LINE
8
DEFAULT_255_2_778
10
4.6681201
20
6.0107691
11
3.6114201
21
5.4006691
0
LINE
8
DEFAULT_255_2_778
10
3.6114201
20
5.4006691
11
4.6681201
21
4.7844691
0
LINE
8
DEFAULT_255_2_778
10
4.6681201
20
4.7844691
11
5.7252201
21
5.4006691
0
LINE
8
DEFAULT_255_2_778
10
5.7252201
20
5.4006691
11
4.6681201
21
6.0107691
0
LINE
8
DEFAULT_255_2_778
10
5.7252246
20
4.1801182
11
5.7252246
21
5.4006182
0
LINE
8
DEFAULT_255_2_778
10
5.7252246
20
5.4006182
11
4.6684246
21
4.7902182
0
LINE
8
DEFAULT_255_2_778
10
4.6684246
20
4.7902182
11
4.6684246
21
3.5684182
0
LINE
8
DEFAULT_255_2_778
10
4.6684246
20
3.5684182
11
5.7252246
21
4.1801182
0
LINE
8
DEFAULT_255_2_778
10
3.6114287
20
4.1801182
11
3.6114287
21
5.4006182
0
LINE
8
DEFAULT_255_2_778
10
3.6114287
20
5.4006182
11
4.6681287
21
4.7902182
0
LINE
8
DEFAULT_255_2_778
10
4.6681287
20
4.7902182
11
4.6681287
21
3.5684182
0
LINE
8
DEFAULT_255_2_778
10
4.6681287
20
3.5684182
11
3.6114287
21
4.1801182
0
ARC
8
DEFAULT_255_2_778
10
8.1935155
20
6.8247921
40
0.9287402
50
28.9364512
51
59.5362608
0
ARC
8
DEFAULT_255_2_778
10
8.0672611
20
6.6433867
40
1.1492364
50
58.6959749
51
60.0098073
0
ARC
8
DEFAULT_255_2_778
10
4.6683604
20
8.8215418
40
0.9622491
50
59.6539697
51
90.0106568
0
LINE
8
DEFAULT_255_2_778
10
4.6681815
20
9.7837909
11
4.6679101
21
9.7837909
0
ARC
8
DEFAULT_255_2_778
10
4.6680105
20
8.8214599
40
0.9623309
50
90.0059766
51
120.2502931
0
LINE
8
DEFAULT_255_2_778
10
3.6101089
20
9.3217531
11
3.6101089
21
7.2333531
0
LINE
8
DEFAULT_255_2_778
10
3.6101089
20
7.2333531
11
4.6682089
21
7.8443531
0
LINE
8
DEFAULT_255_2_778
10
4.6682089
20
7.8443531
11
7.3177089
21
6.3144531
0
LINE
8
DEFAULT_255_2_778
10
7.3177089
20
6.3144531
11
7.3177089
21
6.3036531
0
LINE
8
DEFAULT_255_2_778
10
7.3177089
20
6.3036531
11
9.0063089
21
7.2741531
0
LINE
8
DEFAULT_255_2_778
10
8.6417089
20
7.6387531
11
5.1545089
21
9.6519531
0
LINE
8
DEFAULT_255_2_778
10
4.1832089
20
9.6527531
11
3.6101089
21
9.3217531
0
LINE
8
DEFAULT_255_2_778
10
3.6101089
20
9.3217531
11
3.6101089
21
9.3217531
0
ARC
8
DEFAULT_255_2_778
10
1.2553935
20
6.7139703
40
1.1524315
50
119.161076
51
136.5416514
0
ARC
8
DEFAULT_255_2_778
10
0.9864475
20
6.9785191
40
0.7752785
50
137.0620049
51
177.4971541
0
ARC
8
DEFAULT_255_2_778
10
1.2349893
20
6.9490721
40
1.0250372
50
176.4593642
51
180.0300266
0
ARC
8
DEFAULT_255_2_778
10
1.220786
20
2.7843192
40
1.0108398
50
180.1974902
51
209.1244618
0
LINE
8
DEFAULT_255_2_778
10
2.0186523
20
3.2583349
11
2.0186523
21
3.2774349
0
LINE
8
DEFAULT_255_2_778
10
2.0186523
20
3.2774349
11
2.0260523
21
8.4894349
0
LINE
8
DEFAULT_255_2_778
10
2.0260523
20
8.4894349
11
0.6938523
21
7.7203349
0
LINE
8
DEFAULT_255_2_778
10
0.2099523
20
6.9485349
11
0.2099523
21
2.7808349
0
LINE
8
DEFAULT_255_2_778
10
0.3377523
20
2.2923349
11
2.0186523
21
3.2583349
0
ENDSEC
0
EOF