0
SECTION
2
HEADER
9
$MEASUREMENT
70
1
0
ENDSEC
0
SECTION
2
TABLES
0
TABLE
2
LTYPE
0
LTYPE
72
65
70
64
2
CONTINUOUS
3
______
73
0
40
0
0
ENDTAB
0
TABLE
2
LAYER
0
LAYER
2
DEFAULT_255_2_778
70
0
62
255
6
CONTINUOUS
0
ENDTAB
0
ENDSEC
0
SECTION
2
ENTITIES
0
ARC
8
DEFAULT_255_2_778
10
25.6756031
20
4.8652173
40
1.0912692
50
89.8861983
51
125.6318428
0
ARC
8
DEFAULT_255_2_778
10
25.6535163
20
4.8932296
40
1.0556355
50
125.543241
51
155.0404815
0
ARC
8
DEFAULT_255_2_778
10
25.2152348
20
-49.0995201
40
54.4406762
50
90.5459787
51
97.8261504
0
ARC
8
DEFAULT_255_2_778
10
22.803439
20
-26.4178359
40
31.6495688
50
99.091995
51
99.9168617
0
ARC
8
DEFAULT_255_2_778
10
22.7151524
20
-25.9171354
40
31.1411449
50
99.9155052
51
100.8188591
0
ARC
8
DEFAULT_255_2_778
10
22.5076609
20
-24.8319445
40
30.0362955
50
100.818653
51
101.5617199
0
ARC
8
DEFAULT_255_2_778
10
22.18969
20
-23.2801592
40
28.452268
50
101.5607029
51
102.3053777
0
ARC
8
DEFAULT_255_2_778
10
21.7129328
20
-21.0992694
40
26.2198755
50
102.3031747
51
103.1131287
0
ARC
8
DEFAULT_255_2_778
10
21.1426623
20
-18.6476586
40
23.7028131
50
103.1150814
51
103.7449704
0
ARC
8
DEFAULT_255_2_778
10
20.5056029
20
-16.0479594
40
21.026196
50
103.7419028
51
104.4886381
0
ARC
8
DEFAULT_255_2_778
10
19.7855405
20
-13.2598665
40
18.1466212
50
104.4898535
51
105.1591533
0
ARC
8
DEFAULT_255_2_778
10
19.0602099
20
-10.5847985
40
15.3749622
50
105.1570738
51
105.8884793
0
ARC
8
DEFAULT_255_2_778
10
5.8159091
20
-4.0755852
40
12.2542053
50
42.4971368
51
62.9875692
0
ARC
8
DEFAULT_255_2_778
10
15.5822685
20
-10.1566984
40
17.5091725
50
98.1266608
51
99.5565766
0
ARC
8
DEFAULT_255_2_778
10
16.2905119
20
-15.1203423
40
22.5230901
50
96.7689379
51
98.1252898
0
ARC
8
DEFAULT_255_2_778
10
17.2037516
20
-22.9274584
40
30.3834295
50
95.0180446
51
96.743826
0
ARC
8
DEFAULT_255_2_778
10
18.0759051
20
-32.6944206
40
40.1892463
50
93.844762
51
95.038716
0
ARC
8
DEFAULT_255_2_778
10
18.5881176
20
-40.152885
40
47.6652714
50
93.1272239
51
93.8579176
0
ARC
8
DEFAULT_255_2_778
10
18.831425
20
-44.535084
40
52.0542181
50
92.652198
51
93.1314966
0
ARC
8
DEFAULT_255_2_778
10
18.9353881
20
-46.7484944
40
54.2700683
50
92.3251161
51
92.6537081
0
ARC
8
DEFAULT_255_2_778
10
18.9730831
20
-47.6685054
40
55.190851
50
91.9267263
51
92.3254684
0
ARC
8
DEFAULT_255_2_778
10
18.9459341
20
-46.8373955
40
54.3592983
50
91.5698041
51
91.9275795
0
ARC
8
DEFAULT_255_2_778
10
18.8914725
20
-44.8812841
40
52.4024291
50
91.4534789
51
91.5688705
0
ARC
8
DEFAULT_255_2_778
10
18.2254641
20
7.8638831
40
0.7544116
50
208.4675662
51
269.6663257
0
ARC
8
DEFAULT_255_2_778
10
18.2244214
20
7.8892006
40
0.7797234
50
269.7537764
51
269.9999291
0
ARC
8
DEFAULT_255_2_778
10
18.2244125
20
7.8645075
40
0.7550304
50
270.0006056
51
358.124154
0
ARC
8
DEFAULT_255_2_778
10
18.2088945
20
7.8646962
40
0.7705463
50
358.1478962
51
359.2257786
0
ARC
8
DEFAULT_255_2_778
10
18.2149457
20
7.8580755
40
0.7644343
50
359.7158474
51
359.9968999
0
ARC
8
DEFAULT_255_2_778
10
18.2247855
20
7.857912
40
0.7545944
50
0.0092746
51
45.0207935
0
ARC
8
DEFAULT_255_2_778
10
18.2242076
20
7.8578283
40
0.7550622
50
44.9942594
51
90.0318316
0
ARC
8
DEFAULT_255_2_778
10
18.223738
20
7.8540527
40
0.7588377
50
89.9962195
51
90.2240509
0
ARC
8
DEFAULT_255_2_778
10
18.2370002
20
7.82834
40
0.7847123
50
91.1850886
51
159.9022985
0
ARC
8
DEFAULT_255_2_778
10
19.1942952
20
-58.5260671
40
66.6455898
50
91.4566962
51
91.6589652
0
ARC
8
DEFAULT_255_2_778
10
19.1532142
20
-57.1062644
40
65.2251929
50
91.6590003
51
91.9262469
0
ARC
8
DEFAULT_255_2_778
10
19.1030169
20
-55.61886
40
63.7369418
50
91.9260916
51
92.2129172
0
ARC
8
DEFAULT_255_2_778
10
19.0320964
20
-53.7871237
40
61.9038332
50
92.2127889
51
92.4922841
0
ARC
8
DEFAULT_255_2_778
10
18.9124429
20
-51.0650877
40
59.1791688
50
92.4911484
51
92.9016985
0
ARC
8
DEFAULT_255_2_778
10
18.706186
20
-47.0203466
40
55.1291725
50
92.9004126
51
93.4081678
0
ARC
8
DEFAULT_255_2_778
10
18.3204609
20
-40.6547428
40
48.7518968
50
93.4003921
51
94.29517
0
ARC
8
DEFAULT_255_2_778
10
17.6691328
20
-32.0506048
40
40.1231433
50
94.2878947
51
95.4485432
0
ARC
8
DEFAULT_255_2_778
10
16.7910372
20
-22.9183238
40
30.9487471
50
95.43558
51
96.9940359
0
ARC
8
DEFAULT_255_2_778
10
15.9278698
20
-15.8174267
40
23.7955857
50
97.0130665
51
98.251774
0
ARC
8
DEFAULT_255_2_778
10
15.346603
20
-11.7773098
40
19.7138718
50
98.2651484
51
99.139516
0
ARC
8
DEFAULT_255_2_778
10
9.2335967
20
4.0225568
40
3.4654673
50
71.4762
51
71.4917123
0
ARC
8
DEFAULT_255_2_778
10
10.5677176
20
8.089834
40
0.8153619
50
242.977873
51
253.319521
0
ARC
8
DEFAULT_255_2_778
10
5.8307788
20
-4.1375038
40
12.3019909
50
69.2101173
51
74.060409
0
ARC
8
DEFAULT_255_2_778
10
5.7473008
20
-4.4285585
40
12.6047802
50
74.0588733
51
78.6363582
0
ARC
8
DEFAULT_255_2_778
10
5.7111454
20
-4.6018382
40
12.7817869
50
78.6305108
51
81.3954829
0
ARC
8
DEFAULT_255_2_778
10
11.1126055
20
-1.5418755
40
10.2065236
50
103.5502346
51
105.279098
0
ARC
8
DEFAULT_255_2_778
10
12.1464045
20
-5.844667
40
14.6317635
50
101.7911449
51
103.5380502
0
ARC
8
DEFAULT_255_2_778
10
13.0835835
20
-10.2722583
40
19.15744
50
101.0114626
51
101.8289739
0
ARC
8
DEFAULT_255_2_778
10
14.1182963
20
-15.6586351
40
24.6422874
50
99.4793172
51
100.9808543
0
ARC
8
DEFAULT_255_2_778
10
14.9608388
20
-20.6194957
40
29.6741709
50
98.7797241
51
99.5063987
0
ARC
8
DEFAULT_255_2_778
10
15.1680315
20
-21.9461088
40
31.0168646
50
98.2566752
51
98.7839283
0
ARC
8
DEFAULT_255_2_778
10
14.9993712
20
-20.7764719
40
29.8351307
50
97.832532
51
98.258705
0
ARC
8
DEFAULT_255_2_778
10
14.714519
20
-18.7164639
40
27.7555222
50
97.7691469
51
97.8295166
0
ARC
8
DEFAULT_255_2_778
10
11.3124808
20
9.0532072
40
0.4413917
50
217.536099
51
269.7057725
0
ARC
8
DEFAULT_255_2_778
10
11.3102397
20
9.0309236
40
0.4191022
50
269.9965077
51
274.0816589
0
ARC
8
DEFAULT_255_2_778
10
11.27189
20
9.0263325
40
0.4190321
50
279.3642125
51
359.5650892
0
ARC
8
DEFAULT_255_2_778
10
11.3029539
20
9.0231745
40
0.3879563
50
359.9966425
51
3.7701703
0
ARC
8
DEFAULT_255_2_778
10
11.2954395
20
9.0042478
40
0.3971251
50
6.4246056
51
90.4571155
0
ARC
8
DEFAULT_255_2_778
10
11.292261
20
9.0080786
40
0.3932817
50
89.9985218
51
97.0530513
0
ARC
8
DEFAULT_255_2_778
10
11.2799544
20
9.0216495
40
0.3784495
50
95.4560515
51
169.6434802
0
ARC
8
DEFAULT_255_2_778
10
12.7927525
20
-6.6582903
40
15.8603985
50
96.8260049
51
97.4350879
0
ARC
8
DEFAULT_255_2_778
10
13.4406042
20
-11.6478208
40
20.8918117
50
97.4261611
51
97.8916221
0
ARC
8
DEFAULT_255_2_778
10
13.9835976
20
-15.5642025
40
24.8456563
50
97.8919287
51
98.4679772
0
ARC
8
DEFAULT_255_2_778
10
14.342074
20
-17.9820968
40
27.2899795
50
98.4648646
51
99.0929669
0
ARC
8
DEFAULT_255_2_778
10
14.319495
20
-17.8589238
40
27.1647861
50
99.0869991
51
100.0850303
0
ARC
8
DEFAULT_255_2_778
10
13.702827
20
-14.4213775
40
23.6723696
50
100.0724619
51
101.3589643
0
ARC
8
DEFAULT_255_2_778
10
12.5587514
20
-8.7668846
40
17.9033043
50
101.3334127
51
103.173504
0
ARC
8
DEFAULT_255_2_778
10
11.42325
20
-3.8891822
40
12.8951816
50
103.200214
51
104.679443
0
ARC
8
DEFAULT_255_2_778
10
10.876774
20
-1.3200662
40
10.2721712
50
105.3621982
51
106.6760975
0
ARC
8
DEFAULT_255_2_778
10
11.1312903
20
-2.1698224
40
11.1592248
50
106.6759181
51
107.8280866
0
ARC
8
DEFAULT_255_2_778
10
11.6094449
20
-3.6454005
40
12.710338
50
107.8435366
51
109.3825877
0
ARC
8
DEFAULT_255_2_778
10
12.7322238
20
-6.8397083
40
16.0962254
50
109.3791514
51
110.2711382
0
ARC
8
DEFAULT_255_2_778
10
16.072404
20
-15.8836433
40
25.7372607
50
110.2709401
51
110.6808439
0
ARC
8
DEFAULT_255_2_778
10
-118.6414261
20
340.7249801
40
355.4680998
50
290.6701189
51
290.6957569
0
ARC
8
DEFAULT_255_2_778
10
5.3615323
20
-6.5201924
40
14.7329606
50
84.2634005
51
89.9994691
0
ARC
8
DEFAULT_255_2_778
10
5.361653
20
-6.5083374
40
14.7211057
50
89.9999385
51
90.6021639
0
ARC
8
DEFAULT_255_2_778
10
5.3616308
20
-6.5069911
40
14.7197591
50
90.6021324
51
91.535207
0
ARC
8
DEFAULT_255_2_778
10
10.3966605
20
-9.4780129
40
18.5235225
50
97.7414957
51
105.0113668
0
ARC
8
DEFAULT_255_2_778
10
8.0708095
20
9.0517048
40
0.2435319
50
225.9452406
51
270.5555187
0
ARC
8
DEFAULT_255_2_778
10
8.0650118
20
9.0429986
40
0.2349559
50
271.9900016
51
357.1177954
0
ARC
8
DEFAULT_255_2_778
10
8.0800689
20
9.0170354
40
0.2200571
50
3.6864947
51
91.7963803
0
ARC
8
DEFAULT_255_2_778
10
8.0766431
20
9.0008489
40
0.236161
50
90.8425057
51
166.7481917
0
ARC
8
DEFAULT_255_2_778
10
8.8331458
20
-2.1582048
40
11.2198506
50
107.1202325
51
109.1274421
0
ARC
8
DEFAULT_255_2_778
10
8.2206591
20
-0.386268
40
9.3450452
50
109.1393291
51
110.4981
0
ARC
8
DEFAULT_255_2_778
10
7.4912573
20
1.5540458
40
7.2721663
50
110.4684214
51
112.486822
0
ARC
8
DEFAULT_255_2_778
10
6.6463726
20
3.5935336
40
5.064602
50
112.48002
51
114.689337
0
ARC
8
DEFAULT_255_2_778
10
6.1292183
20
4.7289283
40
3.8169865
50
114.7549779
51
115.6529784
0
ARC
8
DEFAULT_255_2_778
10
5.8413156
20
2.6263549
40
6.0430336
50
109.0971791
51
111.3316077
0
ARC
8
DEFAULT_255_2_778
10
6.9786879
20
-0.6497189
40
9.5109247
50
107.4267703
51
109.1148871
0
ARC
8
DEFAULT_255_2_778
10
8.6302275
20
-5.9241486
40
15.0378754
50
105.868116
51
107.4119632
0
ARC
8
DEFAULT_255_2_778
10
10.7528531
20
-13.3317338
40
22.743567
50
105.3386813
51
105.9092508
0
ARC
8
DEFAULT_255_2_778
10
14.8488587
20
-28.2601625
40
38.2237234
50
105.0987521
51
105.3404377
0
ARC
8
DEFAULT_255_2_778
10
-8.1494367
20
56.9367663
40
50.0227404
50
285.1124541
51
285.1176565
0
ARC
8
DEFAULT_255_2_778
10
-14.878541
20
82.0399954
40
76.0121855
50
285.0794046
51
285.1723815
0
ARC
8
DEFAULT_255_2_778
10
4.9066758
20
8.4585815
40
0.2444474
50
63.365213
51
63.5201924
0
ARC
8
DEFAULT_255_2_778
10
2.8117158
20
4.6285742
40
4.6098258
50
60.9463964
51
61.4302882
0
ARC
8
DEFAULT_255_2_778
10
5.0841472
20
8.7216625
40
0.071778
50
241.9324231
51
270.0186904
0
ARC
8
DEFAULT_255_2_778
10
5.0863765
20
8.7504028
40
0.1005426
50
268.7428379
51
270.0045447
0
ARC
8
DEFAULT_255_2_778
10
5.0864448
20
8.7507783
40
0.1009181
50
269.9657383
51
314.9726565
0
ARC
8
DEFAULT_255_2_778
10
5.0863642
20
8.7505738
40
0.1008306
50
315.0871742
51
0.0547942
0
ARC
8
DEFAULT_255_2_778
10
5.0866222
20
8.7506782
40
0.1005726
50
359.9954562
51
1.2569354
0
ARC
8
DEFAULT_255_2_778
10
5.0814667
20
8.7601645
40
0.1059543
50
356.0601057
51
88.5376908
0
ARC
8
DEFAULT_255_2_778
10
5.0863315
20
8.7588638
40
0.1072423
50
91.1545385
51
168.4237349
0
ARC
8
DEFAULT_255_2_778
10
8.6715905
20
-5.743756
40
14.9856302
50
104.2561446
51
109.9277248
0
ARC
8
DEFAULT_255_2_778
10
5.2859388
20
4.1348426
40
4.5483074
50
112.246704
51
115.1255649
0
ARC
8
DEFAULT_255_2_778
10
5.4301457
20
3.821585
40
4.8931558
50
115.0968969
51
115.9521278
0
ARC
8
DEFAULT_255_2_778
10
5.4420583
20
3.7954903
40
4.9218324
50
115.943884
51
118.8186142
0
ARC
8
DEFAULT_255_2_778
10
5.0275622
20
4.5436652
40
4.0665166
50
118.7832228
51
121.1914219
0
ARC
8
DEFAULT_255_2_778
10
4.2202128
20
5.8742221
40
2.5101776
50
121.1561252
51
123.5726808
0
ARC
8
DEFAULT_255_2_778
10
3.6437947
20
6.7481837
40
1.463253
50
123.691438
51
124.796458
0
ARC
8
DEFAULT_255_2_778
10
3.063939
20
6.3533208
40
1.6167272
50
99.0809746
51
99.1471154
0
ARC
8
DEFAULT_255_2_778
10
2.999627
20
6.7287445
40
1.2358597
50
98.9703366
51
103.0317749
0
ARC
8
DEFAULT_255_2_778
10
2.8487902
20
7.3750567
40
0.5721822
50
102.9101985
51
106.7181475
0
ARC
8
DEFAULT_255_2_778
10
2.7212177
20
7.8022067
40
0.1263911
50
107.0333973
51
108.1860324
0
ARC
8
DEFAULT_255_2_778
10
2.8125222
20
6.9816556
40
0.8782196
50
96.060949
51
96.7518383
0
ARC
8
DEFAULT_255_2_778
10
2.9692738
20
5.5166475
40
2.3515896
50
95.1957692
51
96.0899559
0
ARC
8
DEFAULT_255_2_778
10
3.0932493
20
4.1704359
40
3.703497
50
94.4459224
51
95.2198168
0
ARC
8
DEFAULT_255_2_778
10
3.1808012
20
3.0490235
40
4.8283219
50
93.6531532
51
94.4501789
0
ARC
8
DEFAULT_255_2_778
10
3.2486535
20
1.9872515
40
5.8922596
50
92.7786986
51
93.6537575
0
ARC
8
DEFAULT_255_2_778
10
3.2993944
20
0.9393835
40
6.9413555
50
91.7609998
51
92.7777269
0
ARC
8
DEFAULT_255_2_778
10
3.3281411
20
0.0271787
40
7.8540128
50
90.8918853
51
91.7661112
0
ARC
8
DEFAULT_255_2_778
10
3.3399661
20
-0.7252104
40
8.6064948
50
89.993978
51
90.8926313
0
ARC
8
DEFAULT_255_2_778
10
2.7765612
20
7.2497771
40
0.2935796
50
83.701236
51
89.9004082
0
ARC
8
DEFAULT_255_2_778
10
2.7686361
20
7.367867
40
0.1756918
50
87.2480503
51
130.2262269
0
ARC
8
DEFAULT_255_2_778
10
2.7437252
20
7.4061924
40
0.1304685
50
132.7439988
51
180.8379625
0
ARC
8
DEFAULT_255_2_778
10
2.7507358
20
7.4044494
40
0.1374653
50
180.0687777
51
269.931151
0
ARC
8
DEFAULT_255_2_778
10
2.7452356
20
7.4096193
40
0.1427347
50
272.1420448
51
357.857976
0
ARC
8
DEFAULT_255_2_778
10
4.2224517
20
6.1409204
40
1.846592
50
110.4367737
51
120.5924039
0
ARC
8
DEFAULT_255_2_778
10
3.5768824
20
1.2866459
40
6.5846385
50
88.6674904
51
89.993141
0
ARC
8
DEFAULT_255_2_778
10
3.4877268
20
-1.2220117
40
9.0947432
50
84.9477796
51
88.4734938
0
ARC
8
DEFAULT_255_2_778
10
2.2771333
20
-15.6011976
40
23.5247506
50
84.1894409
51
85.0948713
0
ARC
8
DEFAULT_255_2_778
10
6.1581219
20
4.2479485
40
3.8580048
50
112.8695209
51
119.8688809
0
ARC
8
DEFAULT_255_2_778
10
7.4347607
20
2.3559634
40
6.1366739
50
121.4079183
51
127.6321566
0
ARC
8
DEFAULT_255_2_778
10
3.6081076
20
6.9837891
40
0.2453863
50
71.0560331
51
82.980696
0
ARC
8
DEFAULT_255_2_778
10
3.5867821
20
6.7001452
40
0.5296823
50
84.4407879
51
91.3318515
0
ARC
8
DEFAULT_255_2_778
10
3.575081
20
6.9888742
40
0.2408109
50
90.1452274
51
179.878616
0
ARC
8
DEFAULT_255_2_778
10
3.5749953
20
6.9899091
40
0.2407253
50
180.1248909
51
269.8751141
0
ARC
8
DEFAULT_255_2_778
10
3.5759009
20
7.0020683
40
0.252888
50
269.6759442
51
357.1250531
0
ARC
8
DEFAULT_255_2_778
10
6.0565341
20
4.7925374
40
3.1289621
50
119.809514
51
135.4041998
0
ARC
8
DEFAULT_255_2_778
10
3.1206253
20
-5.9636515
40
13.8553849
50
72.972657
51
82.1375797
0
ARC
8
DEFAULT_255_2_778
10
8.0481802
20
4.0590579
40
3.340684
50
105.1008222
51
108.2254714
0
ARC
8
DEFAULT_255_2_778
10
8.804573
20
1.7367686
40
5.783044
50
108.1475412
51
110.622803
0
ARC
8
DEFAULT_255_2_778
10
9.4276203
20
0.0705165
40
7.5619686
50
110.5943478
51
113.2848911
0
ARC
8
DEFAULT_255_2_778
10
9.594578
20
-0.3272807
40
7.9933655
50
113.2569975
51
114.9420028
0
ARC
8
DEFAULT_255_2_778
10
9.4649966
20
-0.0527417
40
7.6897869
50
114.9291671
51
116.8755489
0
ARC
8
DEFAULT_255_2_778
10
10.6983204
20
-2.5049856
40
10.4346977
50
116.8292403
51
117.7186587
0
ARC
8
DEFAULT_255_2_778
10
12.1924904
20
-5.3377538
40
13.6373685
50
117.7400684
51
118.9986919
0
ARC
8
DEFAULT_255_2_778
10
14.6449399
20
-9.7636146
40
18.6972846
50
118.9967804
51
120.0481588
0
ARC
8
DEFAULT_255_2_778
10
17.2371562
20
-14.2608735
40
23.8881296
50
120.0288095
51
120.4580316
0
ARC
8
DEFAULT_255_2_778
10
20.0318039
20
-19.0130604
40
29.4011447
50
120.4581699
51
120.7743369
0
ARC
8
DEFAULT_255_2_778
10
4.7839568
20
5.9000396
40
0.4036844
50
59.5611645
51
86.7744672
0
ARC
8
DEFAULT_255_2_778
10
4.8075507
20
5.8664043
40
0.4366809
50
90.1154699
51
179.8845301
0
ARC
8
DEFAULT_255_2_778
10
4.8075507
20
5.8681644
40
0.4366809
50
180.1154699
51
269.8845301
0
ARC
8
DEFAULT_255_2_778
10
4.7997849
20
5.8746209
40
0.44319
50
270.8902213
51
357.266427
0
ARC
8
DEFAULT_255_2_778
10
11.3461062
20
-4.1467869
40
11.7516965
50
107.2702635
51
113.5566729
0
ARC
8
DEFAULT_255_2_778
10
3.5158073
20
-4.9126248
40
12.7496461
50
52.1407403
51
70.0916621
0
ARC
8
DEFAULT_255_2_778
10
14.9065768
20
-14.0472088
40
19.5290302
50
100.5212549
51
100.9225197
0
ARC
8
DEFAULT_255_2_778
10
13.5104136
20
-6.778844
40
12.1277916
50
100.952515
51
101.6987914
0
ARC
8
DEFAULT_255_2_778
10
13.4060488
20
-6.2695034
40
11.60787
50
101.7041241
51
102.5233966
0
ARC
8
DEFAULT_255_2_778
10
13.4452328
20
-6.4435207
40
11.7862437
50
102.5259153
51
103.7656599
0
ARC
8
DEFAULT_255_2_778
10
13.5372846
20
-6.8182689
40
12.172132
50
103.7667705
51
105.2778904
0
ARC
8
DEFAULT_255_2_778
10
13.6397565
20
-7.193086
40
12.5607042
50
105.278282
51
107.1613697
0
ARC
8
DEFAULT_255_2_778
10
13.7231412
20
-7.4638921
40
12.8440574
50
107.1603308
51
109.3178044
0
ARC
8
DEFAULT_255_2_778
10
13.7623734
20
-7.5772769
40
12.9640368
50
109.3156598
51
110.7058678
0
ARC
8
DEFAULT_255_2_778
10
13.6166745
20
-7.6608247
40
12.9917314
50
109.974518
51
111.4955498
0
ARC
8
DEFAULT_255_2_778
10
15.2397208
20
-11.7842337
40
17.4230722
50
111.4929864
51
112.819868
0
ARC
8
DEFAULT_255_2_778
10
17.8159452
20
-17.8889333
40
24.0491007
50
112.8364557
51
114.3025578
0
ARC
8
DEFAULT_255_2_778
10
20.6831198
20
-24.2791599
40
31.0530616
50
114.2715042
51
114.8875717
0
ARC
8
DEFAULT_255_2_778
10
23.132766
20
-29.5590432
40
36.873537
50
114.8878507
51
115.4423854
0
ARC
8
DEFAULT_255_2_778
10
26.1078148
20
-35.8178711
40
43.8034604
50
115.4393886
51
115.8001846
0
ARC
8
DEFAULT_255_2_778
10
30.3414356
20
-44.575182
40
53.5304352
50
115.8003162
51
116.0605424
0
ARC
8
DEFAULT_255_2_778
10
27.3604931
20
-38.4910281
40
46.7552659
50
116.0544437
51
116.0635023
0
ARC
8
DEFAULT_255_2_778
10
6.4915813
20
2.767297
40
0.8107959
50
66.2774833
51
89.7392872
0
ARC
8
DEFAULT_255_2_778
10
6.4914414
20
2.8104259
40
0.767668
50
89.7142022
51
130.4712655
0
ARC
8
DEFAULT_255_2_778
10
6.4951606
20
2.8079165
40
0.7719921
50
130.5603628
51
180.1359747
0
ARC
8
DEFAULT_255_2_778
10
6.4919458
20
2.8029154
40
0.7687817
50
179.7638238
51
264.9821614
0
ARC
8
DEFAULT_255_2_778
10
6.4951057
20
2.8360911
40
0.8021067
50
264.9645897
51
270.0117826
0
ARC
8
DEFAULT_255_2_778
10
6.4990782
20
2.8013299
40
0.767355
50
269.7156997
51
310.8305198
0
ARC
8
DEFAULT_255_2_778
10
6.4950459
20
2.8042831
40
0.7722268
50
310.9136319
51
0.1336472
0
ARC
8
DEFAULT_255_2_778
10
12.0840279
20
-5.8586138
40
9.9135335
50
117.8780602
51
119.069943
0
ARC
8
DEFAULT_255_2_778
10
13.4347382
20
-8.4038286
40
12.7949438
50
117.1139352
51
117.8952235
0
ARC
8
DEFAULT_255_2_778
10
14.7492509
20
-10.9750811
40
15.682725
50
116.0869203
51
117.1072594
0
ARC
8
DEFAULT_255_2_778
10
15.9197128
20
-13.3609624
40
18.340244
50
115.1712505
51
116.0933904
0
ARC
8
DEFAULT_255_2_778
10
16.4932344
20
-14.5777012
40
19.6853753
50
114.2472008
51
115.1757638
0
ARC
8
DEFAULT_255_2_778
10
16.3993058
20
-14.3651617
40
19.4530117
50
113.299783
51
114.2520374
0
ARC
8
DEFAULT_255_2_778
10
15.4155427
20
-12.0610157
40
16.9476558
50
111.5904981
51
113.3263266
0
ARC
8
DEFAULT_255_2_778
10
13.938801
20
-8.3364628
40
12.9410298
50
110.1852755
51
111.5789655
0
ARC
8
DEFAULT_255_2_778
10
12.9743918
20
-5.7217734
40
10.1541543
50
109.1585302
51
110.1685737
0
ARC
8
DEFAULT_255_2_778
10
16.4494833
20
-15.9097263
40
20.9183935
50
102.1188507
51
108.9917441
0
ARC
8
DEFAULT_255_2_778
10
4.0863743
20
-4.1323067
40
11.7812034
50
40.0817745
51
47.4192704
0
ARC
8
DEFAULT_255_2_778
10
-0.8375356
20
-8.3691011
40
18.2767435
50
38.794655
51
40.3052124
0
ARC
8
DEFAULT_255_2_778
10
-6.2559842
20
-12.7389554
40
25.2377149
50
38.0856913
51
38.8196781
0
ARC
8
DEFAULT_255_2_778
10
-13.9733606
20
-18.7875421
40
35.0429836
50
37.5352693
51
38.0863376
0
ARC
8
DEFAULT_255_2_778
10
13.931517
20
2.6517593
40
0.1468705
50
217.4832068
51
239.7080626
0
ARC
8
DEFAULT_255_2_778
10
13.9257713
20
2.6478149
40
0.140598
50
240.9191259
51
265.2005335
0
ARC
8
DEFAULT_255_2_778
10
13.933966
20
2.7117062
40
0.2049703
50
264.4121663
51
270.1130823
0
ARC
8
DEFAULT_255_2_778
10
13.9343299
20
2.7481819
40
0.2414455
50
270.0096503
51
271.5886437
0
ARC
8
DEFAULT_255_2_778
10
13.9337692
20
2.7683991
40
0.2616704
50
271.5886418
51
273.0701627
0
ARC
8
DEFAULT_255_2_778
10
13.9324893
20
2.7922724
40
0.2855781
50
273.0700362
51
274.4509191
0
ARC
8
DEFAULT_255_2_778
10
13.9305194
20
2.81759
40
0.3109722
50
274.4507678
51
275.7410396
0
ARC
8
DEFAULT_255_2_778
10
13.9278842
20
2.8438409
40
0.3373549
50
275.7403667
51
276.9506605
0
ARC
8
DEFAULT_255_2_778
10
13.9241925
20
2.8743905
40
0.3681267
50
276.9456207
51
278.0742963
0
ARC
8
DEFAULT_255_2_778
10
13.9194995
20
2.9077118
40
0.4017769
50
278.069488
51
279.1051642
0
ARC
8
DEFAULT_255_2_778
10
13.9135928
20
2.9447901
40
0.4393227
50
279.1005617
51
280.0485268
0
ARC
8
DEFAULT_255_2_778
10
13.90673
20
2.98357
40
0.4787051
50
280.0474714
51
280.9031542
0
ARC
8
DEFAULT_255_2_778
10
13.898503
20
3.0261529
40
0.5220753
50
280.9057823
51
281.7029468
0
ARC
8
DEFAULT_255_2_778
10
13.8899349
20
3.0674544
40
0.5642562
50
281.7042152
51
282.4029533
0
ARC
8
DEFAULT_255_2_778
10
13.8800099
20
3.1125951
40
0.6104752
50
282.402742
51
283.0579531
0
ARC
8
DEFAULT_255_2_778
10
13.8682003
20
3.1633645
40
0.6626001
50
283.0608608
51
283.6731503
0
ARC
8
DEFAULT_255_2_778
10
13.8573266
20
3.2080593
40
0.7085986
50
283.6731844
51
284.253764
0
ARC
8
DEFAULT_255_2_778
10
13.8421679
20
3.2678913
40
0.7703211
50
284.250818
51
284.7922373
0
ARC
8
DEFAULT_255_2_778
10
13.8284601
20
3.3197847
40
0.8239944
50
284.7925361
51
285.2316099
0
ARC
8
DEFAULT_255_2_778
10
13.8132458
20
3.3757416
40
0.8819829
50
285.2302348
51
285.6451034
0
ARC
8
DEFAULT_255_2_778
10
13.799609
20
3.4246513
40
0.9327581
50
285.6415194
51
286.0381843
0
ARC
8
DEFAULT_255_2_778
10
13.7799016
20
3.4933334
40
1.0042117
50
286.0361908
51
286.4086697
0
ARC
8
DEFAULT_255_2_778
10
13.7578421
20
3.5683882
40
1.0824413
50
286.4065031
51
286.7557789
0
ARC
8
DEFAULT_255_2_778
10
13.7349469
20
3.6442414
40
1.1616744
50
286.7584973
51
287.0873835
0
ARC
8
DEFAULT_255_2_778
10
13.7149171
20
3.7093841
40
1.2298269
50
287.0876049
51
287.4014783
0
ARC
8
DEFAULT_255_2_778
10
13.6932857
20
3.7784184
40
1.3021707
50
287.401286
51
287.7007263
0
ARC
8
DEFAULT_255_2_778
10
13.6605632
20
3.8811305
40
1.4099693
50
287.6984604
51
287.9777534
0
ARC
8
DEFAULT_255_2_778
10
13.6343985
20
3.9615075
40
1.4944975
50
287.9807841
51
288.2468432
0
ARC
8
DEFAULT_255_2_778
10
13.5938868
20
4.084399
40
1.6238944
50
288.2467
51
288.4938906
0
ARC
8
DEFAULT_255_2_778
10
13.5622681
20
4.1787557
40
1.723408
50
288.4957382
51
288.7308269
0
ARC
8
DEFAULT_255_2_778
10
13.5334548
20
4.2636628
40
1.8130708
50
288.7315121
51
288.9570137
0
ARC
8
DEFAULT_255_2_778
10
13.4973235
20
4.3693254
40
1.9247403
50
288.9524342
51
289.1667489
0
ARC
8
DEFAULT_255_2_778
10
13.4376635
20
4.5409383
40
2.1064277
50
289.1670004
51
289.3645398
0
ARC
8
DEFAULT_255_2_778
10
13.4104366
20
4.6188574
40
2.1889667
50
289.3606241
51
289.4881293
0
ARC
8
DEFAULT_255_2_778
10
13.3952638
20
4.6617718
40
2.2344842
50
289.4877908
51
289.6133977
0
ARC
8
DEFAULT_255_2_778
10
13.2989191
20
4.9323083
40
2.5216642
50
289.6121063
51
289.7240221
0
ARC
8
DEFAULT_255_2_778
10
13.3050237
20
4.9149011
40
2.5032179
50
289.72696
51
289.8403128
0
ARC
8
DEFAULT_255_2_778
10
13.2154368
20
5.1631333
40
2.7671214
50
289.8407117
51
289.9438025
0
ARC
8
DEFAULT_255_2_778
10
13.1962639
20
5.2155402
40
2.8229253
50
289.9467889
51
290.0483742
0
ARC
8
DEFAULT_255_2_778
10
13.2072265
20
5.1857414
40
2.791174
50
290.0466729
51
290.149947
0
ARC
8
DEFAULT_255_2_778
10
13.0997357
20
5.4786779
40
3.1032092
50
290.1499751
51
290.2433395
0
ARC
8
DEFAULT_255_2_778
10
13.0408909
20
5.6381378
40
3.2731804
50
290.2439632
51
290.3329246
0
ARC
8
DEFAULT_255_2_778
10
13.0587617
20
5.5897536
40
3.2216013
50
290.333903
51
290.4247367
0
ARC
8
DEFAULT_255_2_778
10
12.8700364
20
6.096407
40
3.762263
50
290.4255017
51
290.5036614
0
ARC
8
DEFAULT_255_2_778
10
12.896884
20
6.0240276
40
3.685065
50
290.5068528
51
290.5870331
0
ARC
8
DEFAULT_255_2_778
10
12.819255
20
6.2305245
40
3.9056715
50
290.5879299
51
290.6639389
0
ARC
8
DEFAULT_255_2_778
10
12.850504
20
6.1482217
40
3.8176363
50
290.6610107
51
290.7391344
0
ARC
8
DEFAULT_255_2_778
10
12.6638508
20
6.6414572
40
4.3450078
50
290.7377766
51
290.8067325
0
ARC
8
DEFAULT_255_2_778
10
12.6360445
20
6.7140807
40
4.4227723
50
290.8092694
51
290.8773183
0
ARC
8
DEFAULT_255_2_778
10
12.4802422
20
7.1229469
40
4.8603178
50
290.8757422
51
290.9379399
0
ARC
8
DEFAULT_255_2_778
10
12.3565332
20
7.4456934
40
5.2059609
50
290.940193
51
290.9985147
0
ARC
8
DEFAULT_255_2_778
10
12.3230623
20
7.5316537
40
5.2982065
50
291.0033238
51
291.0608762
0
ARC
8
DEFAULT_255_2_778
10
12.3916256
20
7.3545405
40
5.108286
50
291.0571087
51
291.1170532
0
ARC
8
DEFAULT_255_2_778
10
12.0715561
20
8.1832466
40
5.9966543
50
291.1171871
51
291.1684636
0
ARC
8
DEFAULT_255_2_778
10
12.0357498
20
8.2752874
40
6.0954144
50
291.1699038
51
291.2205559
0
ARC
8
DEFAULT_255_2_778
10
11.580738
20
9.4463976
40
7.3518121
50
291.2226239
51
291.2647888
0
ARC
8
DEFAULT_255_2_778
10
11.7204518
20
9.0857247
40
6.9650246
50
291.2697825
51
291.3144652
0
ARC
8
DEFAULT_255_2_778
10
11.4896254
20
9.6768748
40
7.5996422
50
291.315692
51
291.3568028
0
ARC
8
DEFAULT_255_2_778
10
11.4466454
20
9.7868746
40
7.7177405
50
291.356576
51
291.3972128
0
ARC
8
DEFAULT_255_2_778
10
11.6044779
20
9.3843628
40
7.2853901
50
291.3963896
51
291.4396001
0
ARC
8
DEFAULT_255_2_778
10
10.9687937
20
11.0029252
40
9.0243088
50
291.4401068
51
291.4751202
0
ARC
8
DEFAULT_255_2_778
10
10.9194048
20
11.1283587
40
9.1591155
50
291.4753663
51
291.50999
0
ARC
8
DEFAULT_255_2_778
10
11.1470402
20
10.5515358
40
8.5390006
50
291.5081003
51
291.5453715
0
ARC
8
DEFAULT_255_2_778
10
9.8102312
20
13.9363951
40
12.1782767
50
291.5470352
51
291.5732604
0
ARC
8
DEFAULT_255_2_778
10
10.2171182
20
12.907377
40
11.0717348
50
291.5731388
51
291.6020849
0
ARC
8
DEFAULT_255_2_778
10
9.6739522
20
14.2782255
40
12.5462701
50
291.6035749
51
291.6292059
0
ARC
8
DEFAULT_255_2_778
10
8.575795
20
17.0451665
40
15.5231662
50
291.6326917
51
291.6534767
0
ARC
8
DEFAULT_255_2_778
10
8.4827596
20
17.2748666
40
15.7709862
50
291.6596983
51
291.6802239
0
ARC
8
DEFAULT_255_2_778
10
9.1576972
20
15.5769258
40
13.9438181
50
291.6805155
51
291.7038056
0
ARC
8
DEFAULT_255_2_778
10
9.0890948
20
15.7495304
40
14.1295562
50
291.703434
51
291.7264909
0
ARC
8
DEFAULT_255_2_778
10
6.4602271
20
22.3473815
40
21.2318506
50
291.7258131
51
291.741205
0
ARC
8
DEFAULT_255_2_778
10
8.9663719
20
16.0632811
40
14.4664475
50
291.7406123
51
291.7632715
0
ARC
8
DEFAULT_255_2_778
10
6.2378387
20
22.9006481
40
21.8281375
50
291.7605032
51
291.7755656
0
ARC
8
DEFAULT_255_2_778
10
6.1219683
20
23.1877171
40
22.137707
50
291.7784329
51
291.7933285
0
ARC
8
DEFAULT_255_2_778
10
-2.2617762
20
44.1534144
40
44.7175131
50
291.7943938
51
291.8017894
0
ARC
8
DEFAULT_255_2_778
10
2.3066835
20
32.7268578
40
32.4115383
50
291.8054838
51
291.8157163
0
ARC
8
DEFAULT_255_2_778
10
-2.8498432
20
45.6007404
40
46.2797254
50
291.8194453
51
291.8266315
0
ARC
8
DEFAULT_255_2_778
10
-3.1004941
20
46.2214962
40
46.9491731
50
291.8289331
51
291.8360363
0
ARC
8
DEFAULT_255_2_778
10
1.8467489
20
33.8724992
40
33.6460554
50
291.8376408
51
291.8475793
0
ARC
8
DEFAULT_255_2_778
10
32.7959744
20
-43.1576973
40
49.3690529
50
111.6859872
51
111.9177269
0
ARC
8
DEFAULT_255_2_778
10
20.5841403
20
-12.4748345
40
16.3453237
50
110.8965306
51
111.6523346
0
ARC
8
DEFAULT_255_2_778
10
19.644253
20
-10.022216
40
13.7187834
50
109.9741894
51
110.8828997
0
ARC
8
DEFAULT_255_2_778
10
19.5654326
20
-9.8084279
40
13.4909307
50
109.0611367
51
109.9697314
0
ARC
8
DEFAULT_255_2_778
10
19.7136905
20
-10.2383774
40
13.945724
50
108.2127686
51
109.0599757
0
ARC
8
DEFAULT_255_2_778
10
19.9998142
20
-11.1116549
40
14.8646793
50
107.0558274
51
108.2083349
0
ARC
8
DEFAULT_255_2_778
10
20.4365383
20
-12.537393
40
16.3558054
50
105.8263368
51
107.0535256
0
ARC
8
DEFAULT_255_2_778
10
20.9023969
20
-14.1763385
40
18.0596731
50
104.8735882
51
105.830213
0
ARC
8
DEFAULT_255_2_778
10
21.3866612
20
-16.0026195
40
19.9490681
50
103.8100759
51
104.8714505
0
ARC
8
DEFAULT_255_2_778
10
21.8878696
20
-18.0369777
40
22.0442583
50
102.9459435
51
103.8129602
0
ARC
8
DEFAULT_255_2_778
10
22.3697979
20
-20.1334735
40
24.1954322
50
102.0984946
51
102.9459367
0
ARC
8
DEFAULT_255_2_778
10
22.7264069
20
-21.7856737
40
25.8856778
50
101.7339172
51
102.1038042
0
ARC
8
DEFAULT_255_2_778
10
22.9397789
20
-22.8125975
40
26.9345341
50
101.4141838
51
101.7340677
0
ARC
8
DEFAULT_255_2_778
10
23.167053
20
-23.9400383
40
28.0846543
50
100.9986307
51
101.4134874
0
ARC
8
DEFAULT_255_2_778
10
23.4276075
20
-25.2801889
40
29.4498986
50
100.6113793
51
100.9988003
0
ARC
8
DEFAULT_255_2_778
10
23.6652271
20
-26.5475112
40
30.7393051
50
100.2703785
51
100.6117203
0
ARC
8
DEFAULT_255_2_778
10
23.9096232
20
-27.897082
40
32.1108263
50
99.8916123
51
100.2701296
0
ARC
8
DEFAULT_255_2_778
10
24.1461531
20
-29.252156
40
33.4863886
50
99.5809432
51
99.8920101
0
ARC
8
DEFAULT_255_2_778
10
24.3608308
20
-30.5234939
40
34.7757244
50
99.2739067
51
99.5810763
0
ARC
8
DEFAULT_255_2_778
10
27.0623439
20
-48.3666888
40
52.8214701
50
92.5668106
51
99.0468697
0
ARC
8
DEFAULT_255_2_778
10
25.6389236
20
4.884038
40
1.0584048
50
207.1062434
51
268.2633005
0
ARC
8
DEFAULT_255_2_778
10
25.6507205
20
4.9783245
40
1.1530401
50
267.8193566
51
270.0024911
0
ARC
8
DEFAULT_255_2_778
10
25.6524095
20
4.888343
40
1.0630599
50
269.9116718
51
309.2336338
0
ARC
8
DEFAULT_255_2_778
10
25.6529021
20
4.8915621
40
1.0652444
50
309.1035962
51
356.7092996
0
ARC
8
DEFAULT_255_2_778
10
25.6340612
20
4.8925243
40
1.0841096
50
356.7156913
51
0.0031763
0
ARC
8
DEFAULT_255_2_778
10
25.655354
20
4.8942199
40
1.0628179
50
359.9118283
51
39.2417127
0
ARC
8
DEFAULT_255_2_778
10
25.6518117
20
4.8944247
40
1.0654346
50
39.1126786
51
86.7108807
0
ARC
8
DEFAULT_255_2_778
10
25.6508338
20
4.8755027
40
1.0843816
50
86.7166602
51
90.003339
0
LINE
8
DEFAULT_255_2_778
10
11.3815706
20
6.8417844
11
12.6753706
21
7.1094844
0
LINE
8
DEFAULT_255_2_778
10
12.2152706
20
7.6862844
11
10.3345706
21
7.3084844
0
LINE
8
DEFAULT_255_2_778
10
7.6234706
20
8.0360844
11
8.4229706
21
8.3038844
0
LINE
8
DEFAULT_255_2_778
10
4.9672706
20
8.2074844
11
5.5988706
21
8.4133844
0
LINE
8
DEFAULT_255_2_778
10
7.8467706
20
9.0549844
11
5.5302706
21
8.5644844
0
LINE
8
DEFAULT_255_2_778
10
4.4767706
20
8.1696844
11
3.1281706
21
8.0151844
0
LINE
8
DEFAULT_255_2_778
10
3.1281706
20
8.0151844
11
3.6430706
21
8.2553844
0
LINE
8
DEFAULT_255_2_778
10
2.6817706
20
7.9222844
11
2.7092706
21
7.8537844
0
LINE
8
DEFAULT_255_2_778
10
3.3408706
20
7.8812844
11
3.1863706
21
7.7955844
0
LINE
8
DEFAULT_255_2_778
10
3.1863706
20
7.7955844
11
2.8087706
21
7.5415844
0
LINE
8
DEFAULT_255_2_778
10
2.8878706
20
7.4042844
11
2.8878706
21
7.4489844
0
LINE
8
DEFAULT_255_2_778
10
2.8878706
20
7.4489844
11
3.2826706
21
7.7304844
0
LINE
8
DEFAULT_255_2_778
10
4.5010706
20
7.5074844
11
5.0159706
21
7.7614844
0
LINE
8
DEFAULT_255_2_778
10
5.2424706
20
5.8534844
11
6.6494706
21
6.6255844
0
LINE
8
DEFAULT_255_2_778
10
25.6507706
20
5.9598844
11
25.6777706
21
5.9564844
0
ARC
8
DEFAULT_255_2_778
10
1.9885635
20
1.3894696
40
1.2158199
50
271.1508388
51
276.2147643
0
ARC
8
DEFAULT_255_2_778
10
2.2684561
20
-1.3533446
40
1.5412882
50
91.441842
51
95.5204438
0
ARC
8
DEFAULT_255_2_778
10
2.2532153
20
-0.9689347
40
1.1566297
50
90.0016115
51
91.1662493
0
ARC
8
DEFAULT_255_2_778
10
2.2544551
20
-1.1902776
40
1.3779732
50
87.5430181
51
90.0529056
0
ARC
8
DEFAULT_255_2_778
10
2.3214858
20
-0.3940235
40
0.5805069
50
57.8400183
51
90.7854734
0
ARC
8
DEFAULT_255_2_778
10
2.4522988
20
-0.1447408
40
0.3006451
50
10.8646837
51
53.6535755
0
ARC
8
DEFAULT_255_2_778
10
2.2805383
20
-0.186407
40
0.4772571
50
359.5800543
51
11.8904873
0
ARC
8
DEFAULT_255_2_778
10
2.3675475
20
-0.1995654
40
0.3903548
50
329.5521409
51
1.418087
0
ARC
8
DEFAULT_255_2_778
10
2.3242898
20
-0.1352215
40
0.4614747
50
279.8650848
51
325.3830527
0
ARC
8
DEFAULT_255_2_778
10
2.1759563
20
0.4129155
40
1.028248
50
269.5778856
51
282.7766083
0
LINE
8
DEFAULT_255_2_778
10
2.1683809
20
-0.6153047
11
2.1674827
21
-0.615305
0
ARC
8
DEFAULT_255_2_778
10
1.9468018
20
-3.666023
40
1.928477
50
89.4960857
51
96.8233295
0
ARC
8
DEFAULT_255_2_778
10
2.0434774
20
-15.7717054
40
14.0343112
50
89.9289419
51
90.3254422
0
ARC
8
DEFAULT_255_2_778
10
2.3563538
20
-0.4752687
40
1.2759364
50
269.9878277
51
276.2959842
0
ARC
8
DEFAULT_255_2_778
10
2.4291167
20
-0.8693032
40
0.8767824
50
274.3932088
51
307.6652966
0
ARC
8
DEFAULT_255_2_778
10
2.648438
20
-1.1824721
40
0.4951823
50
309.7192652
51
351.4225859
0
ARC
8
DEFAULT_255_2_778
10
2.537609
20
-1.1623923
40
0.6077756
50
351.1090751
51
0.1402088
0
ARC
8
DEFAULT_255_2_778
10
2.6040856
20
-1.1489447
40
0.5414293
50
358.734215
51
23.1203596
0
ARC
8
DEFAULT_255_2_778
10
2.7063664
20
-1.1244252
40
0.4380896
50
25.4243604
51
74.1061284
0
ARC
8
DEFAULT_255_2_778
10
2.5332763
20
-1.6140713
40
0.9569667
50
72.1670769
51
87.1243588
0
ARC
8
DEFAULT_255_2_778
10
2.4902066
20
-2.0758451
40
1.4204585
50
86.3237006
51
87.9393428
0
ARC
8
DEFAULT_255_2_778
10
2.3611076
20
0.3104585
40
0.9834097
50
280.5570641
51
294.7310083
0
ARC
8
DEFAULT_255_2_778
10
2.568709
20
-0.122816
40
0.5030755
50
293.899976
51
325.4433407
0
ARC
8
DEFAULT_255_2_778
10
2.5820643
20
-0.1548119
40
0.4742995
50
327.7120137
51
1.5835321
0
ARC
8
DEFAULT_255_2_778
10
2.644376
20
-0.1311889
40
0.411941
50
358.5371801
51
27.900223
0
ARC
8
DEFAULT_255_2_778
10
2.6456755
20
-0.1612822
40
0.4257443
50
31.5637055
51
76.741697
0
ARC
8
DEFAULT_255_2_778
10
2.4399211
20
-0.8529003
40
1.1468726
50
74.6603002
51
90.3109664
0
ARC
8
DEFAULT_255_2_778
10
2.4112543
20
-1.5099045
40
1.8039995
50
89.2872031
51
90.002271
0
ARC
8
DEFAULT_255_2_778
10
2.0297892
20
5.8327029
40
5.5558779
50
268.5788294
51
270.2876578
0
ARC
8
DEFAULT_255_2_778
10
1.9392259
20
2.1594321
40
1.8814909
50
263.3512572
51
268.5615495
0
ARC
8
DEFAULT_255_2_778
10
2.1553828
20
-2.5591901
40
1.8341825
50
82.3456143
51
90.5904047
0
ARC
8
DEFAULT_255_2_778
10
2.3134604
20
-1.442601
40
0.7065319
50
64.6568979
51
82.9897267
0
ARC
8
DEFAULT_255_2_778
10
2.472731
20
-1.1057725
40
0.3339457
50
2.9095914
51
64.6169457
0
ARC
8
DEFAULT_255_2_778
10
2.2322527
20
-1.1459678
40
0.5768313
50
359.8870393
51
5.6855912
0
ARC
8
DEFAULT_255_2_778
10
2.2199252
20
-1.1568534
40
0.5892381
50
338.6766397
51
0.9479473
0
ARC
8
DEFAULT_255_2_778
10
2.3515254
20
-1.1914515
40
0.4543347
50
266.233856
51
336.7058896
0
ARC
8
DEFAULT_255_2_778
10
2.307645
20
9.4412978
40
11.0861117
50
269.6391313
51
270.0725507
0
ARC
8
DEFAULT_255_2_778
10
2.2329201
20
0.7414588
40
2.3860579
50
263.88104
51
270.1176915
0
ARC
8
DEFAULT_255_2_778
10
4.5908667
20
-1.9866827
40
0.2453764
50
97.0259111
51
108.9499268
0
ARC
8
DEFAULT_255_2_778
10
4.6120785
20
-2.2694729
40
0.528811
50
88.6667362
51
95.5589453
0
ARC
8
DEFAULT_255_2_778
10
4.6355417
20
-2.3057551
40
0.5650603
50
85.3491162
51
91.1315611
0
ARC
8
DEFAULT_255_2_778
10
4.6516532
20
-2.0190728
40
0.2781085
50
71.9806574
51
83.8683161
0
ARC
8
DEFAULT_255_2_778
10
5.3485118
20
-4.4381591
40
3.4837
50
88.9856555
51
95.2015243
0
ARC
8
DEFAULT_255_2_778
10
6.2356487
20
-2.1255355
40
0.3786927
50
99.4121811
51
103.9457346
0
ARC
8
DEFAULT_255_2_778
10
6.2822389
20
-2.5008683
40
0.7567487
50
88.732167
51
98.2448019
0
ARC
8
DEFAULT_255_2_778
10
6.3212258
20
-2.5421977
40
0.7982027
50
90.4728188
51
91.5968377
0
ARC
8
DEFAULT_255_2_778
10
6.3212281
20
-2.5421306
40
0.7981355
50
90.0000146
51
90.4730217
0
ARC
8
DEFAULT_255_2_778
10
6.3211513
20
-2.5457896
40
0.8017945
50
79.2734585
51
89.9945259
0
ARC
8
DEFAULT_255_2_778
10
8.7584735
20
-0.4985189
40
2.6118316
50
206.6543275
51
208.8307103
0
ARC
8
DEFAULT_255_2_778
10
11.6548
20
0.9663186
40
5.8575077
50
205.6806872
51
206.7507414
0
ARC
8
DEFAULT_255_2_778
10
16.5657249
20
3.3278004
40
11.3067077
50
204.8131981
51
205.680923
0
ARC
8
DEFAULT_255_2_778
10
25.20703
20
7.3284375
40
20.8291675
50
204.2355847
51
204.8266255
0
ARC
8
DEFAULT_255_2_778
10
40.1671378
20
14.0623567
40
37.2349742
50
203.7477397
51
204.2347556
0
ARC
8
DEFAULT_255_2_778
10
69.2464361
20
26.8569121
40
69.0045545
50
203.3829875
51
203.7482924
0
ARC
8
DEFAULT_255_2_778
10
98.2310126
20
39.423766
40
100.5961804
50
203.3596314
51
203.4009316
0
ARC
8
DEFAULT_255_2_778
10
146.0214412
20
60.0326034
40
152.64086
50
203.1841431
51
203.348617
0
ARC
8
DEFAULT_255_2_778
10
372.3678225
20
157.0319084
40
398.8959073
50
203.1614078
51
203.1922321
0
ARC
8
DEFAULT_255_2_778
10
-1011.2306343
20
-434.8672222
40
1105.9925505
50
23.1609739
51
23.1713709
0
ARC
8
DEFAULT_255_2_778
10
9.2293917
20
-1.1059651
40
0.6219993
50
298.0150568
51
302.4225996
0
ARC
8
DEFAULT_255_2_778
10
9.0515555
20
-0.7754985
40
0.9972752
50
294.3280982
51
298.1171385
0
ARC
8
DEFAULT_255_2_778
10
8.9638144
20
-0.5850482
40
1.2069606
50
292.1900437
51
294.3989081
0
ARC
8
DEFAULT_255_2_778
10
8.9089804
20
-0.4476057
40
1.3549339
50
285.3595817
51
292.1419829
0
ARC
8
DEFAULT_255_2_778
10
8.9067687
20
-0.4465005
40
1.3565867
50
275.9526746
51
285.437295
0
ARC
8
DEFAULT_255_2_778
10
8.9171513
20
-0.5381862
40
1.2643188
50
270.0286167
51
275.9155984
0
ARC
8
DEFAULT_255_2_778
10
8.9063437
20
-0.4492845
40
1.3532688
50
251.3471128
51
270.4843222
0
ARC
8
DEFAULT_255_2_778
10
8.7694534
20
-0.813122
40
0.9648526
50
194.5856413
51
252.1388482
0
ARC
8
DEFAULT_255_2_778
10
9.0177254
20
-0.7458603
40
1.2220641
50
179.6598353
51
194.7062475
0
ARC
8
DEFAULT_255_2_778
10
8.9726092
20
-0.7287002
40
1.1769682
50
162.7595934
51
180.4821813
0
ARC
8
DEFAULT_255_2_778
10
8.7609355
20
-0.6727101
40
0.9582553
50
105.9098662
51
162.2058064
0
ARC
8
DEFAULT_255_2_778
10
8.9321767
20
-1.1455209
40
1.4603173
50
90.5408548
51
107.2860726
0
ARC
8
DEFAULT_255_2_778
10
8.9487399
20
-1.432094
40
1.747089
50
89.9985962
51
90.995311
0
ARC
8
DEFAULT_255_2_778
10
8.9505452
20
-1.5958068
40
1.9108026
50
78.8183723
51
90.0528487
0
ARC
8
DEFAULT_255_2_778
10
9.0175426
20
-1.2742948
40
1.5824053
50
69.1598319
51
78.9406832
0
ARC
8
DEFAULT_255_2_778
10
9.1332595
20
-0.9532919
40
1.2412505
50
66.8480675
51
68.8803618
0
ARC
8
DEFAULT_255_2_778
10
10.0369429
20
-0.0064293
40
0.4588836
50
154.9322344
51
165.0473243
0
ARC
8
DEFAULT_255_2_778
10
10.3866159
20
-0.1114254
40
0.823884
50
164.2671769
51
168.2497221
0
ARC
8
DEFAULT_255_2_778
10
10.1716274
20
-0.0730921
40
0.6056265
50
167.658273
51
177.209901
0
ARC
8
DEFAULT_255_2_778
10
9.8538413
20
-0.0524513
40
0.2872586
50
178.2366267
51
179.9708123
0
ARC
8
DEFAULT_255_2_778
10
8.9160197
20
-0.640977
40
0.8570984
50
43.3788786
51
87.8093032
0
ARC
8
DEFAULT_255_2_778
10
8.9304184
20
-0.6953061
40
0.9109863
50
88.8449131
51
118.1248666
0
ARC
8
DEFAULT_255_2_778
10
8.8611992
20
-0.533195
40
0.7355479
50
119.3223855
51
154.9344313
0
ARC
8
DEFAULT_255_2_778
10
9.1190618
20
-0.6575766
40
1.0218265
50
154.7424982
51
171.3050047
0
ARC
8
DEFAULT_255_2_778
10
9.5592101
20
-0.7323613
40
1.4682405
50
171.0167764
51
180.2436511
0
ARC
8
DEFAULT_255_2_778
10
9.6026558
20
-0.7495076
40
1.5117124
50
179.5867753
51
190.843829
0
ARC
8
DEFAULT_255_2_778
10
9.0587628
20
-0.8574159
40
0.9572371
50
190.6249135
51
208.35755
0
ARC
8
DEFAULT_255_2_778
10
8.8538239
20
-0.9546283
40
0.7308126
50
209.2821882
51
265.1903367
0
ARC
8
DEFAULT_255_2_778
10
8.9458101
20
-0.4943864
40
1.1983223
50
262.6519134
51
270.1421317
0
ARC
8
DEFAULT_255_2_778
10
8.9058741
20
-0.630012
40
1.0635589
50
272.312194
51
309.3536869
0
ARC
8
DEFAULT_255_2_778
10
11.3251053
20
0.6588721
40
0.3762773
50
255.9854295
51
260.100205
0
ARC
8
DEFAULT_255_2_778
10
11.3713853
20
1.0169371
40
0.7371404
50
261.3415754
51
271.3290522
0
ARC
8
DEFAULT_255_2_778
10
11.4021576
20
1.1831961
40
0.9033046
50
269.1325853
51
275.5624334
0
ARC
8
DEFAULT_255_2_778
10
11.451078
20
0.6492556
40
0.3671493
50
276.0407403
51
284.4964294
0
ARC
8
DEFAULT_255_2_778
10
11.5493777
20
-0.5921623
40
0.0667834
50
239.5001706
51
265.8370181
0
ARC
8
DEFAULT_255_2_778
10
11.5445579
20
-0.6267599
40
0.0320097
50
269.9494296
51
280.1282483
0
ARC
8
DEFAULT_255_2_778
10
11.5325393
20
-0.595415
40
0.0652862
50
285.682811
51
320.2463582
0
ARC
8
DEFAULT_255_2_778
10
11.4298487
20
-0.4840501
40
0.2163728
50
314.9565683
51
315.4267566
0
ARC
8
DEFAULT_255_2_778
10
3.8547155
20
8.0207957
40
11.605173
50
311.7605584
51
318.2332637
0
ARC
8
DEFAULT_255_2_778
10
12.5918842
20
0.5470824
40
0.2690645
50
252.4124078
51
266.2065054
0
ARC
8
DEFAULT_255_2_778
10
12.6272643
20
1.072484
40
0.7956558
50
266.1675015
51
270.7430628
0
ARC
8
DEFAULT_255_2_778
10
12.6463724
20
1.4852933
40
1.2084302
50
269.5832485
51
272.4461658
0
ARC
8
DEFAULT_255_2_778
10
12.6946549
20
0.5386484
40
0.2607049
50
270.72398
51
287.9227497
0
ARC
8
DEFAULT_255_2_778
10
12.7128248
20
-2.2411643
40
0.4955135
50
77.1789367
51
87.7958072
0
ARC
8
DEFAULT_255_2_778
10
12.6546485
20
-3.4323732
40
1.6881235
50
87.377716
51
90.4638292
0
ARC
8
DEFAULT_255_2_778
10
12.6138084
20
-2.4865277
40
0.74272
50
87.903215
51
101.2207536
0
ARC
8
DEFAULT_255_2_778
10
11.4313863
20
-2.2125505
40
0.4712759
50
76.3399932
51
88.9104587
0
ARC
8
DEFAULT_255_2_778
10
11.3970182
20
-3.3621376
40
1.6213567
50
88.4686374
51
90.3122298
0
ARC
8
DEFAULT_255_2_778
10
11.3752873
20
-2.8939044
40
1.1531715
50
89.3592736
51
93.1991455
0
ARC
8
DEFAULT_255_2_778
10
11.3338447
20
-2.1422517
40
0.4003778
50
93.2805973
51
104.4874964
0
ARC
8
DEFAULT_255_2_778
10
14.9461096
20
-1.1632691
40
1.344203
50
81.8492397
51
90.8238228
0
ARC
8
DEFAULT_255_2_778
10
15.0884767
20
-0.2394342
40
0.4096367
50
55.6746805
51
83.240975
0
ARC
8
DEFAULT_255_2_778
10
15.1419947
20
-0.1294054
40
0.2891426
50
10.2898129
51
52.1360301
0
ARC
8
DEFAULT_255_2_778
10
14.7558027
20
-0.2211841
40
0.685849
50
359.1878918
51
12.071017
0
ARC
8
DEFAULT_255_2_778
10
14.8355903
20
-0.2385404
40
0.6060405
50
343.3642075
51
0.7218818
0
ARC
8
DEFAULT_255_2_778
10
15.0232935
20
-0.2948425
40
0.4100754
50
310.1626229
51
343.3933495
0
ARC
8
DEFAULT_255_2_778
10
14.9368135
20
-0.1609459
40
0.568539
50
276.6633061
51
308.1195926
0
ARC
8
DEFAULT_255_2_778
10
14.8674592
20
0.2072986
40
0.9427065
50
269.8555655
51
278.2532623
0
ARC
8
DEFAULT_255_2_778
10
14.8757956
20
0.1330936
40
0.8685647
50
261.911257
51
269.2932956
0
ARC
8
DEFAULT_255_2_778
10
14.9878546
20
0.9913477
40
1.7340755
50
258.4982207
51
262.2356569
0
ARC
8
DEFAULT_255_2_778
10
14.4750889
20
-2.2202419
40
0.4754727
50
91.0857971
51
103.5507213
0
ARC
8
DEFAULT_255_2_778
10
14.5093579
20
-3.3771768
40
1.6328958
50
89.6903491
51
91.5187728
0
ARC
8
DEFAULT_255_2_778
10
14.5310792
20
-2.9077076
40
1.1634741
50
86.8267994
51
90.6351062
0
ARC
8
DEFAULT_255_2_778
10
14.5726217
20
-2.1486552
40
0.4032862
50
75.6193809
51
86.7503314
0
ARC
8
DEFAULT_255_2_778
10
14.8982311
20
0.5195093
40
1.3510146
50
270.0403593
51
274.7025845
0
ARC
8
DEFAULT_255_2_778
10
14.9041748
20
0.4730216
40
1.3041979
50
274.6097784
51
281.9766066
0
ARC
8
DEFAULT_255_2_778
10
14.933508
20
0.3248739
40
1.1531898
50
282.0783485
51
284.0911504
0
ARC
8
DEFAULT_255_2_778
10
15.0902398
20
-0.1351464
40
0.6700487
50
280.6672882
51
327.3739908
0
ARC
8
DEFAULT_255_2_778
10
15.1836718
20
-0.2368306
40
0.537694
50
331.1344742
51
353.8138919
0
ARC
8
DEFAULT_255_2_778
10
15.0337236
20
-0.2148616
40
0.68916
50
353.3414207
51
0.0961619
0
ARC
8
DEFAULT_255_2_778
10
15.1354045
20
-0.2081243
40
0.5875048
50
359.4557439
51
14.62817
0
ARC
8
DEFAULT_255_2_778
10
15.3028753
20
-0.1641039
40
0.4143455
50
14.5867453
51
39.8235745
0
ARC
8
DEFAULT_255_2_778
10
15.2396931
20
-0.2432685
40
0.5139721
50
42.0912123
51
77.2367721
0
ARC
8
DEFAULT_255_2_778
10
15.1113125
20
-0.6795748
40
0.9682888
50
75.53126
51
85.0798538
0
ARC
8
DEFAULT_255_2_778
10
15.069938
20
-1.1035728
40
1.3942814
50
84.8802681
51
88.8719269
0
ARC
8
DEFAULT_255_2_778
10
15.0529723
20
-1.8616509
40
2.1525477
50
88.8176818
51
90.0715888
0
ARC
8
DEFAULT_255_2_778
10
14.624643
20
3.7373709
40
3.4604142
50
267.5603344
51
270.5122914
0
ARC
8
DEFAULT_255_2_778
10
14.5431627
20
1.6296974
40
1.3512084
50
262.2299621
51
267.2078943
0
ARC
8
DEFAULT_255_2_778
10
17.4087122
20
0.5560368
40
0.2772725
50
253.2024039
51
265.9302491
0
ARC
8
DEFAULT_255_2_778
10
17.4563227
20
1.1414517
40
0.8646107
50
265.5364148
51
270.6401651
0
ARC
8
DEFAULT_255_2_778
10
17.4745917
20
1.3629001
40
1.0860392
50
269.5458173
51
273.6208373
0
ARC
8
DEFAULT_255_2_778
10
17.5003002
20
0.8941511
40
0.616615
50
273.9874945
51
276.0673474
0
ARC
8
DEFAULT_255_2_778
10
17.5290633
20
0.6518441
40
0.3726371
50
275.6074944
51
284.2014021
0
ARC
8
DEFAULT_255_2_778
10
18.709753
20
-1.649598
40
0.2483751
50
161.0902365
51
177.5514171
0
ARC
8
DEFAULT_255_2_778
10
19.1448143
20
-1.6663186
40
0.683756
50
177.709103
51
180.4848832
0
ARC
8
DEFAULT_255_2_778
10
18.7554083
20
-1.6819625
40
0.2944906
50
178.0817777
51
187.910393
0
ARC
8
DEFAULT_255_2_778
10
18.606779
20
-1.6970653
40
0.1453009
50
190.0780613
51
204.7100816
0
ARC
8
DEFAULT_255_2_778
10
19.9681285
20
-1.991697
40
0.2468915
50
96.9736417
51
108.8198806
0
ARC
8
DEFAULT_255_2_778
10
19.9893768
20
-2.2767718
40
0.5326089
50
88.6760611
51
95.5189981
0
ARC
8
DEFAULT_255_2_778
10
20.0127883
20
-2.3148187
40
0.5706218
50
85.4220405
51
91.1151727
0
ARC
8
DEFAULT_255_2_778
10
20.0286027
20
-2.0263628
40
0.2819173
50
72.1574762
51
83.9465321
0
ARC
8
DEFAULT_255_2_778
10
26.0972783
20
-3.654602
40
6.2757422
50
154.6958671
51
162.4095629
0
ARC
8
DEFAULT_255_2_778
10
20.6721628
20
-3.3487377
40
2.3894874
50
90.937251
51
95.9689142
0
ARC
8
DEFAULT_255_2_778
10
20.7611429
20
-8.3332537
40
7.3747958
50
89.7953618
51
90.9950107
0
ARC
8
DEFAULT_255_2_778
10
21.663717
20
-2.4530511
40
0.7059613
50
87.6078691
51
101.5984303
0
ARC
8
DEFAULT_255_2_778
10
21.7123708
20
-2.5970158
40
0.8495275
50
84.289355
51
91.2942325
0
ARC
8
DEFAULT_255_2_778
10
21.7527774
20
-2.1167853
40
0.3677378
50
75.0439075
51
83.1084136
0
ARC
8
DEFAULT_255_2_778
10
25.2318586
20
-0.3334615
40
1.6197718
50
173.5678829
51
178.110818
0
ARC
8
DEFAULT_255_2_778
10
29.2797369
20
-0.4877209
40
5.6705734
50
177.9013478
51
179.6314636
0
ARC
8
DEFAULT_255_2_778
10
42.5998594
20
-0.6160889
40
18.9912939
50
179.5026742
51
179.9233004
0
ARC
8
DEFAULT_255_2_778
10
110.1751242
20
-0.7255016
40
86.5666467
50
179.9107564
51
180.0202555
0
ARC
8
DEFAULT_255_2_778
10
23.5565106
20
-1.9822478
40
0.2443289
50
71.0182407
51
82.9316948
0
ARC
8
DEFAULT_255_2_778
10
23.5351335
20
-2.2645276
40
0.5272673
50
84.4010804
51
91.3422236
0
ARC
8
DEFAULT_255_2_778
10
23.5116785
20
-2.3024887
40
0.5651928
50
88.8742517
51
94.6170807
0
ARC
8
DEFAULT_255_2_778
10
23.4960088
20
-2.017626
40
0.2800886
50
96.1129017
51
107.9728859
0
ARC
8
DEFAULT_255_2_778
10
25.1326216
20
0.5335617
40
0.2458543
50
251.1486849
51
262.9836002
0
ARC
8
DEFAULT_255_2_778
10
25.1540308
20
0.8181204
40
0.5310691
50
264.4414167
51
271.3327413
0
ARC
8
DEFAULT_255_2_778
10
25.1768675
20
0.7302634
40
0.4431924
50
268.6444143
51
274.8807349
0
ARC
8
DEFAULT_255_2_778
10
25.1784586
20
0.5716218
40
0.2852395
50
277.274207
51
286.6756861
0
ARC
8
DEFAULT_255_2_778
10
24.9732729
20
1.3389505
40
1.0794355
50
285.4212371
51
285.9159256
0
ARC
8
DEFAULT_255_2_778
10
27.8738797
20
0.3092725
40
0.2885184
50
347.1146295
51
356.9249137
0
ARC
8
DEFAULT_255_2_778
10
28.9221813
20
0.0964644
40
0.7812849
50
169.0454294
51
170.4411696
0
ARC
8
DEFAULT_255_2_778
10
28.3687416
20
0.1871081
40
0.2204914
50
169.7865351
51
179.0159097
0
ARC
8
DEFAULT_255_2_778
10
28.3165389
20
0.1942593
40
0.1682897
50
181.1454893
51
196.4440649
0
ARC
8
DEFAULT_255_2_778
10
26.8319865
20
-0.1958877
40
1.366758
50
14.2359784
51
14.5129407
0
ARC
8
DEFAULT_255_2_778
10
28.02338
20
0.1024785
40
0.1386293
50
1.1228025
51
15.7980731
0
ARC
8
DEFAULT_255_2_778
10
27.9136331
20
-0.5902635
40
0.1797342
50
343.9170651
51
357.4037651
0
ARC
8
DEFAULT_255_2_778
10
28.2656408
20
-0.6904959
40
0.1862678
50
164.2882452
51
178.0337712
0
ARC
8
DEFAULT_255_2_778
10
28.3547736
20
-0.6719372
40
0.2755597
50
182.5308107
51
193.0518287
0
ARC
8
DEFAULT_255_2_778
10
27.3362722
20
-0.8830025
40
0.7646847
50
9.7977983
51
11.2234487
0
ARC
8
DEFAULT_255_2_778
10
27.8863078
20
-0.7902539
40
0.2069003
50
0.8997459
51
10.4083378
0
ARC
8
DEFAULT_255_2_778
10
27.8389367
20
-2.7617376
40
1.9910323
50
82.6635491
51
85.8276675
0
ARC
8
DEFAULT_255_2_778
10
27.6298188
20
-5.6144964
40
4.8514453
50
85.8157798
51
88.1296731
0
ARC
8
DEFAULT_255_2_778
10
27.5226073
20
-8.3245687
40
7.5635961
50
87.9879844
51
88.2093119
0
ARC
8
DEFAULT_255_2_778
10
27.4360531
20
-11.4930859
40
10.733278
50
88.276033
51
89.5224081
0
ARC
8
DEFAULT_255_2_778
10
27.3827514
20
-16.4897815
40
15.7302485
50
89.4799736
51
89.846435
0
ARC
8
DEFAULT_255_2_778
10
27.3579943
20
-26.7125144
40
25.9530112
50
89.8522679
51
90.0205569
0
ARC
8
DEFAULT_255_2_778
10
27.9701868
20
-0.8786225
40
0.6328162
50
169.150262
51
178.6383556
0
ARC
8
DEFAULT_255_2_778
10
30.5700577
20
-0.9835213
40
3.2347327
50
177.8751178
51
179.7441551
0
ARC
8
DEFAULT_255_2_778
10
41.96344
20
-1.0800728
40
14.6285038
50
179.565257
51
179.9485276
0
ARC
8
DEFAULT_255_2_778
10
111.9692698
20
-1.1702792
40
84.6343908
50
179.9300354
51
180.0169419
0
ARC
8
DEFAULT_255_2_778
10
27.3724089
20
31.6399826
40
33.2709961
50
269.9591414
51
270.2206247
0
ARC
8
DEFAULT_255_2_778
10
27.4529253
20
10.7579252
40
12.3887836
50
270.2201299
51
270.9652551
0
ARC
8
DEFAULT_255_2_778
10
27.5926421
20
3.6872133
40
5.3167611
50
270.7434402
51
274.0470896
0
ARC
8
DEFAULT_255_2_778
10
27.831999
20
0.294772
40
1.9158865
50
274.0670083
51
278.8809765
0
ARC
8
DEFAULT_255_2_778
10
27.976724
20
-0.6691812
40
0.9411649
50
279.2357359
51
281.9925036
0
ARC
8
DEFAULT_255_2_778
10
27.7158971
20
-9.0533026
40
7.2960856
50
86.4136857
51
90.7273149
0
LINE
8
DEFAULT_255_2_778
10
1.9991827
20
-0.615305
11
1.9991827
21
-0.388805
0
LINE
8
DEFAULT_255_2_778
10
1.9991827
20
-0.388805
11
2.0129827
21
0.173895
0
LINE
8
DEFAULT_255_2_778
10
2.1674827
20
-0.615305
11
1.9991827
21
-0.615305
0
LINE
8
DEFAULT_255_2_778
10
1.7451827
20
-0.979105
11
1.7176827
21
-1.751205
0
LINE
8
DEFAULT_255_2_778
10
2.0608827
20
-1.737405
11
2.3560827
21
-1.751205
0
LINE
8
DEFAULT_255_2_778
10
2.4111827
20
0.294095
11
2.0576827
21
0.276895
0
LINE
8
DEFAULT_255_2_778
10
1.7213827
20
0.290595
11
1.7488827
21
-0.481405
0
LINE
8
DEFAULT_255_2_778
10
1.7488827
20
-0.481405
11
1.7451827
21
-0.979105
0
LINE
8
DEFAULT_255_2_778
10
1.9991827
20
-0.725105
11
2.1364827
21
-0.725105
0
LINE
8
DEFAULT_255_2_778
10
1.9785827
20
-1.631005
11
1.9647827
21
-1.040805
0
LINE
8
DEFAULT_255_2_778
10
1.9647827
20
-1.040805
11
1.9991827
21
-0.725105
0
LINE
8
DEFAULT_255_2_778
10
5.7739827
20
-0.828005
11
5.1014827
21
-0.828005
0
LINE
8
DEFAULT_255_2_778
10
5.1014827
20
-0.828005
11
5.4376827
21
-0.073205
0
LINE
8
DEFAULT_255_2_778
10
5.4376827
20
-0.073205
11
5.7739827
21
-0.828005
0
LINE
8
DEFAULT_255_2_778
10
5.4789827
20
0.324995
11
4.5111827
21
-1.754605
0
LINE
8
DEFAULT_255_2_778
10
4.7376827
20
-1.754605
11
5.0326827
21
-0.968805
0
LINE
8
DEFAULT_255_2_778
10
5.4101827
20
-0.955005
11
5.8218827
21
-0.968805
0
LINE
8
DEFAULT_255_2_778
10
5.8218827
20
-0.968805
11
6.1443827
21
-1.758005
0
LINE
8
DEFAULT_255_2_778
10
5.5437827
20
0.321595
11
5.4789827
21
0.324995
0
LINE
8
DEFAULT_255_2_778
10
9.5665827
20
-0.052305
11
9.5389827
21
-0.052305
0
LINE
8
DEFAULT_255_2_778
10
9.5802827
20
-1.452405
11
9.5940827
21
-1.452405
0
LINE
8
DEFAULT_255_2_778
10
9.5940827
20
-1.452405
11
9.5628827
21
-1.631005
0
LINE
8
DEFAULT_255_2_778
10
11.2614827
20
-0.986005
11
11.2614827
21
-0.478305
0
LINE
8
DEFAULT_255_2_778
10
11.2614827
20
-0.478305
11
11.2339827
21
0.293795
0
LINE
8
DEFAULT_255_2_778
10
11.5429827
20
0.293795
11
11.5154827
21
-0.478305
0
LINE
8
DEFAULT_255_2_778
10
11.5154827
20
-0.478305
11
11.5154827
21
-0.649705
0
LINE
8
DEFAULT_255_2_778
10
12.7748827
20
0.290595
11
11.7932827
21
-0.635905
0
LINE
8
DEFAULT_255_2_778
10
11.7932827
20
-0.635905
11
12.8227827
21
-1.758005
0
LINE
8
DEFAULT_255_2_778
10
12.4692827
20
-1.758005
11
11.5702827
21
-0.728505
0
LINE
8
DEFAULT_255_2_778
10
11.5702827
20
-0.728505
11
11.5151827
21
-0.982505
0
LINE
8
DEFAULT_255_2_778
10
11.5151827
20
-0.982505
11
11.5426827
21
-1.754605
0
LINE
8
DEFAULT_255_2_778
10
11.2336827
20
-1.754605
11
11.2611827
21
-0.982505
0
LINE
8
DEFAULT_255_2_778
10
11.2611827
20
-0.982505
11
11.2614827
21
-0.986005
0
LINE
8
DEFAULT_255_2_778
10
14.6451827
20
0.180795
11
14.9267827
21
0.180795
0
LINE
8
DEFAULT_255_2_778
10
14.6420827
20
-0.707905
11
14.6420827
21
0.177395
0
LINE
8
DEFAULT_255_2_778
10
14.6420827
20
0.177395
11
14.6451827
21
0.180795
0
LINE
8
DEFAULT_255_2_778
10
14.3911827
20
-0.986005
11
14.3636827
21
-1.758005
0
LINE
8
DEFAULT_255_2_778
10
14.6727827
20
-1.758005
11
14.6451827
21
-0.986005
0
LINE
8
DEFAULT_255_2_778
10
14.6451827
20
-0.986005
11
14.6451827
21
-0.831505
0
LINE
8
DEFAULT_255_2_778
10
14.6451827
20
-0.831505
11
14.8991827
21
-0.831505
0
LINE
8
DEFAULT_255_2_778
10
15.0502827
20
0.290895
11
14.6555827
21
0.277095
0
LINE
8
DEFAULT_255_2_778
10
14.3604827
20
0.290895
11
14.3880827
21
-0.481205
0
LINE
8
DEFAULT_255_2_778
10
14.3880827
20
-0.481205
11
14.3911827
21
-0.986005
0
LINE
8
DEFAULT_255_2_778
10
17.3423827
20
-0.481405
11
17.3285827
21
0.290595
0
LINE
8
DEFAULT_255_2_778
10
17.6204827
20
0.290595
11
17.6032827
21
-0.478005
0
LINE
8
DEFAULT_255_2_778
10
17.6032827
20
-0.478005
11
17.6170827
21
-1.610405
0
LINE
8
DEFAULT_255_2_778
10
17.6170827
20
-1.610405
11
18.4747827
21
-1.569105
0
LINE
8
DEFAULT_255_2_778
10
18.4747827
20
-1.757805
11
17.8982827
21
-1.744005
0
LINE
8
DEFAULT_255_2_778
10
17.8982827
20
-1.744005
11
17.3354827
21
-1.757805
0
LINE
8
DEFAULT_255_2_778
10
17.3354827
20
-1.757805
11
17.3492827
21
-0.985705
0
LINE
8
DEFAULT_255_2_778
10
17.3492827
20
-0.985705
11
17.3492827
21
-0.478005
0
LINE
8
DEFAULT_255_2_778
10
17.3492827
20
-0.478005
11
17.3423827
21
-0.481405
0
LINE
8
DEFAULT_255_2_778
10
21.1515827
20
-0.831505
11
20.4858827
21
-0.831505
0
LINE
8
DEFAULT_255_2_778
10
20.4858827
20
-0.831505
11
20.8221827
21
-0.076405
0
LINE
8
DEFAULT_255_2_778
10
20.8221827
20
-0.076405
11
21.1515827
21
-0.831505
0
LINE
8
DEFAULT_255_2_778
10
20.8562827
20
0.321595
11
19.8884827
21
-1.758005
0
LINE
8
DEFAULT_255_2_778
10
20.7874827
20
-0.958505
11
21.1991827
21
-0.972205
0
LINE
8
DEFAULT_255_2_778
10
21.1991827
20
-0.972205
11
21.5217827
21
-1.761505
0
LINE
8
DEFAULT_255_2_778
10
21.8476827
20
-1.761505
11
20.9211827
21
0.318095
0
LINE
8
DEFAULT_255_2_778
10
20.9211827
20
0.318095
11
20.8562827
21
0.321595
0
LINE
8
DEFAULT_255_2_778
10
25.1801827
20
-1.799305
11
23.6222827
21
-0.152005
0
LINE
8
DEFAULT_255_2_778
10
23.6084827
20
-0.756105
11
23.6359827
21
-1.751205
0
LINE
8
DEFAULT_255_2_778
10
23.4095827
20
-1.751205
11
23.4814827
21
-0.457405
0
LINE
8
DEFAULT_255_2_778
10
23.4814827
20
-0.457405
11
23.4677827
21
0.331895
0
LINE
8
DEFAULT_255_2_778
10
23.4677827
20
0.331895
11
23.5090827
21
0.331895
0
LINE
8
DEFAULT_255_2_778
10
23.5090827
20
0.331895
11
25.0806827
21
-1.270705
0
LINE
8
DEFAULT_255_2_778
10
25.0806827
20
-1.270705
11
25.0531827
21
0.300895
0
LINE
8
DEFAULT_255_2_778
10
25.2692827
20
0.300895
11
25.2142827
21
-0.697605
0
LINE
8
DEFAULT_255_2_778
10
25.2142827
20
-0.697605
11
25.2280827
21
-1.795905
0
LINE
8
DEFAULT_255_2_778
10
25.2280827
20
-1.795905
11
25.1801827
21
-1.799305
0
LINE
8
DEFAULT_255_2_778
10
27.0776827
20
-0.478305
11
27.0501827
21
0.293795
0
LINE
8
DEFAULT_255_2_778
10
27.0501827
20
0.293795
11
27.6129827
21
0.279995
0
LINE
8
DEFAULT_255_2_778
10
27.6129827
20
0.279995
11
28.1619827
21
0.293795
0
LINE
8
DEFAULT_255_2_778
10
28.1619827
20
0.105195
11
27.3486827
21
0.146395
0
LINE
8
DEFAULT_255_2_778
10
27.3486827
20
0.146395
11
27.3348827
21
-0.231105
0
LINE
8
DEFAULT_255_2_778
10
27.3348827
20
-0.231105
11
27.3486827
21
-0.625905
0
LINE
8
DEFAULT_255_2_778
10
27.3486827
20
-0.625905
11
28.0931827
21
-0.598405
0
LINE
8
DEFAULT_255_2_778
10
27.3348827
20
-1.195305
11
27.3486827
21
-1.631005
0
LINE
8
DEFAULT_255_2_778
10
28.1722827
20
-1.589805
11
28.1722827
21
-1.771505
0
LINE
8
DEFAULT_255_2_778
10
27.6232827
20
-1.757805
11
27.0467827
21
-1.771505
0
LINE
8
DEFAULT_255_2_778
10
27.0467827
20
-1.771505
11
27.0742827
21
-0.999505
0
LINE
8
DEFAULT_255_2_778
10
27.0742827
20
-0.999505
11
27.0776827
21
-0.478305
0
ENDSEC
0
EOF