0
SECTION
2
HEADER
9
$MEASUREMENT
70
1
0
ENDSEC
0
SECTION
2
TABLES
0
TABLE
2
LTYPE
0
LTYPE
72
65
70
64
2
CONTINUOUS
3
______
73
0
40
0
0
ENDTAB
0
TABLE
2
LAYER
0
LAYER
2
DEFAULT_255_2_778
70
0
62
255
6
CONTINUOUS
0
LAYER
2
DEFAULT_255_1_388
70
0
62
255
6
CONTINUOUS
0
ENDTAB
0
ENDSEC
0
SECTION
2
ENTITIES
0
ARC
8
DEFAULT_255_2_778
10
3.5700693
20
91.6802028
40
0.7914215
50
129.1312896
51
180.1450914
0
ARC
8
DEFAULT_255_2_778
10
3.5703345
20
91.6806899
40
0.7912112
50
89.854026
51
129.1684493
0
ARC
8
DEFAULT_255_2_778
10
25.7993937
20
91.6803765
40
0.7915249
50
39.4792447
51
90.147911
0
ARC
8
DEFAULT_255_2_778
10
25.7999935
20
91.6802231
40
0.7911595
50
359.8533901
51
39.5154338
0
ARC
8
DEFAULT_255_2_778
10
25.7996693
20
-1.9863495
40
0.7914836
50
309.4761667
51
0.1482649
0
ARC
8
DEFAULT_255_2_778
10
25.799398
20
-1.9867805
40
0.7913235
50
269.8517415
51
309.511178
0
ARC
8
DEFAULT_255_2_778
10
3.570342
20
-1.9867224
40
0.7913815
50
219.1282118
51
270.1454017
0
ARC
8
DEFAULT_255_2_778
10
3.5700247
20
-1.9863399
40
0.7913769
50
179.8524075
51
219.1641908
0
LINE
8
DEFAULT_255_2_778
10
3.5723503
20
92.4718987
11
25.7973503
21
92.4718987
0
LINE
8
DEFAULT_255_2_778
10
26.5911503
20
91.6781987
11
26.5911503
21
-1.9843013
0
LINE
8
DEFAULT_255_2_778
10
25.7973503
20
-2.7781013
11
3.5723503
21
-2.7781013
0
LINE
8
DEFAULT_255_2_778
10
2.7786503
20
-1.9843013
11
2.7786503
21
91.6781987
0
LINE
8
DEFAULT_255_1_388
10
10.1263985
20
0.6821148
11
10.1263985
21
-0.6398
0
LINE
8
DEFAULT_255_1_388
10
10.1263985
20
-0.6398
11
9.9583355
21
-0.6398
0
LINE
8
DEFAULT_255_1_388
10
9.9583355
20
-0.6398
11
9.9583355
21
0.474295
0
LINE
8
DEFAULT_255_1_388
10
9.9583355
20
0.474295
11
9.621306
21
0.3505066
0
LINE
8
DEFAULT_255_1_388
10
9.621306
20
0.3505066
11
9.621306
21
0.5023055
0
LINE
8
DEFAULT_255_1_388
10
9.621306
20
0.5023055
11
10.1001951
21
0.6821148
0
LINE
8
DEFAULT_255_1_388
10
10.1001951
20
0.6821148
11
10.1263985
21
0.6821148
0
LINE
8
DEFAULT_255_1_388
10
11.465481
20
0.6757898
11
11.465481
21
0.5818191
0
LINE
8
DEFAULT_255_1_388
10
11.465481
20
0.5818191
11
10.9206316
21
-0.6398
0
LINE
8
DEFAULT_255_1_388
10
10.9206316
20
-0.6398
11
10.7453401
21
-0.6398
0
LINE
8
DEFAULT_255_1_388
10
10.7453401
20
-0.6398
11
11.2883824
21
0.538448
0
LINE
8
DEFAULT_255_1_388
10
11.2883824
20
0.538448
11
10.5763736
21
0.538448
0
LINE
8
DEFAULT_255_1_388
10
10.5763736
20
0.538448
11
10.5763736
21
0.6757898
0
LINE
8
DEFAULT_255_1_388
10
10.5763736
20
0.6757898
11
11.465481
21
0.6757898
0
LINE
8
DEFAULT_255_1_388
10
11.8657601
20
-0.0145334
11
11.7320325
21
0.0198021
0
LINE
8
DEFAULT_255_1_388
10
11.7320325
20
0.0198021
11
11.7988963
21
0.6757898
0
LINE
8
DEFAULT_255_1_388
10
11.7988963
20
0.6757898
11
12.4729554
21
0.6757898
0
LINE
8
DEFAULT_255_1_388
10
12.4729554
20
0.6757898
11
12.4729554
21
0.5212803
0
LINE
8
DEFAULT_255_1_388
10
12.4729554
20
0.5212803
11
11.9407559
21
0.5212803
0
LINE
8
DEFAULT_255_1_388
10
11.9407559
20
0.5212803
11
11.9009991
21
0.1625652
0
LINE
8
DEFAULT_255_1_388
10
11.6850472
20
-0.2937348
11
11.8431709
21
-0.2937348
0
LINE
8
DEFAULT_255_1_388
10
11.9100347
20
0.0216092
11
11.8657601
21
-0.0145334
0
ARC
8
DEFAULT_255_1_388
10
12.1096604
20
-0.1951759
40
0.4141476
50
93.7181681
51
120.253934
0
ARC
8
DEFAULT_255_1_388
10
12.1202656
20
-0.2860716
40
0.5055616
50
89.9660471
51
94.2495185
0
ARC
8
DEFAULT_255_1_388
10
12.1248478
20
-0.2197846
40
0.4392953
50
73.8045384
51
90.5585736
0
ARC
8
DEFAULT_255_1_388
10
12.1512736
20
-0.123248
40
0.3392225
50
41.3071072
51
73.543002
0
ARC
8
DEFAULT_255_1_388
10
12.1044556
20
-0.1635539
40
0.4009977
50
13.5075837
51
41.2174839
0
ARC
8
DEFAULT_255_1_388
10
11.9197653
20
-0.2119093
40
0.5918864
50
1.1330171
51
13.8830737
0
ARC
8
DEFAULT_255_1_388
10
11.7601299
20
-0.2204478
40
0.7516787
50
359.9925091
51
1.5431298
0
ARC
8
DEFAULT_255_1_388
10
11.9045914
20
-0.2250973
40
0.6072343
50
347.8572712
51
0.4294349
0
ARC
8
DEFAULT_255_1_388
10
12.1015049
20
-0.2697102
40
0.4053482
50
323.6727442
51
348.1674594
0
ARC
8
DEFAULT_255_1_388
10
12.1346013
20
-0.2898825
40
0.3667495
50
316.8171818
51
323.1486802
0
ARC
8
DEFAULT_255_1_388
10
12.1415137
20
-0.2940388
40
0.358869
50
281.839603
51
316.5458142
0
ARC
8
DEFAULT_255_1_388
10
12.0992425
20
-0.1190637
40
0.5388223
50
269.5770964
51
282.4214641
0
ARC
8
DEFAULT_255_1_388
10
12.0912345
20
-0.143107
40
0.5147801
50
256.2425863
51
270.4486481
0
ARC
8
DEFAULT_255_1_388
10
12.0575873
20
-0.2780876
40
0.3756708
50
228.9024379
51
256.33135
0
ARC
8
DEFAULT_255_1_388
10
12.0492853
20
-0.2911946
40
0.360344
50
193.7536029
51
228.5272638
0
ARC
8
DEFAULT_255_1_388
10
12.1885418
20
-0.2503537
40
0.5053599
50
184.9244437
51
194.4976052
0
ARC
8
DEFAULT_255_1_388
10
12.210206
20
-0.2463278
40
0.3700839
50
187.3596909
51
198.6733728
0
ARC
8
DEFAULT_255_1_388
10
12.0921303
20
-0.2872627
40
0.2451195
50
198.4453795
51
217.7945479
0
ARC
8
DEFAULT_255_1_388
10
12.0588476
20
-0.3108437
40
0.2043754
50
218.2887146
51
228.5613203
0
ARC
8
DEFAULT_255_1_388
10
12.0698482
20
-0.2960098
40
0.2227819
50
228.9652423
51
258.1237049
0
ARC
8
DEFAULT_255_1_388
10
12.092992
20
-0.1969036
40
0.3245374
50
257.7260585
51
270.4013717
0
ARC
8
DEFAULT_255_1_388
10
12.0980418
20
-0.2469745
40
0.2744726
50
269.4204315
51
286.420998
0
ARC
8
DEFAULT_255_1_388
10
12.1147474
20
-0.3076295
40
0.2115721
50
286.7250065
51
320.6004665
0
ARC
8
DEFAULT_255_1_388
10
12.0716389
20
-0.2726473
40
0.2670878
50
320.6712228
51
344.5440474
0
ARC
8
DEFAULT_255_1_388
10
11.9415103
20
-0.2344606
40
0.4026927
50
344.241448
51
356.735803
0
ARC
8
DEFAULT_255_1_388
10
11.801141
20
-0.2228344
40
0.5435085
50
356.3547471
51
0.0507222
0
ARC
8
DEFAULT_255_1_388
10
11.9513675
20
-0.2193188
40
0.3932934
50
359.5579289
51
12.9534322
0
ARC
8
DEFAULT_255_1_388
10
12.0700515
20
-0.1905414
40
0.2711827
50
12.6489751
51
41.608121
0
ARC
8
DEFAULT_255_1_388
10
12.0959675
20
-0.1685054
40
0.2371737
50
41.7851122
51
85.9892156
0
ARC
8
DEFAULT_255_1_388
10
12.0820985
20
-0.2600262
40
0.3295244
50
84.6965848
51
90.0672125
0
ARC
8
DEFAULT_255_1_388
10
12.0794553
20
-0.3351882
40
0.4046926
50
89.6804991
51
99.161352
0
ARC
8
DEFAULT_255_1_388
10
12.0563562
20
-0.1971152
40
0.2647044
50
98.9836248
51
113.8905702
0
ARC
8
DEFAULT_255_1_388
10
12.0305237
20
-0.1361882
40
0.1985386
50
114.195234
51
127.3641866
0
LINE
8
DEFAULT_255_1_388
10
13.3204988
20
0.6766934
11
13.3503165
21
0.6766934
0
LINE
8
DEFAULT_255_1_388
10
13.3503165
20
0.6766934
11
13.3503165
21
0.5348338
0
LINE
8
DEFAULT_255_1_388
10
13.3503165
20
0.5348338
11
13.3195953
21
0.5348338
0
LINE
8
DEFAULT_255_1_388
10
12.7042679
20
-0.1392253
11
12.7042679
21
-0.0750722
0
LINE
8
DEFAULT_255_1_388
10
12.8723309
20
-0.0967578
11
12.8723309
21
-0.1582001
0
ARC
8
DEFAULT_255_1_388
10
13.3254844
20
-0.0274174
40
0.562282
50
90.6001079
51
104.5146616
0
ARC
8
DEFAULT_255_1_388
10
13.2817804
20
0.13511
40
0.3939917
50
104.2855758
51
133.8630124
0
ARC
8
DEFAULT_255_1_388
10
13.3002056
20
0.1229243
40
0.4155734
50
134.5304124
51
161.6210222
0
ARC
8
DEFAULT_255_1_388
10
13.4861989
20
0.0573421
40
0.6127682
50
161.2850533
51
174.2074364
0
ARC
8
DEFAULT_255_1_388
10
13.6451555
20
0.0354437
40
0.7731446
50
173.7817938
51
174.9251711
0
ARC
8
DEFAULT_255_1_388
10
13.1325749
20
-0.120073
40
0.3412588
50
95.8332067
51
138.995412
0
ARC
8
DEFAULT_255_1_388
10
13.1577029
20
-0.2639305
40
0.4870358
50
89.8755506
51
97.0540979
0
ARC
8
DEFAULT_255_1_388
10
13.1630418
20
-0.1699159
40
0.3930432
50
71.6407016
51
90.6240821
0
ARC
8
DEFAULT_255_1_388
10
13.1799812
20
-0.1075567
40
0.3285421
50
39.6368051
51
71.0190743
0
ARC
8
DEFAULT_255_1_388
10
13.1083719
20
-0.1694414
40
0.4231706
50
10.6588054
51
39.9044509
0
ARC
8
DEFAULT_255_1_388
10
12.9342265
20
-0.2072777
40
0.60133
50
359.6827842
51
11.1326896
0
ARC
8
DEFAULT_255_1_388
10
12.9297601
20
-0.2152285
40
0.6058047
50
347.2485908
51
0.4371098
0
ARC
8
DEFAULT_255_1_388
10
13.1173386
20
-0.2603621
40
0.4128987
50
318.1408565
51
347.6118497
0
ARC
8
DEFAULT_255_1_388
10
13.1538983
20
-0.2904097
40
0.3656244
50
275.6342406
51
317.824739
0
ARC
8
DEFAULT_255_1_388
10
13.1290504
20
-0.1442173
40
0.513655
50
269.8872513
51
276.7916069
0
ARC
8
DEFAULT_255_1_388
10
13.1228697
20
-0.2595819
40
0.398323
50
246.9139443
51
270.7436787
0
ARC
8
DEFAULT_255_1_388
10
13.1235893
20
-0.2755956
40
0.3839368
50
218.1665534
51
245.8780431
0
ARC
8
DEFAULT_255_1_388
10
13.2225265
20
-0.1928097
40
0.5128958
50
191.4115343
51
218.6077624
0
ARC
8
DEFAULT_255_1_388
10
13.4405581
20
-0.1439223
40
0.7363054
50
179.6344971
51
191.7836758
0
ARC
8
DEFAULT_255_1_388
10
14.0685455
20
-0.0675505
40
1.3642984
50
171.4523743
51
180.3158856
0
ARC
8
DEFAULT_255_1_388
10
13.5741182
20
0.0093895
40
0.8639311
50
157.9802296
51
171.6246761
0
ARC
8
DEFAULT_255_1_388
10
13.3250533
20
0.1087038
40
0.5958004
50
141.4299236
51
157.8541251
0
ARC
8
DEFAULT_255_1_388
10
13.2528616
20
0.1597746
40
0.5075416
50
102.871586
51
140.8564533
0
ARC
8
DEFAULT_255_1_388
10
13.3257169
20
-0.1147057
40
0.7914163
50
90.377773
51
103.5868422
0
ARC
8
DEFAULT_255_1_388
10
13.130169
20
-0.1827457
40
0.2667015
50
89.8751238
51
126.2072139
0
ARC
8
DEFAULT_255_1_388
10
13.1353161
20
-0.2001153
40
0.2838229
50
124.9742447
51
144.8960197
0
ARC
8
DEFAULT_255_1_388
10
13.1155406
20
-0.1840019
40
0.2583845
50
145.2974778
51
160.2660922
0
ARC
8
DEFAULT_255_1_388
10
13.4611895
20
-0.1617849
40
0.5888695
50
179.6512124
51
190.285571
0
ARC
8
DEFAULT_255_1_388
10
13.2706374
20
-0.1977032
40
0.3949683
50
190.0944895
51
207.5099647
0
ARC
8
DEFAULT_255_1_388
10
13.2069956
20
-0.2279823
40
0.3245464
50
207.9585471
51
216.325377
0
ARC
8
DEFAULT_255_1_388
10
13.1687593
20
-0.2594288
40
0.2751259
50
215.7661336
51
232.5457193
0
ARC
8
DEFAULT_255_1_388
10
13.1256709
20
-0.3141727
40
0.2054668
50
232.8005815
51
270.6605497
0
ARC
8
DEFAULT_255_1_388
10
13.1308133
20
-0.2732147
40
0.2464268
50
269.3550767
51
288.474612
0
ARC
8
DEFAULT_255_1_388
10
13.141264
20
-0.3125279
40
0.2058436
50
289.1831976
51
322.9685307
0
ARC
8
DEFAULT_255_1_388
10
13.0724742
20
-0.2582721
40
0.2934408
50
322.6007085
51
346.5183319
0
ARC
8
DEFAULT_255_1_388
10
12.9422498
20
-0.2250566
40
0.4278249
50
346.2584622
51
358.7739592
0
ARC
8
DEFAULT_255_1_388
10
12.8271073
20
-0.2188171
40
0.5430876
50
358.3757628
51
0.0082477
0
ARC
8
DEFAULT_255_1_388
10
12.9127892
20
-0.2157144
40
0.4574157
50
359.6211417
51
11.28403
0
ARC
8
DEFAULT_255_1_388
10
13.0564498
20
-0.1857465
40
0.3106708
50
11.0483152
51
31.8145585
0
ARC
8
DEFAULT_255_1_388
10
13.0912203
20
-0.1668955
40
0.2711963
50
32.3028554
51
38.0820598
0
ARC
8
DEFAULT_255_1_388
10
13.1385436
20
-0.1240283
40
0.2075566
50
36.8249851
51
85.741667
0
ARC
8
DEFAULT_255_1_388
10
13.1309849
20
-0.1803935
40
0.2643487
50
85.0150021
51
90.050843
0
LINE
8
DEFAULT_255_1_388
10
14.0984678
20
-0.0127263
11
14.0984678
21
-0.1491645
0
LINE
8
DEFAULT_255_1_388
10
14.0984678
20
-0.1491645
11
13.6575284
21
-0.1491645
0
LINE
8
DEFAULT_255_1_388
10
13.6575284
20
-0.1491645
11
13.6575284
21
-0.0127263
0
LINE
8
DEFAULT_255_1_388
10
13.6575284
20
-0.0127263
11
14.0984678
21
-0.0127263
0
LINE
8
DEFAULT_255_1_388
10
15.299305
20
0.0586553
11
15.299305
21
-0.0244726
0
LINE
8
DEFAULT_255_1_388
10
14.241231
20
-0.0362189
11
14.241231
21
0.0586553
0
LINE
8
DEFAULT_255_1_388
10
15.1267242
20
-0.0371225
11
15.1267242
21
0.0604625
0
LINE
8
DEFAULT_255_1_388
10
14.4138118
20
0.0722088
11
14.4138118
21
-0.0244726
0
ARC
8
DEFAULT_255_1_388
10
14.3270788
20
-0.0289274
40
0.9722364
50
350.4878118
51
0.2625322
0
ARC
8
DEFAULT_255_1_388
10
14.5850748
20
-0.0733006
40
0.7104556
50
336.0277991
51
350.5787241
0
ARC
8
DEFAULT_255_1_388
10
14.7363855
20
-0.1416757
40
0.544417
50
319.887443
51
336.1331163
0
ARC
8
DEFAULT_255_1_388
10
14.8041667
20
-0.1959267
40
0.4576311
50
302.4806296
51
319.6144102
0
ARC
8
DEFAULT_255_1_388
10
14.7912288
20
-0.1709933
40
0.4856183
50
275.8196423
51
302.1885521
0
ARC
8
DEFAULT_255_1_388
10
14.772515
20
-0.0424534
40
0.6154183
50
269.9169897
51
276.339506
0
ARC
8
DEFAULT_255_1_388
10
14.767475
20
-0.119632
40
0.5382553
50
252.5221437
51
270.441579
0
ARC
8
DEFAULT_255_1_388
10
14.7513001
20
-0.1802954
40
0.4755426
50
237.5349961
51
252.1858334
0
ARC
8
DEFAULT_255_1_388
10
14.7613377
20
-0.167488
40
0.4917393
50
209.0632754
51
237.3492577
0
ARC
8
DEFAULT_255_1_388
10
14.8592703
20
-0.1059896
40
0.6072464
50
205.118533
51
209.6465345
0
ARC
8
DEFAULT_255_1_388
10
14.9488705
20
-0.0679826
40
0.7045164
50
188.7216633
51
204.8239753
0
ARC
8
DEFAULT_255_1_388
10
15.173548
20
-0.0301613
40
0.9323368
50
180.3722704
51
188.9253909
0
ARC
8
DEFAULT_255_1_388
10
15.1705042
20
0.0631416
40
0.929284
50
169.5253055
51
180.2766048
0
ARC
8
DEFAULT_255_1_388
10
14.9564841
20
0.1025024
40
0.7116745
50
155.8314601
51
169.5088611
0
ARC
8
DEFAULT_255_1_388
10
14.8124304
20
0.1693312
40
0.5528904
50
139.6259579
51
156.0379072
0
ARC
8
DEFAULT_255_1_388
10
14.7460838
20
0.2227143
40
0.4677708
50
122.6414784
51
139.3431662
0
ARC
8
DEFAULT_255_1_388
10
14.7574092
20
0.2020787
40
0.4912586
50
93.0224537
51
122.4556091
0
ARC
8
DEFAULT_255_1_388
10
14.7695613
20
0.0934776
40
0.6003837
50
89.9756766
51
93.6340839
0
ARC
8
DEFAULT_255_1_388
10
14.7739211
20
0.1383879
40
0.5554884
50
73.7463329
51
90.4234008
0
ARC
8
DEFAULT_255_1_388
10
14.7936684
20
0.2148772
40
0.4765353
50
57.663051
51
73.4516911
0
ARC
8
DEFAULT_255_1_388
10
14.7927722
20
0.2173108
40
0.4749629
50
29.1441355
51
57.4146687
0
ARC
8
DEFAULT_255_1_388
10
14.6875533
20
0.1516046
40
0.5988917
50
24.0985653
51
29.732054
0
ARC
8
DEFAULT_255_1_388
10
14.5713165
20
0.1034154
40
0.7246823
50
8.6654943
51
23.8241215
0
ARC
8
DEFAULT_255_1_388
10
14.3199583
20
0.0624037
40
0.9793537
50
359.7807044
51
8.8218476
0
ARC
8
DEFAULT_255_1_388
10
14.1909288
20
0.0652731
40
0.9358078
50
359.7054632
51
8.0359751
0
ARC
8
DEFAULT_255_1_388
10
14.5284339
20
0.1144252
40
0.5947474
50
7.8926278
51
20.2962188
0
ARC
8
DEFAULT_255_1_388
10
14.7115189
20
0.1819367
40
0.3996117
50
20.3231056
51
36.4990255
0
ARC
8
DEFAULT_255_1_388
10
14.7886487
20
0.2413399
40
0.3022818
50
36.1436715
51
85.6627846
0
ARC
8
DEFAULT_255_1_388
10
14.7703742
20
0.1243881
40
0.4203853
50
84.3845912
51
90.076054
0
ARC
8
DEFAULT_255_1_388
10
14.7656097
20
0.1986416
40
0.346157
50
89.3037228
51
109.9046209
0
ARC
8
DEFAULT_255_1_388
10
14.755193
20
0.2416379
40
0.3022217
50
110.8229774
51
143.917961
0
ARC
8
DEFAULT_255_1_388
10
14.8602289
20
0.1614455
40
0.434348
50
143.5289166
51
163.2980252
0
ARC
8
DEFAULT_255_1_388
10
15.0748576
20
0.0939685
40
0.659321
50
163.0418884
51
174.3139873
0
ARC
8
DEFAULT_255_1_388
10
15.3453541
20
0.0627378
40
0.9315905
50
174.050934
51
179.4174954
0
ARC
8
DEFAULT_255_1_388
10
15.2885485
20
-0.0291618
40
0.8747493
50
179.6928582
51
188.7908948
0
ARC
8
DEFAULT_255_1_388
10
14.9889285
20
-0.0770914
40
0.5713262
50
188.6328449
51
202.5630732
0
ARC
8
DEFAULT_255_1_388
10
14.8478122
20
-0.1337858
40
0.4192612
50
202.8078931
51
216.1195888
0
ARC
8
DEFAULT_255_1_388
10
14.7567639
20
-0.2070521
40
0.3025752
50
215.0755613
51
264.6379773
0
ARC
8
DEFAULT_255_1_388
10
14.7710476
20
-0.1135624
40
0.3970284
50
263.8464302
51
270.0830805
0
ARC
8
DEFAULT_255_1_388
10
14.7757021
20
-0.1426192
40
0.3679937
50
269.3649295
51
287.5149684
0
ARC
8
DEFAULT_255_1_388
10
14.7957462
20
-0.2154286
40
0.2925408
50
288.0629019
51
323.8115617
0
ARC
8
DEFAULT_255_1_388
10
14.6977438
20
-0.1423246
40
0.4148018
50
323.6546541
51
342.6591359
0
ARC
8
DEFAULT_255_1_388
10
14.4692096
20
-0.067972
40
0.6551163
50
342.4092446
51
353.6451501
0
ARC
8
DEFAULT_255_1_388
10
14.1506889
20
-0.0283435
40
0.9760748
50
353.4027553
51
359.4846611
0
LINE
8
DEFAULT_255_1_388
10
16.392618
20
-0.6398
11
16.2670225
21
-0.2964455
0
LINE
8
DEFAULT_255_1_388
10
16.2670225
20
-0.2964455
11
15.7158482
21
-0.2964455
0
LINE
8
DEFAULT_255_1_388
10
15.7158482
20
-0.2964455
11
15.5920599
21
-0.6398
0
LINE
8
DEFAULT_255_1_388
10
15.5920599
20
-0.6398
11
15.4131541
21
-0.6398
0
LINE
8
DEFAULT_255_1_388
10
15.4131541
20
-0.6398
11
15.9155359
21
0.6757898
0
LINE
8
DEFAULT_255_1_388
10
15.9155359
20
0.6757898
11
16.0673348
21
0.6757898
0
LINE
8
DEFAULT_255_1_388
10
16.0673348
20
0.6757898
11
16.5706202
21
-0.6398
0
LINE
8
DEFAULT_255_1_388
10
16.5706202
20
-0.6398
11
16.392618
21
-0.6398
0
LINE
8
DEFAULT_255_1_388
10
15.9914354
20
0.4616451
11
15.7682549
21
-0.1536823
0
LINE
8
DEFAULT_255_1_388
10
15.7682549
20
-0.1536823
11
16.2155193
21
-0.1536823
0
LINE
8
DEFAULT_255_1_388
10
16.2155193
20
-0.1536823
11
15.9914354
21
0.4616451
0
ARC
8
DEFAULT_255_1_388
10
17.1846982
20
0.329572
40
0.3175098
50
338.8762533
51
0.5167111
0
ARC
8
DEFAULT_255_1_388
10
17.2036576
20
0.32446
40
0.2979894
50
325.8415285
51
338.4793574
0
ARC
8
DEFAULT_255_1_388
10
17.159721
20
0.3549242
40
0.351452
50
296.7587686
51
325.7536481
0
ARC
8
DEFAULT_255_1_388
10
17.1268838
20
0.4103363
40
0.4157374
50
296.0927901
51
297.3613472
0
ARC
8
DEFAULT_255_1_388
10
17.1563033
20
-0.3279407
40
0.395855
50
47.9007294
51
67.1948823
0
ARC
8
DEFAULT_255_1_388
10
17.1783675
20
-0.3002401
40
0.360516
50
35.2363914
51
47.551141
0
ARC
8
DEFAULT_255_1_388
10
17.2078079
20
-0.2805907
40
0.3251343
50
359.2759765
51
35.4014143
0
ARC
8
DEFAULT_255_1_388
10
17.1240005
20
-0.2888213
40
0.4089365
50
343.1293083
51
0.5775513
0
ARC
8
DEFAULT_255_1_388
10
17.2055119
20
-0.3112664
40
0.3244269
50
310.8496669
51
342.7449331
0
ARC
8
DEFAULT_255_1_388
10
17.1584993
20
-0.2576087
40
0.3957651
50
281.5472888
51
310.9170406
0
ARC
8
DEFAULT_255_1_388
10
17.1183868
20
-0.0829186
40
0.5749654
50
269.619248
51
281.9789564
0
ARC
8
DEFAULT_255_1_388
10
17.1102646
20
-0.0828224
40
0.5750649
50
257.4585678
51
270.4285689
0
ARC
8
DEFAULT_255_1_388
10
17.0674166
20
-0.2632259
40
0.389671
50
228.7554326
51
257.8484789
0
ARC
8
DEFAULT_255_1_388
10
17.0325651
20
-0.3051772
40
0.335154
50
184.0104975
51
228.5071184
0
ARC
8
DEFAULT_255_1_388
10
17.1634044
20
-0.285257
40
0.4671891
50
179.9315832
51
185.3253753
0
ARC
8
DEFAULT_255_1_388
10
17.0310556
20
-0.2810408
40
0.33486
50
145.6796023
51
180.6259786
0
ARC
8
DEFAULT_255_1_388
10
17.0494322
20
-0.2938729
40
0.3572723
50
115.5537685
51
145.6415986
0
ARC
8
DEFAULT_255_1_388
10
17.0877366
20
-0.3624913
40
0.4357296
50
113.243307
51
116.2057839
0
ARC
8
DEFAULT_255_1_388
10
17.0706018
20
0.3572379
40
0.3549126
50
222.9549744
51
244.1370481
0
ARC
8
DEFAULT_255_1_388
10
17.0568661
20
0.3418378
40
0.3343711
50
213.3436887
51
222.6274467
0
ARC
8
DEFAULT_255_1_388
10
17.035273
20
0.3271653
40
0.3082678
50
180.431584
51
213.271499
0
ARC
8
DEFAULT_255_1_388
10
17.0987729
20
0.3324296
40
0.3718363
50
179.9991191
51
181.1690594
0
ARC
8
DEFAULT_255_1_388
10
17.1460185
20
0.3363072
40
0.4190996
50
164.6186169
51
180.529336
0
ARC
8
DEFAULT_255_1_388
10
17.0449834
20
0.363478
40
0.3144772
50
132.2455553
51
164.5090724
0
ARC
8
DEFAULT_255_1_388
10
17.0772813
20
0.326907
40
0.3632644
50
100.7053914
51
132.1386381
0
ARC
8
DEFAULT_255_1_388
10
17.1115874
20
0.1719118
40
0.5219578
50
89.6730358
51
101.2451698
0
ARC
8
DEFAULT_255_1_388
10
17.1185865
20
0.1915648
40
0.5023124
50
76.287748
51
90.4586006
0
ARC
8
DEFAULT_255_1_388
10
17.1530367
20
0.3290671
40
0.3605639
50
47.8240511
51
76.4266241
0
ARC
8
DEFAULT_255_1_388
10
17.1780751
20
0.3583599
40
0.3220463
50
6.9168387
51
47.6262497
0
ARC
8
DEFAULT_255_1_388
10
17.0446204
20
0.3337004
40
0.4575765
50
359.8415968
51
7.9697453
0
ARC
8
DEFAULT_255_1_388
10
17.0830474
20
-0.2783481
40
0.2827228
50
359.445363
51
16.9256873
0
ARC
8
DEFAULT_255_1_388
10
17.1357908
20
-0.2638219
40
0.2280396
50
17.2920767
51
45.4630727
0
ARC
8
DEFAULT_255_1_388
10
17.1297043
20
-0.2690676
40
0.2360485
50
45.30305
51
83.1920945
0
ARC
8
DEFAULT_255_1_388
10
17.1135788
20
-0.3592527
40
0.3275527
50
82.2612665
51
90.1434275
0
ARC
8
DEFAULT_255_1_388
10
17.1101064
20
-0.3330131
40
0.3013237
50
89.4956434
51
104.8580688
0
ARC
8
DEFAULT_255_1_388
10
17.0902254
20
-0.2576545
40
0.2233867
50
104.8856641
51
135.244616
0
ARC
8
DEFAULT_255_1_388
10
17.0958243
20
-0.2626648
40
0.2308906
50
135.3399546
51
172.1044062
0
ARC
8
DEFAULT_255_1_388
10
17.1865768
20
-0.2800333
40
0.3232034
50
171.2645637
51
180.186429
0
ARC
8
DEFAULT_255_1_388
10
17.1675772
20
-0.2836574
40
0.304213
50
179.5154935
51
193.6464289
0
ARC
8
DEFAULT_255_1_388
10
17.0757448
20
-0.3070527
40
0.209456
50
193.3540274
51
225.8258581
0
ARC
8
DEFAULT_255_1_388
10
17.080332
20
-0.2990924
40
0.2183738
50
226.4180634
51
255.8552336
0
ARC
8
DEFAULT_255_1_388
10
17.1091787
20
-0.1937479
40
0.3275812
50
255.4654104
51
268.7987425
0
ARC
8
DEFAULT_255_1_388
10
17.1144963
20
-0.0995455
40
0.4218877
50
268.3449238
51
270.0094605
0
ARC
8
DEFAULT_255_1_388
10
17.1171196
20
-0.1763906
40
0.3450519
50
269.5759586
51
282.0820163
0
ARC
8
DEFAULT_255_1_388
10
17.1424233
20
-0.2882637
40
0.2303642
50
281.752014
51
306.6056188
0
ARC
8
DEFAULT_255_1_388
10
17.1535041
20
-0.3064198
40
0.2091906
50
307.1346085
51
314.027845
0
ARC
8
DEFAULT_255_1_388
10
17.1494553
20
-0.3034541
40
0.2141385
50
314.2552483
51
350.1694025
0
ARC
8
DEFAULT_255_1_388
10
17.053679
20
-0.2826825
40
0.312082
50
349.4140529
51
0.2933014
0
ARC
8
DEFAULT_255_1_388
10
17.1122067
20
0.2976924
40
0.2588377
50
89.477747
51
105.729729
0
ARC
8
DEFAULT_255_1_388
10
17.0968987
20
0.3545367
40
0.1999733
50
105.9233417
51
135.1660906
0
ARC
8
DEFAULT_255_1_388
10
17.0992018
20
0.3529412
40
0.2027322
50
135.3052302
51
168.9883645
0
ARC
8
DEFAULT_255_1_388
10
17.1923034
20
0.3315996
40
0.2982129
50
168.3801673
51
180.3602268
0
ARC
8
DEFAULT_255_1_388
10
17.1666151
20
0.3273622
40
0.2725291
50
179.5033122
51
194.9125571
0
ARC
8
DEFAULT_255_1_388
10
17.1007558
20
0.3100427
40
0.204431
50
194.9720816
51
224.194444
0
ARC
8
DEFAULT_255_1_388
10
17.0975923
20
0.3074635
40
0.2003651
50
224.2962453
51
262.015664
0
ARC
8
DEFAULT_255_1_388
10
17.1135927
20
0.3897315
40
0.2840925
50
261.1245923
51
270.1962896
0
ARC
8
DEFAULT_255_1_388
10
17.1169408
20
0.3686859
40
0.2630559
50
269.4827276
51
285.0987215
0
ARC
8
DEFAULT_255_1_388
10
17.1342845
20
0.3036175
40
0.1957162
50
285.1585357
51
315.9484501
0
ARC
8
DEFAULT_255_1_388
10
17.1242718
20
0.3128315
40
0.2093195
50
316.0413965
51
351.916092
0
ARC
8
DEFAULT_255_1_388
10
17.0418092
20
0.3287323
40
0.2932279
50
351.105835
51
0.1939062
0
ARC
8
DEFAULT_255_1_388
10
17.0713727
20
0.3321224
40
0.2636739
50
359.4789618
51
16.0678224
0
ARC
8
DEFAULT_255_1_388
10
17.1249198
20
0.3465721
40
0.2082215
50
16.3252067
51
44.7913869
0
ARC
8
DEFAULT_255_1_388
10
17.1229261
20
0.346632
40
0.2095992
50
44.3957814
51
88.2499162
0
ARC
8
DEFAULT_255_1_388
10
17.1146595
20
0.2778006
40
0.2787189
50
86.9833854
51
90.0192215
0
LINE
8
DEFAULT_255_1_388
10
18.1509544
20
-0.6398
11
17.7868179
21
-0.6398
0
LINE
8
DEFAULT_255_1_388
10
17.7868179
20
-0.6398
11
17.7868179
21
0.6757898
0
LINE
8
DEFAULT_255_1_388
10
17.7868179
20
0.6757898
11
18.1581829
21
0.6757898
0
LINE
8
DEFAULT_255_1_388
10
18.7382713
20
0.0622696
11
18.7382713
21
-0.0217619
0
LINE
8
DEFAULT_255_1_388
10
18.1627007
20
0.5330267
11
17.9603023
21
0.5330267
0
LINE
8
DEFAULT_255_1_388
10
17.9603023
20
0.5330267
11
17.9603023
21
-0.4979404
0
LINE
8
DEFAULT_255_1_388
10
17.9603023
20
-0.4979404
11
18.1428223
21
-0.4979404
0
LINE
8
DEFAULT_255_1_388
10
18.566594
20
-0.0181477
11
18.566594
21
0.0586553
0
ARC
8
DEFAULT_255_1_388
10
18.1625624
20
0.0159436
40
0.6598608
50
75.4100343
51
90.3802731
0
ARC
8
DEFAULT_255_1_388
10
18.1883869
20
0.1235691
40
0.5492049
50
60.1455157
51
75.1889627
0
ARC
8
DEFAULT_255_1_388
10
18.2062461
20
0.1546914
40
0.5133226
50
26.525419
51
60.1451222
0
ARC
8
DEFAULT_255_1_388
10
18.0802247
20
0.0878642
40
0.6559324
50
7.4029944
51
26.832209
0
ARC
8
DEFAULT_255_1_388
10
17.9008644
20
0.0599229
40
0.8374103
50
0.1605597
51
7.7176135
0
ARC
8
DEFAULT_255_1_388
10
17.9193044
20
-0.0260679
40
0.8189782
50
348.7289744
51
0.30125
0
ARC
8
DEFAULT_255_1_388
10
18.1056508
20
-0.0630844
40
0.628991
50
333.0706936
51
348.7181455
0
ARC
8
DEFAULT_255_1_388
10
18.2144137
20
-0.1221551
40
0.5052808
50
299.2531435
51
333.4571133
0
ARC
8
DEFAULT_255_1_388
10
18.1738167
20
-0.0450371
40
0.5924066
50
278.1072193
51
299.0340218
0
ARC
8
DEFAULT_255_1_388
10
18.1450216
20
0.1245979
40
0.7644209
50
270.4446841
51
278.4508355
0
ARC
8
DEFAULT_255_1_388
10
18.14737
20
0.02003
40
0.5179903
50
269.4969684
51
284.0204874
0
ARC
8
DEFAULT_255_1_388
10
18.1873418
20
-0.1335585
40
0.3592968
50
283.7699076
51
318.1557121
0
ARC
8
DEFAULT_255_1_388
10
18.1493963
20
-0.1051601
40
0.4065308
50
318.7417595
51
343.687252
0
ARC
8
DEFAULT_255_1_388
10
17.9464542
20
-0.0417725
40
0.6191194
50
343.3324891
51
355.8548594
0
ARC
8
DEFAULT_255_1_388
10
17.710358
20
-0.0193281
40
0.856237
50
355.4988754
51
0.0789913
0
ARC
8
DEFAULT_255_1_388
10
17.7984379
20
0.063408
40
0.7681709
50
359.6455047
51
9.8607559
0
ARC
8
DEFAULT_255_1_388
10
18.0640102
20
0.1113664
40
0.498312
50
9.6573037
51
26.1931522
0
ARC
8
DEFAULT_255_1_388
10
18.1684177
20
0.1598587
40
0.3832303
50
26.5777895
51
40.1533752
0
ARC
8
DEFAULT_255_1_388
10
18.1971842
20
0.182302
40
0.3467742
50
40.3839958
51
80.1430923
0
ARC
8
DEFAULT_255_1_388
10
18.1604098
20
0.0192486
40
0.5137832
50
79.2153636
51
89.7445174
0
LINE
8
DEFAULT_255_2_778
10
11.0359937
20
88.6806525
11
10.9838937
21
89.0179525
0
LINE
8
DEFAULT_255_2_778
10
10.9838937
20
89.0179525
11
10.4068937
21
89.0179525
0
LINE
8
DEFAULT_255_2_778
10
10.4068937
20
89.0179525
11
10.2364937
21
88.6806525
0
LINE
8
DEFAULT_255_2_778
10
10.2364937
20
88.6806525
11
9.8694937
21
88.6806525
0
LINE
8
DEFAULT_255_2_778
10
9.8694937
20
88.6806525
11
10.7531937
21
90.3181525
0
LINE
8
DEFAULT_255_2_778
10
10.7531937
20
90.3181525
11
11.0608937
21
90.3181525
0
LINE
8
DEFAULT_255_2_778
10
11.0608937
20
90.3181525
11
11.3754937
21
88.6806525
0
LINE
8
DEFAULT_255_2_778
10
11.3754937
20
88.6806525
11
11.0357937
21
88.6806525
0
LINE
8
DEFAULT_255_2_778
10
11.0357937
20
88.6806525
11
11.0359937
21
88.6806525
0
LINE
8
DEFAULT_255_2_778
10
10.8486937
20
89.9009525
11
10.5430937
21
89.2913525
0
LINE
8
DEFAULT_255_2_778
10
10.5430937
20
89.2913525
11
10.9418937
21
89.2913525
0
LINE
8
DEFAULT_255_2_778
10
10.9418937
20
89.2913525
11
10.8486937
21
89.9009525
0
LINE
8
DEFAULT_255_2_778
10
10.8486937
20
89.9009525
11
10.8486937
21
89.9009525
0
LINE
8
DEFAULT_255_2_778
10
12.1615563
20
90.4081644
11
11.8593563
21
88.6804644
0
LINE
8
DEFAULT_255_2_778
10
11.8593563
20
88.6804644
11
11.5368563
21
88.6804644
0
LINE
8
DEFAULT_255_2_778
10
11.5368563
20
88.6804644
11
11.8400563
21
90.4081644
0
LINE
8
DEFAULT_255_2_778
10
11.8400563
20
90.4081644
11
12.1615563
21
90.4081644
0
LINE
8
DEFAULT_255_2_778
10
12.1615563
20
90.4081644
11
12.1615563
21
90.4081644
0
LINE
8
DEFAULT_255_2_778
10
12.7717604
20
90.4081644
11
12.4695604
21
88.6804644
0
LINE
8
DEFAULT_255_2_778
10
12.4695604
20
88.6804644
11
12.1470604
21
88.6804644
0
LINE
8
DEFAULT_255_2_778
10
12.1470604
20
88.6804644
11
12.4502604
21
90.4081644
0
LINE
8
DEFAULT_255_2_778
10
12.4502604
20
90.4081644
11
12.7717604
21
90.4081644
0
LINE
8
DEFAULT_255_2_778
10
12.7717604
20
90.4081644
11
12.7717604
21
90.4081644
0
ARC
8
DEFAULT_255_2_778
10
13.3179366
20
89.1957548
40
0.5378315
50
238.7482666
51
270.7109536
0
ARC
8
DEFAULT_255_2_778
10
13.286767
20
89.1409517
40
0.4748131
50
204.061185
51
238.5328679
0
ARC
8
DEFAULT_255_2_778
10
13.3692148
20
89.180498
40
0.5662261
50
179.4927176
51
204.3136716
0
ARC
8
DEFAULT_255_2_778
10
13.4925723
20
89.1850071
40
0.6895616
50
175.1202382
51
179.9581224
0
ARC
8
DEFAULT_255_2_778
10
13.5850524
20
89.2200148
40
0.7790728
50
149.5392097
51
174.9446897
0
ARC
8
DEFAULT_255_2_778
10
13.4591885
20
89.3035209
40
0.628301
50
120.7003982
51
150.2846053
0
ARC
8
DEFAULT_255_2_778
10
13.4196896
20
89.363202
40
0.556829
50
89.4236852
51
120.3409826
0
ARC
8
DEFAULT_255_2_778
10
13.4252397
20
89.2644668
40
0.6555361
50
88.4553682
51
89.9955718
0
ARC
8
DEFAULT_255_2_778
10
13.4483886
20
89.4501663
40
0.4696303
50
58.00918
51
90.668398
0
ARC
8
DEFAULT_255_2_778
10
13.4737532
20
89.5112648
40
0.4045188
50
35.6383534
51
56.4712999
0
ARC
8
DEFAULT_255_2_778
10
13.3641928
20
89.4382054
40
0.5361477
50
0.6851965
51
35.1616077
0
ARC
8
DEFAULT_255_2_778
10
13.1616358
20
89.4178226
40
0.7391521
50
359.9888194
51
2.0774415
0
ARC
8
DEFAULT_255_2_778
10
13.048007
20
89.4195245
40
0.852783
50
353.383538
51
359.8759623
0
ARC
8
DEFAULT_255_2_778
10
13.5342255
20
89.1671115
40
0.4107176
50
177.8018731
51
179.9839782
0
ARC
8
DEFAULT_255_2_778
10
13.3756263
20
89.1556236
40
0.2523852
50
177.3650374
51
219.8309448
0
ARC
8
DEFAULT_255_2_778
10
13.3462113
20
89.1423398
40
0.2214564
50
222.0668323
51
271.55222
0
ARC
8
DEFAULT_255_2_778
10
13.3632047
20
89.3471286
40
0.4263057
50
268.5221572
51
269.9980687
0
ARC
8
DEFAULT_255_2_778
10
13.3616046
20
89.3175214
40
0.3967017
50
270.2290309
51
318.5203973
0
ARC
8
DEFAULT_255_2_778
10
13.4309183
20
89.1343033
40
0.4555793
50
292.5203086
51
325.2867508
0
ARC
8
DEFAULT_255_2_778
10
13.3411537
20
89.3135291
40
0.6556743
50
269.6199197
51
293.7677355
0
ARC
8
DEFAULT_255_2_778
10
13.3368073
20
89.3997425
40
0.7418734
50
269.0811318
51
269.9997688
0
ARC
8
DEFAULT_255_2_778
10
13.4205293
20
89.392692
40
0.2651471
50
88.6426469
51
89.9972013
0
ARC
8
DEFAULT_255_2_778
10
13.4187438
20
89.4276017
40
0.2302444
50
89.5524386
51
130.4678957
0
ARC
8
DEFAULT_255_2_778
10
13.5177956
20
89.3277549
40
0.3706419
50
132.099436
51
154.4479603
0
ARC
8
DEFAULT_255_2_778
10
13.9202814
20
89.1096946
40
0.8281414
50
152.8476017
51
159.2006434
0
ARC
8
DEFAULT_255_2_778
10
13.2837195
20
89.4812265
40
0.3137404
50
351.1327381
51
359.8552777
0
ARC
8
DEFAULT_255_2_778
10
13.3301789
20
89.480827
40
0.2672803
50
359.9157472
51
8.073482
0
ARC
8
DEFAULT_255_2_778
10
13.4328771
20
89.4961273
40
0.1634528
50
7.8192239
51
49.4174523
0
ARC
8
DEFAULT_255_2_778
10
13.4309381
20
89.4829374
40
0.174876
50
51.746929
51
91.3525911
0
LINE
8
DEFAULT_255_2_778
10
12.8055101
20
89.2436647
11
12.8090101
21
89.2886647
0
LINE
8
DEFAULT_255_2_778
10
13.8951101
20
89.3212647
11
13.8768101
21
89.1828647
0
LINE
8
DEFAULT_255_2_778
10
13.8768101
20
89.1828647
11
13.1238101
21
89.1828647
0
LINE
8
DEFAULT_255_2_778
10
13.6588101
20
89.0547647
11
13.8054101
21
88.8748647
0
LINE
8
DEFAULT_255_2_778
10
13.3249101
20
88.6579647
11
13.3246101
21
88.6579647
0
LINE
8
DEFAULT_255_2_778
10
13.1461101
20
89.4037647
11
13.5868101
21
89.4037647
0
LINE
8
DEFAULT_255_2_778
10
13.5868101
20
89.4037647
11
13.5937101
21
89.4328647
0
LINE
8
DEFAULT_255_2_778
10
13.4268101
20
89.6577647
11
13.4268101
21
89.6577647
0
ARC
8
DEFAULT_255_2_778
10
14.7973639
20
89.4763787
40
0.4439397
50
89.8554796
51
141.1589213
0
ARC
8
DEFAULT_255_2_778
10
14.7984623
20
89.4154434
40
0.5048737
50
88.7717605
51
89.9975792
0
ARC
8
DEFAULT_255_2_778
10
14.8177986
20
89.6043073
40
0.3160085
50
50.4886222
51
91.5439082
0
ARC
8
DEFAULT_255_2_778
10
14.8336497
20
89.6383334
40
0.279831
50
33.8736836
51
48.5596173
0
ARC
8
DEFAULT_255_2_778
10
14.7319901
20
89.5798291
40
0.3969262
50
4.3932888
51
32.7062485
0
ARC
8
DEFAULT_255_2_778
10
14.4819116
20
89.5444305
40
0.6491822
50
359.8769204
51
5.8177478
0
ARC
8
DEFAULT_255_2_778
10
14.2701855
20
89.5453886
40
0.8609097
50
353.9399056
51
359.8434284
0
ARC
8
DEFAULT_255_2_778
10
14.4164098
20
89.5110971
40
0.3954956
50
352.2407688
51
359.7520116
0
ARC
8
DEFAULT_255_2_778
10
14.5202048
20
89.5099046
40
0.2916973
50
359.8980094
51
5.448398
0
ARC
8
DEFAULT_255_2_778
10
14.6813818
20
89.5269921
40
0.1296374
50
4.6940531
51
97.2220795
0
ARC
8
DEFAULT_255_2_778
10
14.6560011
20
89.4013535
40
0.2544097
50
87.9539208
51
89.9945997
0
ARC
8
DEFAULT_255_2_778
10
14.6629498
20
89.3857672
40
0.2700847
50
91.4691634
51
141.078713
0
ARC
8
DEFAULT_255_2_778
10
14.7966427
20
89.2439305
40
0.4639576
50
137.8219849
51
140.394746
0
ARC
8
DEFAULT_255_2_778
10
16.9661212
20
89.2907114
40
1.026426
50
77.5141066
51
90.4821212
0
ARC
8
DEFAULT_255_2_778
10
17.0845849
20
89.7999615
40
0.5036389
50
52.814306
51
78.1469212
0
ARC
8
DEFAULT_255_2_778
10
17.1732296
20
89.9282442
40
0.3479303
50
357.5432245
51
51.6759047
0
ARC
8
DEFAULT_255_2_778
10
16.9814664
20
89.9136942
40
0.5393738
50
356.248244
51
359.9613012
0
ARC
8
DEFAULT_255_2_778
10
17.1280971
20
89.9010887
40
0.3922439
50
295.0867564
51
356.6841236
0
ARC
8
DEFAULT_255_2_778
10
16.9599205
20
90.1638283
40
0.7026958
50
292.6018649
51
298.4245718
0
ARC
8
DEFAULT_255_2_778
10
17.1412886
20
89.2511754
40
0.2784307
50
29.5992916
51
71.4243751
0
ARC
8
DEFAULT_255_2_778
10
17.068627
20
89.2089732
40
0.3624559
50
358.8250622
51
29.7265593
0
ARC
8
DEFAULT_255_2_778
10
16.9320761
20
89.2018266
40
0.4989307
50
356.3312443
51
359.9671937
0
ARC
8
DEFAULT_255_2_778
10
16.9581976
20
89.1830391
40
0.4719696
50
307.6792206
51
358.4048608
0
ARC
8
DEFAULT_255_2_778
10
16.8807091
20
89.3039032
40
0.6151191
50
279.1036857
51
306.5102495
0
ARC
8
DEFAULT_255_2_778
10
16.7960556
20
89.7265075
40
1.0459276
50
269.6345468
51
280.0197549
0
ARC
8
DEFAULT_255_2_778
10
16.8094263
20
89.2910312
40
0.3407431
50
267.9747348
51
304.6141501
0
ARC
8
DEFAULT_255_2_778
10
16.8659337
20
89.2050876
40
0.2379242
50
305.1715522
51
352.2494421
0
ARC
8
DEFAULT_255_2_778
10
16.7753078
20
89.2255764
40
0.3305841
50
350.8489355
51
359.6877324
0
ARC
8
DEFAULT_255_2_778
10
16.9353204
20
89.2312566
40
0.1707306
50
357.4883473
51
35.7479989
0
ARC
8
DEFAULT_255_2_778
10
16.9423523
20
89.2171967
40
0.1739313
50
40.8670445
51
88.9145542
0
ARC
8
DEFAULT_255_2_778
10
16.9113408
20
89.0319796
40
0.360752
50
84.5431107
51
87.5464559
0
ARC
8
DEFAULT_255_2_778
10
16.8864574
20
90.0040692
40
0.3741259
50
268.9933192
51
299.9063201
0
ARC
8
DEFAULT_255_2_778
10
16.9296486
20
89.9112442
40
0.2722705
50
301.7671328
51
305.0688299
0
ARC
8
DEFAULT_255_2_778
10
16.9572454
20
89.8751467
40
0.2268776
50
304.6024496
51
352.3134516
0
ARC
8
DEFAULT_255_2_778
10
16.9035259
20
89.8858326
40
0.2815642
50
351.6205962
51
359.745937
0
ARC
8
DEFAULT_255_2_778
10
17.0391826
20
89.8919088
40
0.1460884
50
357.1260689
51
87.9509322
0
ARC
8
DEFAULT_255_2_778
10
16.9733217
20
89.6125682
40
0.4312349
50
80.5121161
51
90.1776895
0
ARC
8
DEFAULT_255_2_778
10
18.3042143
20
88.9393008
40
0.664871
50
79.3415907
51
88.7012121
0
ARC
8
DEFAULT_255_2_778
10
18.3079734
20
89.1741844
40
0.4299655
50
88.4925657
51
89.9946723
0
ARC
8
DEFAULT_255_2_778
10
18.2982489
20
89.2942612
40
0.3100425
50
88.1952228
51
143.885382
0
ARC
8
DEFAULT_255_2_778
10
18.4077856
20
89.5392133
40
0.3980768
50
117.0828142
51
147.9763761
0
ARC
8
DEFAULT_255_2_778
10
18.3544798
20
89.6225299
40
0.2997784
50
89.5977622
51
115.2613452
0
ARC
8
DEFAULT_255_2_778
10
18.3464672
20
89.4503486
40
0.4720608
50
75.0830674
51
88.7719532
0
ARC
8
DEFAULT_255_2_778
10
19.3903609
20
88.7681147
40
0.3055376
50
178.9459886
51
196.683202
0
ARC
8
DEFAULT_255_2_778
10
19.5598443
20
88.7735591
40
0.4749693
50
177.9317115
51
179.9787783
0
ARC
8
DEFAULT_255_2_778
10
18.7787767
20
89.0772759
40
0.4195364
50
270.5424502
51
316.9155886
0
ARC
8
DEFAULT_255_2_778
10
18.7827754
20
89.0879313
40
0.4301731
50
268.5225954
51
269.9964357
0
ARC
8
DEFAULT_255_2_778
10
18.7647268
20
89.0360257
40
0.3781887
50
226.455184
51
271.0541416
0
ARC
8
DEFAULT_255_2_778
10
18.7161212
20
88.9906874
40
0.311866
50
179.0506747
51
227.1894377
0
ARC
8
DEFAULT_255_2_778
10
18.7977057
20
88.9957687
40
0.3934079
50
177.4603384
51
179.9875271
0
ARC
8
DEFAULT_255_2_778
10
18.7677273
20
89.0117897
40
0.3630457
50
122.3464314
51
179.7772632
0
ARC
8
DEFAULT_255_2_778
10
18.9127985
20
88.7846954
40
0.6325207
50
98.6998081
51
122.4421258
0
ARC
8
DEFAULT_255_2_778
10
18.9976189
20
88.3303298
40
1.0945926
50
89.6406316
51
99.4911935
0
ARC
8
DEFAULT_255_2_778
10
18.9114251
20
89.5449564
40
0.2635833
50
349.2520325
51
359.7979352
0
ARC
8
DEFAULT_255_2_778
10
18.9485947
20
89.544184
40
0.2264121
50
359.9602232
51
5.7075699
0
ARC
8
DEFAULT_255_2_778
10
19.0522609
20
89.5585913
40
0.1218935
50
3.8147671
51
48.088014
0
ARC
8
DEFAULT_255_2_778
10
19.046106
20
89.5409033
40
0.1393558
50
51.0640414
51
91.6537281
0
ARC
8
DEFAULT_255_2_778
10
19.0343915
20
89.406786
40
0.2735232
50
88.3883484
51
89.9950272
0
ARC
8
DEFAULT_255_2_778
10
19.0289523
20
89.4847
40
0.1956856
50
88.4002709
51
125.6558116
0
ARC
8
DEFAULT_255_2_778
10
19.0229528
20
89.5029871
40
0.1774238
50
127.5242925
51
170.6536699
0
ARC
8
DEFAULT_255_2_778
10
18.8791361
20
89.5165349
40
0.3530361
50
122.7052892
51
177.7003103
0
ARC
8
DEFAULT_255_2_778
10
19.0302031
20
89.3117048
40
0.6072396
50
91.7146868
51
124.2570002
0
ARC
8
DEFAULT_255_2_778
10
19.0589351
20
89.0548069
40
0.865138
50
89.9735854
51
93.1077226
0
ARC
8
DEFAULT_255_2_778
10
19.0592989
20
88.9982564
40
0.9216883
50
89.4414218
51
89.9978259
0
ARC
8
DEFAULT_255_2_778
10
19.0704754
20
89.3993386
40
0.520567
50
63.7067915
51
90.2411542
0
ARC
8
DEFAULT_255_2_778
10
19.1246011
20
89.5276174
40
0.3816745
50
44.83019
51
62.4611334
0
ARC
8
DEFAULT_255_2_778
10
19.1508951
20
89.5518715
40
0.3459301
50
358.4425916
51
45.0515508
0
ARC
8
DEFAULT_255_2_778
10
18.9988338
20
89.5432105
40
0.4978641
50
354.0152108
51
359.914738
0
ARC
8
DEFAULT_255_2_778
10
19.9163891
20
88.820901
40
0.5223437
50
178.2666392
51
179.9853875
0
ARC
8
DEFAULT_255_2_778
10
19.7189775
20
88.8130639
40
0.3250299
50
178.5948625
51
200.018038
0
ARC
8
DEFAULT_255_2_778
10
18.86078
20
89.2019839
40
0.2979407
50
268.1351457
51
269.9967975
0
ARC
8
DEFAULT_255_2_778
10
18.8555194
20
89.1994813
40
0.2954847
50
271.0168715
51
323.4470831
0
ARC
8
DEFAULT_255_2_778
10
19.0184895
20
88.8398385
40
0.3950717
50
89.6091673
51
115.9612033
0
ARC
8
DEFAULT_255_2_778
10
18.9565919
20
88.9813998
40
0.2407817
50
117.464938
51
142.4931944
0
ARC
8
DEFAULT_255_2_778
10
18.9147945
20
89.0179767
40
0.1853888
50
143.595728
51
174.110017
0
ARC
8
DEFAULT_255_2_778
10
18.8922762
20
89.0124249
40
0.1637466
50
171.368069
51
179.7835889
0
ARC
8
DEFAULT_255_2_778
10
18.8267258
20
89.0093092
40
0.098266
50
177.8221965
51
224.0379617
0
ARC
8
DEFAULT_255_2_778
10
18.8464627
20
89.0343521
40
0.1299333
50
225.9269812
51
272.0384171
0
ARC
8
DEFAULT_255_2_778
10
20.2168963
20
89.5693026
40
0.3516987
50
37.8288211
51
89.9204906
0
ARC
8
DEFAULT_255_2_778
10
20.03468
20
89.0792422
40
0.4267183
50
285.291584
51
321.0175046
0
ARC
8
DEFAULT_255_2_778
10
20.057072
20
89.0330229
40
0.3763475
50
269.8450062
51
283.8588709
0
ARC
8
DEFAULT_255_2_778
10
20.0560638
20
89.065729
40
0.4090522
50
268.5880369
51
269.9986183
0
ARC
8
DEFAULT_255_2_778
10
20.0420356
20
89.0125491
40
0.3557701
50
236.3475668
51
270.6359501
0
ARC
8
DEFAULT_255_2_778
10
20.0598192
20
89.0240325
40
0.3752788
50
201.8435891
51
235.058908
0
ARC
8
DEFAULT_255_2_778
10
20.3322262
20
89.1430876
40
0.6724873
50
181.1917384
51
202.6233367
0
ARC
8
DEFAULT_255_2_778
10
20.6256166
20
89.1756758
40
0.9668546
50
180.0152485
51
182.7610867
0
ARC
8
DEFAULT_255_2_778
10
20.5386208
20
89.1763256
40
0.8798592
50
174.1240635
51
180.0590752
0
ARC
8
DEFAULT_255_2_778
10
20.6346089
20
89.1896473
40
0.9727968
50
152.6606942
51
172.4775279
0
ARC
8
DEFAULT_255_2_778
10
20.4685426
20
89.2641273
40
0.7911386
50
151.1967159
51
151.9287309
0
ARC
8
DEFAULT_255_2_778
10
20.2724467
20
89.3881661
40
0.559722
50
125.8155177
51
152.6517649
0
ARC
8
DEFAULT_255_2_778
10
20.1926915
20
89.4826793
40
0.4365104
50
121.2895022
51
124.5859333
0
ARC
8
DEFAULT_255_2_778
10
20.2005225
20
89.4683259
40
0.4528439
50
89.3885498
51
121.1930117
0
ARC
8
DEFAULT_255_2_778
10
20.2053201
20
89.3865497
40
0.5345942
50
88.6747242
51
89.9962477
0
ARC
8
DEFAULT_255_2_778
10
21.0391911
20
89.148566
40
1.0611693
50
173.6245819
51
179.5659998
0
ARC
8
DEFAULT_255_2_778
10
20.5670945
20
89.1556411
40
0.5890432
50
179.9063318
51
183.2252116
0
ARC
8
DEFAULT_255_2_778
10
20.2705391
20
89.1271495
40
0.2915917
50
180.9134286
51
207.6247443
0
ARC
8
DEFAULT_255_2_778
10
20.1350101
20
89.0627886
40
0.1417894
50
209.9763709
51
272.172214
0
ARC
8
DEFAULT_255_2_778
10
20.1512133
20
89.1865388
40
0.2656585
50
267.6638236
51
269.9934853
0
ARC
8
DEFAULT_255_2_778
10
20.145272
20
89.1903966
40
0.2695812
50
271.2564257
51
323.4819236
0
ARC
8
DEFAULT_255_2_778
10
20.0042494
20
89.3292429
40
0.4663623
50
320.0808185
51
322.7722781
0
ARC
8
DEFAULT_255_2_778
10
20.2906006
20
89.4755943
40
0.1811681
50
17.7085133
51
91.4917236
0
ARC
8
DEFAULT_255_2_778
10
20.2776517
20
89.3748306
40
0.2819906
50
88.3270304
51
89.9962875
0
ARC
8
DEFAULT_255_2_778
10
20.275189
20
89.422989
40
0.2338453
50
89.3920923
51
141.8934507
0
ARC
8
DEFAULT_255_2_778
10
20.4150423
20
89.3133728
40
0.411538
50
141.9009784
51
164.0634131
0
ARC
8
DEFAULT_255_2_778
10
20.9401665
20
89.1456389
40
0.9626867
50
163.0454941
51
172.7936709
0
LINE
8
DEFAULT_255_2_778
10
14.1790844
20
89.897701
11
14.4788844
21
89.898801
0
LINE
8
DEFAULT_255_2_778
10
14.4788844
20
89.898801
11
14.4515844
21
89.754801
0
LINE
8
DEFAULT_255_2_778
10
15.1262844
20
89.454501
11
14.9968844
21
88.680601
0
LINE
8
DEFAULT_255_2_778
10
14.9968844
20
88.680601
11
14.6764844
21
88.680601
0
LINE
8
DEFAULT_255_2_778
10
14.6764844
20
88.680601
11
14.8082844
21
89.457701
0
LINE
8
DEFAULT_255_2_778
10
14.4391844
20
89.539701
11
14.2856844
21
88.680401
0
LINE
8
DEFAULT_255_2_778
10
14.2856844
20
88.680401
11
13.9652844
21
88.680401
0
LINE
8
DEFAULT_255_2_778
10
13.9652844
20
88.680401
11
14.1787844
21
89.897501
0
LINE
8
DEFAULT_255_2_778
10
14.1787844
20
89.897501
11
14.1790844
21
89.897701
0
LINE
8
DEFAULT_255_2_778
10
16.0157844
20
89.512701
11
15.9691844
21
89.250801
0
LINE
8
DEFAULT_255_2_778
10
15.9691844
20
89.250801
11
15.3466844
21
89.250801
0
LINE
8
DEFAULT_255_2_778
10
15.3466844
20
89.250801
11
15.3921844
21
89.512701
0
LINE
8
DEFAULT_255_2_778
10
15.3921844
20
89.512701
11
16.0157844
21
89.512701
0
LINE
8
DEFAULT_255_2_778
10
16.0157844
20
89.512701
11
16.0157844
21
89.512701
0
LINE
8
DEFAULT_255_2_778
10
16.7893844
20
88.680601
11
16.1544844
21
88.680601
0
LINE
8
DEFAULT_255_2_778
10
16.1544844
20
88.680601
11
16.4417844
21
90.318101
0
LINE
8
DEFAULT_255_2_778
10
16.4417844
20
90.318101
11
16.9574844
21
90.317101
0
LINE
8
DEFAULT_255_2_778
10
16.7893844
20
88.680601
11
16.7893844
21
88.680601
0
LINE
8
DEFAULT_255_2_778
10
16.9267844
20
89.392601
11
16.6131844
21
89.393701
0
LINE
8
DEFAULT_255_2_778
10
16.6131844
20
89.393701
11
16.5348844
21
88.951601
0
LINE
8
DEFAULT_255_2_778
10
16.5348844
20
88.951601
11
16.7973844
21
88.950501
0
LINE
8
DEFAULT_255_2_778
10
16.9267844
20
89.392401
11
16.9267844
21
89.392601
0
LINE
8
DEFAULT_255_2_778
10
16.7266844
20
90.045101
11
16.6539844
21
89.632301
0
LINE
8
DEFAULT_255_2_778
10
16.6539844
20
89.632301
11
16.8798844
21
89.630001
0
LINE
8
DEFAULT_255_2_778
10
16.9719844
20
90.043801
11
16.7266844
21
90.044801
0
LINE
8
DEFAULT_255_2_778
10
16.7266844
20
90.044801
11
16.7266844
21
90.045101
0
LINE
8
DEFAULT_255_2_778
10
18.4681844
20
89.906501
11
18.4271844
21
89.592701
0
LINE
8
DEFAULT_255_2_778
10
18.0477844
20
89.477001
11
17.9056844
21
88.680601
0
LINE
8
DEFAULT_255_2_778
10
17.9056844
20
88.680601
11
17.5852844
21
88.680601
0
LINE
8
DEFAULT_255_2_778
10
17.5852844
20
88.680601
11
17.7987844
21
89.897701
0
LINE
8
DEFAULT_255_2_778
10
17.7987844
20
89.897701
11
18.0998844
21
89.898801
0
LINE
8
DEFAULT_255_2_778
10
18.0998844
20
89.898801
11
18.0702844
21
89.750301
0
LINE
8
DEFAULT_255_2_778
10
18.4679844
20
89.906501
11
18.4681844
21
89.906501
0
LINE
8
DEFAULT_255_2_778
10
19.4122844
20
88.680401
11
19.0976844
21
88.680401
0
LINE
8
DEFAULT_255_2_778
10
19.0044844
20
89.424901
11
19.1545844
21
89.422801
0
LINE
8
DEFAULT_255_2_778
10
19.1545844
20
89.422801
11
19.1703844
21
89.495801
0
LINE
8
DEFAULT_255_2_778
10
18.8478844
20
89.531801
11
18.5263844
21
89.530701
0
LINE
8
DEFAULT_255_2_778
10
19.4939844
20
89.491301
11
19.3997844
21
88.908701
0
LINE
8
DEFAULT_255_2_778
10
19.3997844
20
88.908701
11
19.3942844
21
88.836701
0
LINE
8
DEFAULT_255_2_778
10
19.4135844
20
88.701801
11
19.4124844
21
88.680401
0
LINE
8
DEFAULT_255_2_778
10
19.4124844
20
88.680401
11
19.4122844
21
88.680401
0
LINE
8
DEFAULT_255_2_778
10
19.0928844
20
89.023501
11
19.1325844
21
89.233901
0
LINE
8
DEFAULT_255_2_778
10
19.1325844
20
89.233901
11
19.0211844
21
89.234901
0
LINE
8
DEFAULT_255_2_778
10
18.8510844
20
88.904501
11
18.8510844
21
88.904201
0
LINE
8
DEFAULT_255_2_778
10
20.4946844
20
89.785001
11
20.6150844
21
90.408101
0
LINE
8
DEFAULT_255_2_778
10
20.6150844
20
90.408101
11
20.9364844
21
90.408101
0
LINE
8
DEFAULT_255_2_778
10
20.9364844
20
90.408101
11
20.6343844
21
88.680401
0
LINE
8
DEFAULT_255_2_778
10
20.6343844
20
88.680401
11
20.3480844
21
88.680401
0
LINE
8
DEFAULT_255_2_778
10
20.3480844
20
88.680401
11
20.3663844
21
88.810801
0
LINE
8
DEFAULT_255_2_778
10
19.6633844
20
89.266401
11
19.6701844
21
89.317001
0
LINE
8
DEFAULT_255_2_778
10
20.2176844
20
89.921001
11
20.2173844
21
89.921001
0
LINE
8
DEFAULT_255_2_778
10
20.3755844
20
89.047101
11
20.4631844
21
89.530701
0
LINE
8
DEFAULT_255_2_778
10
19.9850844
20
89.266401
11
19.9845844
21
89.266401
0
LINE
8
DEFAULT_255_2_778
10
21.5304644
20
90.4081644
11
21.2282644
21
88.6804644
0
LINE
8
DEFAULT_255_2_778
10
21.2282644
20
88.6804644
11
20.9057644
21
88.6804644
0
LINE
8
DEFAULT_255_2_778
10
20.9057644
20
88.6804644
11
21.2089644
21
90.4081644
0
LINE
8
DEFAULT_255_2_778
10
21.2089644
20
90.4081644
11
21.5304644
21
90.4081644
0
LINE
8
DEFAULT_255_2_778
10
21.5304644
20
90.4081644
11
21.5304644
21
90.4081644
0
ARC
8
DEFAULT_255_2_778
10
22.0767366
20
89.1957548
40
0.5378315
50
238.7482666
51
270.7109536
0
ARC
8
DEFAULT_255_2_778
10
22.045567
20
89.1409517
40
0.4748131
50
204.061185
51
238.5328679
0
ARC
8
DEFAULT_255_2_778
10
22.1280148
20
89.180498
40
0.5662261
50
179.4927176
51
204.3136716
0
ARC
8
DEFAULT_255_2_778
10
22.2513723
20
89.1850071
40
0.6895616
50
175.1202382
51
179.9581224
0
ARC
8
DEFAULT_255_2_778
10
22.3438524
20
89.2200148
40
0.7790728
50
149.5392097
51
174.9446897
0
ARC
8
DEFAULT_255_2_778
10
22.2179885
20
89.3035209
40
0.628301
50
120.7003982
51
150.2846053
0
ARC
8
DEFAULT_255_2_778
10
22.1784896
20
89.363202
40
0.556829
50
89.4236852
51
120.3409826
0
ARC
8
DEFAULT_255_2_778
10
22.1840397
20
89.2644668
40
0.6555361
50
88.4553682
51
89.9955718
0
ARC
8
DEFAULT_255_2_778
10
22.2071886
20
89.4501663
40
0.4696303
50
58.00918
51
90.668398
0
ARC
8
DEFAULT_255_2_778
10
22.2325532
20
89.5112648
40
0.4045188
50
35.6383534
51
56.4712999
0
ARC
8
DEFAULT_255_2_778
10
22.1229928
20
89.4382054
40
0.5361477
50
0.6851965
51
35.1616077
0
ARC
8
DEFAULT_255_2_778
10
21.9204358
20
89.4178226
40
0.7391521
50
359.9888194
51
2.0774415
0
ARC
8
DEFAULT_255_2_778
10
21.806807
20
89.4195245
40
0.852783
50
353.383538
51
359.8759623
0
ARC
8
DEFAULT_255_2_778
10
22.2930255
20
89.1671115
40
0.4107176
50
177.8018731
51
179.9839782
0
ARC
8
DEFAULT_255_2_778
10
22.1344263
20
89.1556236
40
0.2523852
50
177.3650374
51
219.8309448
0
ARC
8
DEFAULT_255_2_778
10
22.1050113
20
89.1423398
40
0.2214564
50
222.0668323
51
271.55222
0
ARC
8
DEFAULT_255_2_778
10
22.1220047
20
89.3471286
40
0.4263057
50
268.5221572
51
269.9980687
0
ARC
8
DEFAULT_255_2_778
10
22.1204046
20
89.3175214
40
0.3967017
50
270.2290309
51
318.5203973
0
ARC
8
DEFAULT_255_2_778
10
22.1897183
20
89.1343033
40
0.4555793
50
292.5203086
51
325.2867508
0
ARC
8
DEFAULT_255_2_778
10
22.0999537
20
89.3135291
40
0.6556743
50
269.6199197
51
293.7677355
0
ARC
8
DEFAULT_255_2_778
10
22.0956073
20
89.3997425
40
0.7418734
50
269.0811318
51
269.9997688
0
ARC
8
DEFAULT_255_2_778
10
22.1793293
20
89.392692
40
0.2651471
50
88.6426469
51
89.9972013
0
ARC
8
DEFAULT_255_2_778
10
22.1775438
20
89.4276017
40
0.2302444
50
89.5524386
51
130.4678957
0
ARC
8
DEFAULT_255_2_778
10
22.2765956
20
89.3277549
40
0.3706419
50
132.099436
51
154.4479603
0
ARC
8
DEFAULT_255_2_778
10
22.6790814
20
89.1096946
40
0.8281414
50
152.8476017
51
159.2006434
0
ARC
8
DEFAULT_255_2_778
10
22.0425195
20
89.4812265
40
0.3137404
50
351.1327381
51
359.8552777
0
ARC
8
DEFAULT_255_2_778
10
22.0889789
20
89.480827
40
0.2672803
50
359.9157472
51
8.073482
0
ARC
8
DEFAULT_255_2_778
10
22.1916771
20
89.4961273
40
0.1634528
50
7.8192239
51
49.4174523
0
ARC
8
DEFAULT_255_2_778
10
22.1897381
20
89.4829374
40
0.174876
50
51.746929
51
91.3525911
0
LINE
8
DEFAULT_255_2_778
10
21.5643101
20
89.2436647
11
21.5678101
21
89.2886647
0
LINE
8
DEFAULT_255_2_778
10
22.6539101
20
89.3212647
11
22.6356101
21
89.1828647
0
LINE
8
DEFAULT_255_2_778
10
22.6356101
20
89.1828647
11
21.8826101
21
89.1828647
0
LINE
8
DEFAULT_255_2_778
10
22.4176101
20
89.0547647
11
22.5642101
21
88.8748647
0
LINE
8
DEFAULT_255_2_778
10
22.0837101
20
88.6579647
11
22.0834101
21
88.6579647
0
LINE
8
DEFAULT_255_2_778
10
21.9049101
20
89.4037647
11
22.3456101
21
89.4037647
0
LINE
8
DEFAULT_255_2_778
10
22.3456101
20
89.4037647
11
22.3525101
21
89.4328647
0
LINE
8
DEFAULT_255_2_778
10
22.1856101
20
89.6577647
11
22.1856101
21
89.6577647
0
ARC
8
DEFAULT_255_2_778
10
22.5732275
20
88.7968859
40
0.7187609
50
318.1171527
51
335.3457065
0
ARC
8
DEFAULT_255_2_778
10
22.7861362
20
88.6147597
40
0.4387075
50
306.2044829
51
317.2623563
0
ARC
8
DEFAULT_255_2_778
10
22.8118611
20
88.5840074
40
0.3987066
50
269.0092455
51
305.8318035
0
ARC
8
DEFAULT_255_2_778
10
22.8209727
20
88.7486265
40
0.5634934
50
257.9736769
51
268.3723286
0
ARC
8
DEFAULT_255_2_778
10
22.9764694
20
89.6028284
40
1.431581
50
256.8370098
51
259.0102636
0
ARC
8
DEFAULT_255_2_778
10
22.7299242
20
88.8508821
40
0.396887
50
268.3457775
51
269.9906226
0
ARC
8
DEFAULT_255_2_778
10
22.7446904
20
88.691449
40
0.2379166
50
266.425992
51
328.6474802
0
LINE
8
DEFAULT_255_2_778
10
23.149167
20
89.8974604
11
23.237867
21
89.1439604
0
LINE
8
DEFAULT_255_2_778
10
23.237867
20
89.1439604
11
23.588967
21
89.8974604
0
LINE
8
DEFAULT_255_2_778
10
23.588967
20
89.8974604
11
23.945367
21
89.8974604
0
LINE
8
DEFAULT_255_2_778
10
23.945367
20
89.8974604
11
23.226467
21
88.4970604
0
LINE
8
DEFAULT_255_2_778
10
22.650467
20
88.2088604
11
22.674267
21
88.4562604
0
LINE
8
DEFAULT_255_2_778
10
22.674267
20
88.4562604
11
22.718467
21
88.4541604
0
LINE
8
DEFAULT_255_2_778
10
22.947867
20
88.5676604
11
23.018267
21
88.6970604
0
LINE
8
DEFAULT_255_2_778
10
23.018267
20
88.6970604
11
22.817167
21
89.8971604
0
LINE
8
DEFAULT_255_2_778
10
22.817167
20
89.8971604
11
23.148967
21
89.8971604
0
LINE
8
DEFAULT_255_2_778
10
23.148967
20
89.8971604
11
23.149167
21
89.8974604
0
LINE
8
DEFAULT_255_2_778
10
5.4244545
20
90.2969662
11
5.4244545
21
89.1116662
0
LINE
8
DEFAULT_255_2_778
10
5.4244545
20
89.1116662
11
8.3507545
21
89.0746662
0
LINE
8
DEFAULT_255_2_778
10
8.3507545
20
89.0746662
11
8.3507545
21
90.2969662
0
LINE
8
DEFAULT_255_2_778
10
8.3507545
20
90.2969662
11
7.4246545
21
91.1489662
0
LINE
8
DEFAULT_255_2_778
10
7.4246545
20
91.1489662
11
6.2764545
21
91.1489662
0
LINE
8
DEFAULT_255_2_778
10
6.2764545
20
91.1489662
11
5.4244545
21
90.2969662
0
LINE
8
DEFAULT_255_2_778
10
5.5726545
20
88.8894662
11
8.2025545
21
88.8894662
0
LINE
8
DEFAULT_255_2_778
10
8.2025545
20
88.8894662
11
7.4617545
21
88.1856662
0
LINE
8
DEFAULT_255_2_778
10
7.4617545
20
88.1856662
11
6.3504545
21
88.1856662
0
LINE
8
DEFAULT_255_2_778
10
6.3504545
20
88.1856662
11
5.5726545
21
88.8894662
0
ARC
8
DEFAULT_255_2_778
10
7.8458236
20
89.4385762
40
0.1423419
50
264.5115721
51
318.4176283
0
ARC
8
DEFAULT_255_2_778
10
7.8189888
20
89.4356218
40
0.1616977
50
325.5297452
51
3.3557414
0
ARC
8
DEFAULT_255_2_778
10
7.8389804
20
89.7921151
40
0.142084
50
354.4959081
51
48.5537602
0
ARC
8
DEFAULT_255_2_778
10
7.8416454
20
89.7649062
40
0.1619557
50
55.6500697
51
93.3401169
0
ARC
8
DEFAULT_255_2_778
10
7.8414718
20
89.9914243
40
0.0654958
50
261.8698976
51
8.1301024
0
ARC
8
DEFAULT_255_2_778
10
7.7988681
20
90.3741448
40
0.1074847
50
358.3696885
51
95.9524071
0
ARC
8
DEFAULT_255_2_778
10
7.7588849
20
90.1457909
40
0.3364968
50
85.0838783
51
90.1320543
0
LINE
8
DEFAULT_255_2_778
10
5.6838093
20
89.2968868
11
6.1283093
21
90.5192868
0
LINE
8
DEFAULT_255_2_778
10
6.1283093
20
90.5192868
11
6.3876093
21
90.5192868
0
LINE
8
DEFAULT_255_2_778
10
6.3876093
20
90.5192868
11
6.8691093
21
89.3339868
0
LINE
8
DEFAULT_255_2_778
10
6.8691093
20
89.3339868
11
6.5358093
21
89.3339868
0
LINE
8
DEFAULT_255_2_778
10
6.5358093
20
89.3339868
11
6.4246093
21
89.5932868
0
LINE
8
DEFAULT_255_2_778
10
6.4246093
20
89.5932868
11
6.0913093
21
89.5932868
0
LINE
8
DEFAULT_255_2_778
10
6.0913093
20
89.5932868
11
6.0913093
21
89.7413868
0
LINE
8
DEFAULT_255_2_778
10
6.0913093
20
89.7413868
11
6.3876093
21
89.7413868
0
LINE
8
DEFAULT_255_2_778
10
6.3876093
20
89.7413868
11
6.2024093
21
90.1858868
0
LINE
8
DEFAULT_255_2_778
10
6.2024093
20
90.1858868
11
5.8690093
21
89.2968868
0
LINE
8
DEFAULT_255_2_778
10
5.8690093
20
89.2968868
11
5.6838093
21
89.2968868
0
LINE
8
DEFAULT_255_2_778
10
5.6838093
20
89.2968868
11
5.6838093
21
89.2968868
0
LINE
8
DEFAULT_255_2_778
10
6.7580093
20
89.9636868
11
6.9062093
21
89.9636868
0
LINE
8
DEFAULT_255_2_778
10
6.9062093
20
89.9636868
11
6.9062093
21
89.8154868
0
LINE
8
DEFAULT_255_2_778
10
6.9062093
20
89.8154868
11
6.7580093
21
89.8154868
0
LINE
8
DEFAULT_255_2_778
10
6.7580093
20
89.8154868
11
6.7580093
21
89.9636868
0
LINE
8
DEFAULT_255_2_778
10
7.2766093
20
90.2970868
11
7.6100093
21
90.2970868
0
LINE
8
DEFAULT_255_2_778
10
7.6100093
20
90.2970868
11
7.6100093
21
89.9265868
0
LINE
8
DEFAULT_255_2_778
10
7.6100093
20
89.9265868
11
7.3507093
21
89.9265868
0
LINE
8
DEFAULT_255_2_778
10
7.3507093
20
89.9265868
11
7.3507093
21
89.7784868
0
LINE
8
DEFAULT_255_2_778
10
7.3507093
20
89.7784868
11
7.6840093
21
89.7784868
0
LINE
8
DEFAULT_255_2_778
10
7.6840093
20
89.7784868
11
7.6840093
21
89.4450868
0
LINE
8
DEFAULT_255_2_778
10
7.6840093
20
89.4450868
11
7.2766093
21
89.4450868
0
LINE
8
DEFAULT_255_2_778
10
7.2766093
20
89.4450868
11
7.2766093
21
90.2970868
0
LINE
8
DEFAULT_255_2_778
10
7.2766093
20
90.2970868
11
7.2766093
21
90.2970868
0
LINE
8
DEFAULT_255_2_778
10
6.9803093
20
90.4822868
11
6.9803093
21
89.2968868
0
LINE
8
DEFAULT_255_2_778
10
6.9803093
20
89.2968868
11
7.8322093
21
89.2968868
0
LINE
8
DEFAULT_255_2_778
10
7.9804093
20
89.4450868
11
7.9804093
21
89.7784868
0
LINE
8
DEFAULT_255_2_778
10
7.9063093
20
90.0006868
11
7.9063093
21
90.3710868
0
LINE
8
DEFAULT_255_2_778
10
7.7581093
20
90.4822868
11
6.9803093
21
90.4822868
0
LINE
8
DEFAULT_255_2_778
10
6.9803093
20
90.4822868
11
6.9803093
21
90.4822868
0
LINE
8
DEFAULT_255_2_778
10
6.3394426
20
88.50652
11
6.3367426
21
88.50652
0
ARC
8
DEFAULT_255_2_778
10
6.3340483
20
88.6315856
40
0.1250946
50
247.1356448
51
271.2341787
0
ARC
8
DEFAULT_255_2_778
10
6.3160915
20
88.5892166
40
0.0790776
50
215.0349981
51
247.1960091
0
ARC
8
DEFAULT_255_2_778
10
6.3109463
20
88.5838967
40
0.0718243
50
178.625123
51
213.9163394
0
ARC
8
DEFAULT_255_2_778
10
6.3131692
20
88.7009394
40
0.0740421
50
147.0420611
51
181.175799
0
ARC
8
DEFAULT_255_2_778
10
6.3147919
20
88.697063
40
0.0775487
50
112.4780918
51
145.2909011
0
ARC
8
DEFAULT_255_2_778
10
6.3339169
20
88.6526536
40
0.1258981
50
88.7138988
51
112.7934617
0
ARC
8
DEFAULT_255_2_778
10
6.3394809
20
88.653188
40
0.1253619
50
67.159311
51
91.2516049
0
ARC
8
DEFAULT_255_2_778
10
6.3569793
20
88.6951854
40
0.0798654
50
35.1978461
51
67.0331611
0
ARC
8
DEFAULT_255_2_778
10
6.362639
20
88.7011433
40
0.0718243
50
358.625123
51
33.9163394
0
ARC
8
DEFAULT_255_2_778
10
6.3604161
20
88.5841006
40
0.0740421
50
327.0420611
51
1.175799
0
ARC
8
DEFAULT_255_2_778
10
6.361381
20
88.5853221
40
0.0739133
50
291.6436853
51
325.8406333
0
ARC
8
DEFAULT_255_2_778
10
6.3401809
20
88.5943742
40
0.0482768
50
265.9160158
51
308.3617549
0
ARC
8
DEFAULT_255_2_778
10
6.3451719
20
88.5833209
40
0.036631
50
312.9754563
51
3.2850623
0
ARC
8
DEFAULT_255_2_778
10
6.3448152
20
88.7010022
40
0.0369754
50
357.082104
51
47.4006092
0
ARC
8
DEFAULT_255_2_778
10
6.339634
20
88.6908688
40
0.0480383
50
51.0349629
51
93.4505724
0
ARC
8
DEFAULT_255_2_778
10
6.3340454
20
88.6905492
40
0.0483461
50
86.8017862
51
128.8135095
0
ARC
8
DEFAULT_255_2_778
10
6.3287701
20
88.7010022
40
0.0369754
50
132.5993908
51
182.917896
0
ARC
8
DEFAULT_255_2_778
10
6.3284134
20
88.5833209
40
0.036631
50
176.7149377
51
227.0245437
0
ARC
8
DEFAULT_255_2_778
10
6.3334907
20
88.5946862
40
0.0485752
50
231.7867693
51
273.8385805
0
ARC
8
DEFAULT_255_2_778
10
6.5570033
20
88.5830569
40
0.0766655
50
226.2029837
51
273.3195937
0
ARC
8
DEFAULT_255_2_778
10
6.5622798
20
88.5810748
40
0.0790566
50
176.8492311
51
222.4458356
0
ARC
8
DEFAULT_255_2_778
10
6.5699928
20
88.5829649
40
0.043631
50
176.5112098
51
217.639275
0
ARC
8
DEFAULT_255_2_778
10
6.5593878
20
88.5778666
40
0.0322122
50
221.9818643
51
273.6574471
0
ARC
8
DEFAULT_255_2_778
10
6.5632216
20
88.5783153
40
0.0326438
50
266.8760675
51
317.6392064
0
ARC
8
DEFAULT_255_2_778
10
6.5527925
20
88.5829649
40
0.043631
50
322.360725
51
3.4887902
0
ARC
8
DEFAULT_255_2_778
10
6.5605055
20
88.5810748
40
0.0790566
50
317.5541644
51
3.1507689
0
ARC
8
DEFAULT_255_2_778
10
6.5656687
20
88.5833225
40
0.0769357
50
266.6274163
51
313.7210327
0
LINE
8
DEFAULT_255_2_778
10
6.4394426
20
88.44492
11
6.3828426
21
88.44492
0
LINE
8
DEFAULT_255_2_778
10
6.3828426
20
88.44492
11
6.3394426
21
88.50652
0
LINE
8
DEFAULT_255_2_778
10
6.2391426
20
88.58562
11
6.2391426
21
88.69942
0
LINE
8
DEFAULT_255_2_778
10
6.4344426
20
88.69942
11
6.4344426
21
88.58562
0
LINE
8
DEFAULT_255_2_778
10
6.3886426
20
88.51662
11
6.4394426
21
88.44512
0
LINE
8
DEFAULT_255_2_778
10
6.4394426
20
88.44512
11
6.4394426
21
88.44492
0
LINE
8
DEFAULT_255_2_778
10
6.3817426
20
88.58542
11
6.3817426
21
88.69912
0
LINE
8
DEFAULT_255_2_778
10
6.2918426
20
88.69912
11
6.2918426
21
88.58542
0
LINE
8
DEFAULT_255_2_778
10
6.3367426
20
88.54622
11
6.3367426
21
88.54622
0
LINE
8
DEFAULT_255_2_778
10
6.4833426
20
88.58542
11
6.4833426
21
88.77452
0
LINE
8
DEFAULT_255_2_778
10
6.4833426
20
88.77452
11
6.5264426
21
88.77452
0
LINE
8
DEFAULT_255_2_778
10
6.5264426
20
88.77452
11
6.5264426
21
88.58562
0
LINE
8
DEFAULT_255_2_778
10
6.5963426
20
88.58562
11
6.5963426
21
88.77452
0
LINE
8
DEFAULT_255_2_778
10
6.5963426
20
88.77452
11
6.6394426
21
88.77452
0
LINE
8
DEFAULT_255_2_778
10
6.6394426
20
88.77452
11
6.6394426
21
88.58542
0
LINE
8
DEFAULT_255_2_778
10
6.5611426
20
88.50652
11
6.5614426
21
88.50652
0
ARC
8
DEFAULT_255_2_778
10
12.1641534
20
89.8096635
40
5.5033955
50
191.4837585
51
191.8239227
0
ARC
8
DEFAULT_255_2_778
10
8.3589226
20
89.0058972
40
1.6145995
50
189.6626565
51
190.4158531
0
ARC
8
DEFAULT_255_2_778
10
6.119743
20
88.8387409
40
0.6557616
50
349.0334606
51
350.8880298
0
ARC
8
DEFAULT_255_2_778
10
6.0674163
20
88.8423866
40
0.7078549
50
346.9283592
51
349.5494987
0
ARC
8
DEFAULT_255_2_778
10
7.295875
20
88.6115243
40
0.1856762
50
15.5793022
51
22.5708948
0
ARC
8
DEFAULT_255_2_778
10
7.3101534
20
88.6094769
40
0.1725699
50
11.8762786
51
17.5076424
0
ARC
8
DEFAULT_255_2_778
10
7.8590306
20
88.5564121
40
0.3901889
50
164.3923637
51
166.8784714
0
ARC
8
DEFAULT_255_2_778
10
7.6620837
20
88.6115243
40
0.1856762
50
157.4291052
51
164.4206978
0
LINE
8
DEFAULT_255_2_778
10
6.7201293
20
88.5099917
11
6.6762293
21
88.5099917
0
LINE
8
DEFAULT_255_2_778
10
6.6762293
20
88.5099917
11
6.7392293
21
88.7745917
0
LINE
8
DEFAULT_255_2_778
10
6.7392293
20
88.7745917
11
6.7942293
21
88.7745917
0
LINE
8
DEFAULT_255_2_778
10
6.7942293
20
88.7745917
11
6.8577293
21
88.5099917
0
LINE
8
DEFAULT_255_2_778
10
6.8577293
20
88.5099917
11
6.8138293
21
88.5099917
0
LINE
8
DEFAULT_255_2_778
10
6.8138293
20
88.5099917
11
6.8000293
21
88.5739917
0
LINE
8
DEFAULT_255_2_778
10
6.8000293
20
88.5739917
11
6.7336293
21
88.5739917
0
LINE
8
DEFAULT_255_2_778
10
6.7336293
20
88.5739917
11
6.7199293
21
88.5099917
0
LINE
8
DEFAULT_255_2_778
10
6.7199293
20
88.5099917
11
6.7201293
21
88.5099917
0
LINE
8
DEFAULT_255_2_778
10
6.7569293
20
88.6824917
11
6.7418293
21
88.6110917
0
LINE
8
DEFAULT_255_2_778
10
6.7418293
20
88.6110917
11
6.7926293
21
88.6110917
0
LINE
8
DEFAULT_255_2_778
10
6.7926293
20
88.6110917
11
6.7775293
21
88.6819917
0
LINE
8
DEFAULT_255_2_778
10
6.7569293
20
88.6822917
11
6.7569293
21
88.6824917
0
LINE
8
DEFAULT_255_2_778
10
7.0231293
20
88.5099917
11
6.8741293
21
88.5099917
0
LINE
8
DEFAULT_255_2_778
10
6.8741293
20
88.5099917
11
6.8741293
21
88.7745917
0
LINE
8
DEFAULT_255_2_778
10
6.8741293
20
88.7745917
11
6.9170293
21
88.7745917
0
LINE
8
DEFAULT_255_2_778
10
6.9170293
20
88.7745917
11
6.9170293
21
88.5509917
0
LINE
8
DEFAULT_255_2_778
10
6.9170293
20
88.5509917
11
7.0231293
21
88.5509917
0
LINE
8
DEFAULT_255_2_778
10
7.0231293
20
88.5509917
11
7.0231293
21
88.5099917
0
LINE
8
DEFAULT_255_2_778
10
7.0231293
20
88.5099917
11
7.0231293
21
88.5099917
0
LINE
8
DEFAULT_255_2_778
10
7.1760293
20
88.5099917
11
7.0321293
21
88.5099917
0
LINE
8
DEFAULT_255_2_778
10
7.0321293
20
88.5099917
11
7.0321293
21
88.5509917
0
LINE
8
DEFAULT_255_2_778
10
7.0321293
20
88.5509917
11
7.0823293
21
88.5509917
0
LINE
8
DEFAULT_255_2_778
10
7.0823293
20
88.5509917
11
7.0823293
21
88.7335917
0
LINE
8
DEFAULT_255_2_778
10
7.0823293
20
88.7335917
11
7.0321293
21
88.7335917
0
LINE
8
DEFAULT_255_2_778
10
7.0321293
20
88.7335917
11
7.0321293
21
88.7745917
0
LINE
8
DEFAULT_255_2_778
10
7.0321293
20
88.7745917
11
7.1760293
21
88.7745917
0
LINE
8
DEFAULT_255_2_778
10
7.1760293
20
88.7745917
11
7.1760293
21
88.7335917
0
LINE
8
DEFAULT_255_2_778
10
7.1760293
20
88.7335917
11
7.1257293
21
88.7335917
0
LINE
8
DEFAULT_255_2_778
10
7.1257293
20
88.7335917
11
7.1257293
21
88.5509917
0
LINE
8
DEFAULT_255_2_778
10
7.1257293
20
88.5509917
11
7.1760293
21
88.5509917
0
LINE
8
DEFAULT_255_2_778
10
7.1760293
20
88.5509917
11
7.1760293
21
88.5099917
0
LINE
8
DEFAULT_255_2_778
10
7.1760293
20
88.5099917
11
7.1760293
21
88.5099917
0
LINE
8
DEFAULT_255_2_778
10
7.2940293
20
88.5099917
11
7.2509293
21
88.5099917
0
LINE
8
DEFAULT_255_2_778
10
7.2509293
20
88.5099917
11
7.2509293
21
88.7335917
0
LINE
8
DEFAULT_255_2_778
10
7.2509293
20
88.7335917
11
7.1855293
21
88.7335917
0
LINE
8
DEFAULT_255_2_778
10
7.1855293
20
88.7335917
11
7.1855293
21
88.7745917
0
LINE
8
DEFAULT_255_2_778
10
7.1855293
20
88.7745917
11
7.3596293
21
88.7745917
0
LINE
8
DEFAULT_255_2_778
10
7.3596293
20
88.7745917
11
7.3596293
21
88.7335917
0
LINE
8
DEFAULT_255_2_778
10
7.3596293
20
88.7335917
11
7.2943293
21
88.7335917
0
LINE
8
DEFAULT_255_2_778
10
7.2943293
20
88.7335917
11
7.2943293
21
88.5099917
0
LINE
8
DEFAULT_255_2_778
10
7.2943293
20
88.5099917
11
7.2940293
21
88.5099917
0
LINE
8
DEFAULT_255_2_778
10
7.4996293
20
88.5099917
11
7.4565293
21
88.5099917
0
LINE
8
DEFAULT_255_2_778
10
7.4565293
20
88.5099917
11
7.4565293
21
88.6060917
0
LINE
8
DEFAULT_255_2_778
10
7.4565293
20
88.6060917
11
7.3832293
21
88.7745917
0
LINE
8
DEFAULT_255_2_778
10
7.3832293
20
88.7745917
11
7.4281293
21
88.7745917
0
LINE
8
DEFAULT_255_2_778
10
7.4281293
20
88.7745917
11
7.4673293
21
88.6827917
0
LINE
8
DEFAULT_255_2_778
10
7.4906293
20
88.6827917
11
7.5287293
21
88.7745917
0
LINE
8
DEFAULT_255_2_778
10
7.5287293
20
88.7745917
11
7.5731293
21
88.7745917
0
LINE
8
DEFAULT_255_2_778
10
7.5731293
20
88.7745917
11
7.4998293
21
88.6060917
0
LINE
8
DEFAULT_255_2_778
10
7.4998293
20
88.6060917
11
7.4998293
21
88.5099917
0
LINE
8
DEFAULT_255_2_778
10
7.4998293
20
88.5099917
11
7.4996293
21
88.5099917
0
LINE
8
DEFAULT_255_1_388
10
7.2840985
20
87.3332148
11
7.2840985
21
86.0113
0
LINE
8
DEFAULT_255_1_388
10
7.2840985
20
86.0113
11
7.1160355
21
86.0113
0
LINE
8
DEFAULT_255_1_388
10
7.1160355
20
86.0113
11
7.1160355
21
87.125395
0
LINE
8
DEFAULT_255_1_388
10
7.1160355
20
87.125395
11
6.779006
21
87.0016066
0
LINE
8
DEFAULT_255_1_388
10
6.779006
20
87.0016066
11
6.779006
21
87.1534055
0
LINE
8
DEFAULT_255_1_388
10
6.779006
20
87.1534055
11
7.2578951
21
87.3332148
0
LINE
8
DEFAULT_255_1_388
10
7.2578951
20
87.3332148
11
7.2840985
21
87.3332148
0
LINE
8
DEFAULT_255_1_388
10
8.623181
20
87.3268898
11
8.623181
21
87.2329191
0
LINE
8
DEFAULT_255_1_388
10
8.623181
20
87.2329191
11
8.0783316
21
86.0113
0
LINE
8
DEFAULT_255_1_388
10
8.0783316
20
86.0113
11
7.9030401
21
86.0113
0
LINE
8
DEFAULT_255_1_388
10
7.9030401
20
86.0113
11
8.4460824
21
87.189548
0
LINE
8
DEFAULT_255_1_388
10
8.4460824
20
87.189548
11
7.7340736
21
87.189548
0
LINE
8
DEFAULT_255_1_388
10
7.7340736
20
87.189548
11
7.7340736
21
87.3268898
0
LINE
8
DEFAULT_255_1_388
10
7.7340736
20
87.3268898
11
8.623181
21
87.3268898
0
LINE
8
DEFAULT_255_1_388
10
9.0234601
20
86.6365666
11
8.8897325
21
86.6709021
0
LINE
8
DEFAULT_255_1_388
10
8.8897325
20
86.6709021
11
8.9565963
21
87.3268898
0
LINE
8
DEFAULT_255_1_388
10
8.9565963
20
87.3268898
11
9.6306554
21
87.3268898
0
LINE
8
DEFAULT_255_1_388
10
9.6306554
20
87.3268898
11
9.6306554
21
87.1723803
0
LINE
8
DEFAULT_255_1_388
10
9.6306554
20
87.1723803
11
9.0984559
21
87.1723803
0
LINE
8
DEFAULT_255_1_388
10
9.0984559
20
87.1723803
11
9.0586991
21
86.8136652
0
LINE
8
DEFAULT_255_1_388
10
8.8427472
20
86.3573652
11
9.0008709
21
86.3573652
0
LINE
8
DEFAULT_255_1_388
10
9.0677347
20
86.6727092
11
9.0234601
21
86.6365666
0
ARC
8
DEFAULT_255_1_388
10
9.2673604
20
86.4559241
40
0.4141476
50
93.7181681
51
120.253934
0
ARC
8
DEFAULT_255_1_388
10
9.2779656
20
86.3650284
40
0.5055616
50
89.9660471
51
94.2495185
0
ARC
8
DEFAULT_255_1_388
10
9.2825478
20
86.4313154
40
0.4392953
50
73.8045384
51
90.5585736
0
ARC
8
DEFAULT_255_1_388
10
9.3089736
20
86.527852
40
0.3392225
50
41.3071072
51
73.543002
0
ARC
8
DEFAULT_255_1_388
10
9.2621556
20
86.4875461
40
0.4009977
50
13.5075837
51
41.2174839
0
ARC
8
DEFAULT_255_1_388
10
9.0774653
20
86.4391907
40
0.5918864
50
1.1330171
51
13.8830737
0
ARC
8
DEFAULT_255_1_388
10
8.9178299
20
86.4306522
40
0.7516787
50
359.9925091
51
1.5431298
0
ARC
8
DEFAULT_255_1_388
10
9.0622914
20
86.4260027
40
0.6072343
50
347.8572712
51
0.4294349
0
ARC
8
DEFAULT_255_1_388
10
9.2592049
20
86.3813898
40
0.4053482
50
323.6727442
51
348.1674594
0
ARC
8
DEFAULT_255_1_388
10
9.2923013
20
86.3612175
40
0.3667495
50
316.8171818
51
323.1486802
0
ARC
8
DEFAULT_255_1_388
10
9.2992137
20
86.3570612
40
0.358869
50
281.839603
51
316.5458142
0
ARC
8
DEFAULT_255_1_388
10
9.2569425
20
86.5320363
40
0.5388223
50
269.5770964
51
282.4214641
0
ARC
8
DEFAULT_255_1_388
10
9.2489345
20
86.507993
40
0.5147801
50
256.2425863
51
270.4486481
0
ARC
8
DEFAULT_255_1_388
10
9.2152873
20
86.3730124
40
0.3756708
50
228.9024379
51
256.33135
0
ARC
8
DEFAULT_255_1_388
10
9.2069853
20
86.3599054
40
0.360344
50
193.7536029
51
228.5272638
0
ARC
8
DEFAULT_255_1_388
10
9.3462418
20
86.4007463
40
0.5053599
50
184.9244437
51
194.4976052
0
ARC
8
DEFAULT_255_1_388
10
9.367906
20
86.4047722
40
0.3700839
50
187.3596909
51
198.6733728
0
ARC
8
DEFAULT_255_1_388
10
9.2498303
20
86.3638373
40
0.2451195
50
198.4453795
51
217.7945479
0
ARC
8
DEFAULT_255_1_388
10
9.2165476
20
86.3402563
40
0.2043754
50
218.2887146
51
228.5613203
0
ARC
8
DEFAULT_255_1_388
10
9.2275482
20
86.3550902
40
0.2227819
50
228.9652423
51
258.1237049
0
ARC
8
DEFAULT_255_1_388
10
9.250692
20
86.4541964
40
0.3245374
50
257.7260585
51
270.4013717
0
ARC
8
DEFAULT_255_1_388
10
9.2557418
20
86.4041255
40
0.2744726
50
269.4204315
51
286.420998
0
ARC
8
DEFAULT_255_1_388
10
9.2724474
20
86.3434705
40
0.2115721
50
286.7250065
51
320.6004665
0
ARC
8
DEFAULT_255_1_388
10
9.2293389
20
86.3784527
40
0.2670878
50
320.6712228
51
344.5440474
0
ARC
8
DEFAULT_255_1_388
10
9.0992103
20
86.4166394
40
0.4026927
50
344.241448
51
356.735803
0
ARC
8
DEFAULT_255_1_388
10
8.958841
20
86.4282656
40
0.5435085
50
356.3547471
51
0.0507222
0
ARC
8
DEFAULT_255_1_388
10
9.1090675
20
86.4317812
40
0.3932934
50
359.5579289
51
12.9534322
0
ARC
8
DEFAULT_255_1_388
10
9.2277515
20
86.4605586
40
0.2711827
50
12.6489751
51
41.608121
0
ARC
8
DEFAULT_255_1_388
10
9.2536675
20
86.4825946
40
0.2371737
50
41.7851122
51
85.9892156
0
ARC
8
DEFAULT_255_1_388
10
9.2397985
20
86.3910738
40
0.3295244
50
84.6965848
51
90.0672125
0
ARC
8
DEFAULT_255_1_388
10
9.2371553
20
86.3159118
40
0.4046926
50
89.6804991
51
99.161352
0
ARC
8
DEFAULT_255_1_388
10
9.2140562
20
86.4539848
40
0.2647044
50
98.9836248
51
113.8905702
0
ARC
8
DEFAULT_255_1_388
10
9.1882237
20
86.5149118
40
0.1985386
50
114.195234
51
127.3641866
0
LINE
8
DEFAULT_255_1_388
10
10.4781988
20
87.3277934
11
10.5080165
21
87.3277934
0
LINE
8
DEFAULT_255_1_388
10
10.5080165
20
87.3277934
11
10.5080165
21
87.1859338
0
LINE
8
DEFAULT_255_1_388
10
10.5080165
20
87.1859338
11
10.4772953
21
87.1859338
0
LINE
8
DEFAULT_255_1_388
10
9.8619679
20
86.5118747
11
9.8619679
21
86.5760278
0
LINE
8
DEFAULT_255_1_388
10
10.0300309
20
86.5543422
11
10.0300309
21
86.4928999
0
ARC
8
DEFAULT_255_1_388
10
10.4831844
20
86.6236826
40
0.562282
50
90.6001079
51
104.5146616
0
ARC
8
DEFAULT_255_1_388
10
10.4394804
20
86.78621
40
0.3939917
50
104.2855758
51
133.8630124
0
ARC
8
DEFAULT_255_1_388
10
10.4579056
20
86.7740243
40
0.4155734
50
134.5304124
51
161.6210222
0
ARC
8
DEFAULT_255_1_388
10
10.6438989
20
86.7084421
40
0.6127682
50
161.2850533
51
174.2074364
0
ARC
8
DEFAULT_255_1_388
10
10.8028555
20
86.6865437
40
0.7731446
50
173.7817938
51
174.9251711
0
ARC
8
DEFAULT_255_1_388
10
10.2902749
20
86.531027
40
0.3412588
50
95.8332067
51
138.995412
0
ARC
8
DEFAULT_255_1_388
10
10.3154029
20
86.3871695
40
0.4870358
50
89.8755506
51
97.0540979
0
ARC
8
DEFAULT_255_1_388
10
10.3207418
20
86.4811841
40
0.3930432
50
71.6407016
51
90.6240821
0
ARC
8
DEFAULT_255_1_388
10
10.3376812
20
86.5435433
40
0.3285421
50
39.6368051
51
71.0190743
0
ARC
8
DEFAULT_255_1_388
10
10.2660719
20
86.4816586
40
0.4231706
50
10.6588054
51
39.9044509
0
ARC
8
DEFAULT_255_1_388
10
10.0919265
20
86.4438223
40
0.60133
50
359.6827842
51
11.1326896
0
ARC
8
DEFAULT_255_1_388
10
10.0874601
20
86.4358715
40
0.6058047
50
347.2485908
51
0.4371098
0
ARC
8
DEFAULT_255_1_388
10
10.2750386
20
86.3907379
40
0.4128987
50
318.1408565
51
347.6118497
0
ARC
8
DEFAULT_255_1_388
10
10.3115983
20
86.3606903
40
0.3656244
50
275.6342406
51
317.824739
0
ARC
8
DEFAULT_255_1_388
10
10.2867504
20
86.5068827
40
0.513655
50
269.8872513
51
276.7916069
0
ARC
8
DEFAULT_255_1_388
10
10.2805697
20
86.3915181
40
0.398323
50
246.9139443
51
270.7436787
0
ARC
8
DEFAULT_255_1_388
10
10.2812893
20
86.3755044
40
0.3839368
50
218.1665534
51
245.8780431
0
ARC
8
DEFAULT_255_1_388
10
10.3802265
20
86.4582903
40
0.5128958
50
191.4115343
51
218.6077624
0
ARC
8
DEFAULT_255_1_388
10
10.5982581
20
86.5071777
40
0.7363054
50
179.6344971
51
191.7836758
0
ARC
8
DEFAULT_255_1_388
10
11.2262455
20
86.5835495
40
1.3642984
50
171.4523743
51
180.3158856
0
ARC
8
DEFAULT_255_1_388
10
10.7318182
20
86.6604895
40
0.8639311
50
157.9802296
51
171.6246761
0
ARC
8
DEFAULT_255_1_388
10
10.4827533
20
86.7598038
40
0.5958004
50
141.4299236
51
157.8541251
0
ARC
8
DEFAULT_255_1_388
10
10.4105616
20
86.8108746
40
0.5075416
50
102.871586
51
140.8564533
0
ARC
8
DEFAULT_255_1_388
10
10.4834169
20
86.5363943
40
0.7914163
50
90.377773
51
103.5868422
0
ARC
8
DEFAULT_255_1_388
10
10.287869
20
86.4683543
40
0.2667015
50
89.8751238
51
126.2072139
0
ARC
8
DEFAULT_255_1_388
10
10.2930161
20
86.4509847
40
0.2838229
50
124.9742447
51
144.8960197
0
ARC
8
DEFAULT_255_1_388
10
10.2732406
20
86.4670981
40
0.2583845
50
145.2974778
51
160.2660922
0
ARC
8
DEFAULT_255_1_388
10
10.6188895
20
86.4893151
40
0.5888695
50
179.6512124
51
190.285571
0
ARC
8
DEFAULT_255_1_388
10
10.4283374
20
86.4533968
40
0.3949683
50
190.0944895
51
207.5099647
0
ARC
8
DEFAULT_255_1_388
10
10.3646956
20
86.4231177
40
0.3245464
50
207.9585471
51
216.325377
0
ARC
8
DEFAULT_255_1_388
10
10.3264593
20
86.3916712
40
0.2751259
50
215.7661336
51
232.5457193
0
ARC
8
DEFAULT_255_1_388
10
10.2833709
20
86.3369273
40
0.2054668
50
232.8005815
51
270.6605497
0
ARC
8
DEFAULT_255_1_388
10
10.2885133
20
86.3778853
40
0.2464268
50
269.3550767
51
288.474612
0
ARC
8
DEFAULT_255_1_388
10
10.298964
20
86.3385721
40
0.2058436
50
289.1831976
51
322.9685307
0
ARC
8
DEFAULT_255_1_388
10
10.2301742
20
86.3928279
40
0.2934408
50
322.6007085
51
346.5183319
0
ARC
8
DEFAULT_255_1_388
10
10.0999498
20
86.4260434
40
0.4278249
50
346.2584622
51
358.7739592
0
ARC
8
DEFAULT_255_1_388
10
9.9848073
20
86.4322829
40
0.5430876
50
358.3757628
51
0.0082477
0
ARC
8
DEFAULT_255_1_388
10
10.0704892
20
86.4353856
40
0.4574157
50
359.6211417
51
11.28403
0
ARC
8
DEFAULT_255_1_388
10
10.2141498
20
86.4653535
40
0.3106708
50
11.0483152
51
31.8145585
0
ARC
8
DEFAULT_255_1_388
10
10.2489203
20
86.4842045
40
0.2711963
50
32.3028554
51
38.0820598
0
ARC
8
DEFAULT_255_1_388
10
10.2962436
20
86.5270717
40
0.2075566
50
36.8249851
51
85.741667
0
ARC
8
DEFAULT_255_1_388
10
10.2886849
20
86.4707065
40
0.2643487
50
85.0150021
51
90.050843
0
LINE
8
DEFAULT_255_1_388
10
12.1859356
20
86.4287468
11
12.3603236
21
86.4287468
0
LINE
8
DEFAULT_255_1_388
10
11.3474278
20
86.6076525
11
11.3474278
21
86.7341516
0
LINE
8
DEFAULT_255_1_388
10
12.3603236
20
86.9040217
11
12.1859356
21
86.9040217
0
LINE
8
DEFAULT_255_1_388
10
11.5218158
20
86.7296337
11
11.5218158
21
86.6022312
0
ARC
8
DEFAULT_255_1_388
10
11.743747
20
86.4959329
40
0.6202263
50
340.1774904
51
353.7812217
0
ARC
8
DEFAULT_255_1_388
10
11.9205323
20
86.4300893
40
0.4315926
50
311.4560052
51
340.4420756
0
ARC
8
DEFAULT_255_1_388
10
11.9167862
20
86.4425665
40
0.4434573
50
282.4332229
51
310.7514507
0
ARC
8
DEFAULT_255_1_388
10
11.867368
20
86.6467703
40
0.6535262
50
269.9358869
51
282.8096729
0
ARC
8
DEFAULT_255_1_388
10
11.861562
20
86.7980329
40
0.8048043
50
269.9995752
51
270.3612856
0
ARC
8
DEFAULT_255_1_388
10
11.855611
20
86.5181781
40
0.5249831
50
250.7885263
51
270.6488451
0
ARC
8
DEFAULT_255_1_388
10
11.8366934
20
86.4464853
40
0.4510942
50
219.3628377
51
250.0611024
0
ARC
8
DEFAULT_255_1_388
10
11.9299809
20
86.5257653
40
0.5735046
50
193.5480293
51
219.5755675
0
ARC
8
DEFAULT_255_1_388
10
12.1968018
20
86.595052
40
0.849146
50
181.1220183
51
193.8754971
0
ARC
8
DEFAULT_255_1_388
10
12.4291251
20
86.6074914
40
1.0816971
50
179.9914644
51
181.5398227
0
ARC
8
DEFAULT_255_1_388
10
12.2214561
20
86.7383586
40
0.8740384
50
169.5837606
51
180.275782
0
ARC
8
DEFAULT_255_1_388
10
12.0147909
20
86.7765439
40
0.6638751
50
155.0367033
51
169.6002779
0
ARC
8
DEFAULT_255_1_388
10
11.8870368
20
86.8381336
40
0.5220662
50
136.7831557
51
155.2472983
0
ARC
8
DEFAULT_255_1_388
10
11.8432158
20
86.8753577
40
0.4646502
50
121.7633063
51
136.4281161
0
ARC
8
DEFAULT_255_1_388
10
11.8583998
20
86.8473049
40
0.4964979
50
95.6460018
51
121.5489589
0
ARC
8
DEFAULT_255_1_388
10
11.8760973
20
86.7225704
40
0.6223912
50
89.9245727
51
96.1375919
0
ARC
8
DEFAULT_255_1_388
10
11.8817678
20
86.7359721
40
0.6090084
50
76.6779212
51
90.456405
0
ARC
8
DEFAULT_255_1_388
10
11.9260491
20
86.914906
40
0.42469
50
47.4858803
51
76.9287069
0
ARC
8
DEFAULT_255_1_388
10
11.9095104
20
86.9036623
40
0.4441778
50
16.5424081
51
46.8934505
0
ARC
8
DEFAULT_255_1_388
10
11.7286154
20
86.8442265
40
0.6345318
50
5.4072971
51
17.0363711
0
ARC
8
DEFAULT_255_1_388
10
11.5667879
20
86.8182304
40
0.6250632
50
7.8888693
51
15.9242022
0
ARC
8
DEFAULT_255_1_388
10
11.7902865
20
86.8831309
40
0.3923364
50
15.7650676
51
27.9410069
0
ARC
8
DEFAULT_255_1_388
10
11.9145034
20
86.9496317
40
0.2514401
50
27.8167196
51
46.4007942
0
ARC
8
DEFAULT_255_1_388
10
11.9200875
20
86.9489882
40
0.2480958
50
47.4372362
51
75.0695672
0
ARC
8
DEFAULT_255_1_388
10
11.8853711
20
86.8281277
40
0.3738281
50
74.7009379
51
87.8124314
0
ARC
8
DEFAULT_255_1_388
10
11.8771328
20
86.7097659
40
0.4924321
50
87.3802571
51
90.0251599
0
ARC
8
DEFAULT_255_1_388
10
11.8727976
20
86.8417997
40
0.3604218
50
89.3451886
51
108.5744412
0
ARC
8
DEFAULT_255_1_388
10
11.8573968
20
86.8995836
40
0.3007661
50
109.2998307
51
143.3037387
0
ARC
8
DEFAULT_255_1_388
10
11.9431258
20
86.8336584
40
0.4089031
50
143.075267
51
163.1918576
0
ARC
8
DEFAULT_255_1_388
10
12.1627092
20
86.7643652
40
0.6391492
50
162.9375929
51
174.6208776
0
ARC
8
DEFAULT_255_1_388
10
12.4581474
20
86.7319711
40
0.9363344
50
174.342123
51
180.1430283
0
ARC
8
DEFAULT_255_1_388
10
12.3534015
20
86.5976117
40
0.8315986
50
179.6817261
51
189.150555
0
ARC
8
DEFAULT_255_1_388
10
12.0720764
20
86.5507559
40
0.5464044
50
188.9911061
51
203.5772363
0
ARC
8
DEFAULT_255_1_388
10
11.9506056
20
86.5003539
40
0.4149206
50
203.9075402
51
215.1312435
0
ARC
8
DEFAULT_255_1_388
10
11.8467853
20
86.4198907
40
0.2837747
50
213.9071511
51
263.8848919
0
ARC
8
DEFAULT_255_1_388
10
11.8608847
20
86.5081519
40
0.3730641
50
263.1757928
51
270.1031044
0
ARC
8
DEFAULT_255_1_388
10
11.8644926
20
86.6484511
40
0.5133712
50
269.6722503
51
279.0606936
0
ARC
8
DEFAULT_255_1_388
10
11.8945082
20
86.467015
40
0.3294739
50
278.8749101
51
293.6349581
0
ARC
8
DEFAULT_255_1_388
10
11.9305285
20
86.3824251
40
0.2375405
50
293.8553806
51
310.0518171
0
ARC
8
DEFAULT_255_1_388
10
11.9310794
20
86.3754021
40
0.2318463
50
311.0644687
51
332.0111037
0
ARC
8
DEFAULT_255_1_388
10
11.7969468
20
86.4493702
40
0.3850112
50
331.6586806
51
343.2877423
0
ARC
8
DEFAULT_255_1_388
10
11.5648933
20
86.5206806
40
0.6277712
50
343.1446576
51
351.0103568
0
ARC
8
DEFAULT_255_1_388
10
11.4016256
20
86.5506873
40
0.7937327
50
350.71248
51
351.1626997
0
LINE
8
DEFAULT_255_1_388
10
12.5265794
20
86.4974177
11
12.5265794
21
86.509164
0
LINE
8
DEFAULT_255_1_388
10
13.4165904
20
86.5010319
11
13.4165904
21
86.4892856
0
ARC
8
DEFAULT_255_1_388
10
13.1550239
20
86.512804
40
0.628455
50
166.3005265
51
180.3318609
0
ARC
8
DEFAULT_255_1_388
10
13.0579589
20
86.5345267
40
0.52901
50
153.8608648
51
166.0965672
0
ARC
8
DEFAULT_255_1_388
10
12.9830755
20
86.5746652
40
0.4441126
50
135.1317053
51
154.2534962
0
ARC
8
DEFAULT_255_1_388
10
12.9517405
20
86.6023431
40
0.4023863
50
121.7042632
51
134.7771455
0
ARC
8
DEFAULT_255_1_388
10
12.9592837
20
86.5878469
40
0.4186852
50
93.4001111
51
121.5399523
0
ARC
8
DEFAULT_255_1_388
10
12.9699671
20
86.4948759
40
0.5121521
50
89.9706387
51
93.9763381
0
ARC
8
DEFAULT_255_1_388
10
12.9752656
20
86.5388563
40
0.4681988
50
71.3321659
51
90.6162917
0
ARC
8
DEFAULT_255_1_388
10
12.993569
20
86.6066003
40
0.3981841
50
41.1813875
51
70.7072086
0
ARC
8
DEFAULT_255_1_388
10
12.9398406
20
86.557813
40
0.4707474
50
12.1971434
51
41.3446641
0
ARC
8
DEFAULT_255_1_388
10
12.723167
20
86.5062328
40
0.6934429
50
359.5702713
51
12.5803533
0
ARC
8
DEFAULT_255_1_388
10
12.7763986
20
86.4857207
40
0.6402018
50
347.0196754
51
0.3190452
0
ARC
8
DEFAULT_255_1_388
10
12.8842039
20
86.4625189
40
0.5299421
50
334.350439
51
346.8460534
0
ARC
8
DEFAULT_255_1_388
10
12.9793285
20
86.4131244
40
0.4228234
50
310.4228125
51
334.8045131
0
ARC
8
DEFAULT_255_1_388
10
12.9885264
20
86.4059301
40
0.4113892
50
301.8488154
51
310.0972985
0
ARC
8
DEFAULT_255_1_388
10
12.9849004
20
86.4144573
40
0.4205483
50
274.3078723
51
301.6554173
0
ARC
8
DEFAULT_255_1_388
10
12.972446
20
86.5131943
40
0.5199658
50
269.954904
51
274.859116
0
ARC
8
DEFAULT_255_1_388
10
12.9669284
20
86.4568239
40
0.4636233
50
250.8887647
51
270.6313164
0
ARC
8
DEFAULT_255_1_388
10
12.9500444
20
86.3939405
40
0.398705
50
221.1701369
51
250.2227012
0
ARC
8
DEFAULT_255_1_388
10
13.004511
20
86.4435716
40
0.4723796
50
191.6263861
51
221.3526879
0
ARC
8
DEFAULT_255_1_388
10
13.2168955
20
86.4927203
40
0.6903321
50
179.6101251
51
192.0694841
0
ARC
8
DEFAULT_255_1_388
10
13.2645303
20
86.4856681
40
0.5698993
50
179.636304
51
190.6161344
0
ARC
8
DEFAULT_255_1_388
10
13.0797634
20
86.4496635
40
0.3816643
50
190.4136062
51
208.7168709
0
ARC
8
DEFAULT_255_1_388
10
13.0223669
20
86.4211905
40
0.3176572
50
209.187109
51
217.4221816
0
ARC
8
DEFAULT_255_1_388
10
12.9628139
20
86.3687729
40
0.2385702
50
216.1156863
51
265.2575395
0
ARC
8
DEFAULT_255_1_388
10
12.9717175
20
86.4332608
40
0.3035941
50
264.5891546
51
270.0602378
0
ARC
8
DEFAULT_255_1_388
10
12.9754372
20
86.3905539
40
0.2609091
50
269.2532353
51
291.8793864
0
ARC
8
DEFAULT_255_1_388
10
12.9787251
20
86.3705359
40
0.241148
50
292.9269367
51
323.1777736
0
ARC
8
DEFAULT_255_1_388
10
12.9316536
20
86.4118762
40
0.3036446
50
322.25666
51
323.087958
0
ARC
8
DEFAULT_255_1_388
10
12.9013794
20
86.4301332
40
0.3388345
50
323.6941379
51
343.8493587
0
ARC
8
DEFAULT_255_1_388
10
12.723823
20
86.4841698
40
0.5244204
50
343.5746655
51
355.008149
0
ARC
8
DEFAULT_255_1_388
10
12.4979922
20
86.5075797
40
0.7514406
50
354.728272
51
0.1208026
0
ARC
8
DEFAULT_255_1_388
10
12.6968947
20
86.5127947
40
0.5525482
50
359.6235211
51
11.2016685
0
ARC
8
DEFAULT_255_1_388
10
12.8694775
20
86.5483284
40
0.3763527
50
10.9991302
51
30.8317616
0
ARC
8
DEFAULT_255_1_388
10
12.9140078
20
86.5717988
40
0.3260975
50
31.3007463
51
37.395541
0
ARC
8
DEFAULT_255_1_388
10
12.9698798
20
86.6189773
40
0.253082
50
36.5918894
51
62.2439906
0
ARC
8
DEFAULT_255_1_388
10
12.9751089
20
86.6186378
40
0.2509927
50
63.3364883
51
89.7193846
0
ARC
8
DEFAULT_255_1_388
10
12.9702543
20
86.5538375
40
0.3158485
50
88.8962924
51
90.004475
0
ARC
8
DEFAULT_255_1_388
10
12.966697
20
86.6191071
40
0.250604
50
89.1923115
51
114.7099029
0
ARC
8
DEFAULT_255_1_388
10
12.9699312
20
86.6233675
40
0.2481307
50
115.7996284
51
142.2901353
0
ARC
8
DEFAULT_255_1_388
10
13.0167583
20
86.5814752
40
0.310833
50
141.4607507
51
142.383894
0
ARC
8
DEFAULT_255_1_388
10
13.0315434
20
86.5746449
40
0.3267335
50
143.0176473
51
163.2340089
0
ARC
8
DEFAULT_255_1_388
10
13.2090723
20
86.5184553
40
0.5129308
50
162.9446504
51
174.3733893
0
ARC
8
DEFAULT_255_1_388
10
13.4504695
20
86.4913483
40
0.75583
50
174.1225809
51
180.1563667
0
LINE
8
DEFAULT_255_1_388
10
13.6262174
20
86.9889567
11
13.7843412
21
86.9889567
0
LINE
8
DEFAULT_255_1_388
10
13.7843412
20
86.9889567
11
13.7897625
21
86.866072
0
LINE
8
DEFAULT_255_1_388
10
14.3951507
20
86.6573486
11
14.3951507
21
86.0113
0
LINE
8
DEFAULT_255_1_388
10
14.3951507
20
86.0113
11
14.2279913
21
86.0113
0
LINE
8
DEFAULT_255_1_388
10
14.2279913
20
86.0113
11
14.2279913
21
86.6582521
0
LINE
8
DEFAULT_255_1_388
10
13.7933768
20
86.7079482
11
13.7933768
21
86.0113
0
LINE
8
DEFAULT_255_1_388
10
13.7933768
20
86.0113
11
13.6262174
21
86.0113
0
LINE
8
DEFAULT_255_1_388
10
13.6262174
20
86.0113
11
13.6262174
21
86.9889567
0
ARC
8
DEFAULT_255_1_388
10
14.0827925
20
86.6397868
40
0.3702317
50
116.459579
51
142.3237674
0
ARC
8
DEFAULT_255_1_388
10
14.0764204
20
86.6374216
40
0.3695717
50
89.9344799
51
115.4117431
0
ARC
8
DEFAULT_255_1_388
10
14.0825253
20
86.5457477
40
0.4612803
50
90.0009789
51
90.7058119
0
ARC
8
DEFAULT_255_1_388
10
14.089465
20
86.6154095
40
0.3916802
50
71.6503198
51
91.0163578
0
ARC
8
DEFAULT_255_1_388
10
14.1295715
20
86.7483483
40
0.2529032
50
13.4487463
51
70.7930078
0
ARC
8
DEFAULT_255_1_388
10
13.8706086
20
86.6662303
40
0.5242314
50
1.3250409
51
15.5955556
0
ARC
8
DEFAULT_255_1_388
10
13.6407328
20
86.6516495
40
0.7544396
50
0.4328171
51
2.0283925
0
ARC
8
DEFAULT_255_1_388
10
13.8503531
20
86.657166
40
0.3776398
50
0.1647891
51
8.9343738
0
ARC
8
DEFAULT_255_1_388
10
13.992257
20
86.6802206
40
0.2338783
50
8.7538928
51
22.2899346
0
ARC
8
DEFAULT_255_1_388
10
14.0675001
20
86.7112479
40
0.1524893
50
22.2261896
51
42.6534349
0
ARC
8
DEFAULT_255_1_388
10
14.0746042
20
86.7139551
40
0.1454574
50
43.7652806
51
71.277358
0
ARC
8
DEFAULT_255_1_388
10
14.0459605
20
86.6344698
40
0.2299367
50
70.8751244
51
84.317538
0
ARC
8
DEFAULT_255_1_388
10
14.0328317
20
86.523887
40
0.3412827
50
83.9624774
51
90.1534326
0
ARC
8
DEFAULT_255_1_388
10
14.0297076
20
86.6075668
40
0.2576111
50
89.5084243
51
108.792202
0
ARC
8
DEFAULT_255_1_388
10
14.0226444
20
86.6333171
40
0.2309638
50
109.1912151
51
125.3077659
0
ARC
8
DEFAULT_255_1_388
10
14.0593302
20
86.5814216
40
0.2945169
50
125.2968281
51
154.5573532
0
LINE
8
DEFAULT_255_1_388
10
14.7068805
20
87.2256906
11
14.8740399
21
87.2256906
0
LINE
8
DEFAULT_255_1_388
10
14.8740399
20
87.2256906
11
14.8740399
21
86.9889567
0
LINE
8
DEFAULT_255_1_388
10
14.8740399
20
86.9889567
11
15.0565599
21
86.9889567
0
LINE
8
DEFAULT_255_1_388
10
15.0565599
20
86.9889567
11
15.0565599
21
86.859747
0
LINE
8
DEFAULT_255_1_388
10
15.0565599
20
86.859747
11
14.8740399
21
86.859747
0
LINE
8
DEFAULT_255_1_388
10
14.8740399
20
86.859747
11
14.8740399
21
86.2534553
0
LINE
8
DEFAULT_255_1_388
10
15.0610777
20
86.1468347
11
15.0610777
21
86.0113
0
LINE
8
DEFAULT_255_1_388
10
14.7068805
20
86.2534553
11
14.7068805
21
86.859747
0
LINE
8
DEFAULT_255_1_388
10
14.7068805
20
86.859747
11
14.5288783
21
86.859747
0
LINE
8
DEFAULT_255_1_388
10
14.5288783
20
86.859747
11
14.5288783
21
86.9889567
0
LINE
8
DEFAULT_255_1_388
10
14.5288783
20
86.9889567
11
14.7068805
21
86.9889567
0
LINE
8
DEFAULT_255_1_388
10
14.7068805
20
86.9889567
11
14.7068805
21
87.2256906
0
ARC
8
DEFAULT_255_1_388
10
15.0998906
20
86.2522842
40
0.2258538
50
179.7029045
51
187.9180047
0
ARC
8
DEFAULT_255_1_388
10
15.015948
20
86.2402019
40
0.1410477
50
187.7540838
51
200.2454047
0
ARC
8
DEFAULT_255_1_388
10
14.9686386
20
86.2225591
40
0.0905561
50
200.1304287
51
219.1733455
0
ARC
8
DEFAULT_255_1_388
10
14.9533552
20
86.2121695
40
0.0721626
50
220.4434631
51
249.6169985
0
ARC
8
DEFAULT_255_1_388
10
14.9707779
20
86.2559919
40
0.1193141
50
249.1038184
51
262.7745376
0
ARC
8
DEFAULT_255_1_388
10
14.9806961
20
86.3267481
40
0.1907583
50
262.4921618
51
270.2607019
0
ARC
8
DEFAULT_255_1_388
10
14.9804043
20
86.3509817
40
0.2149929
50
270.309081
51
275.6615459
0
ARC
8
DEFAULT_255_1_388
10
14.964345
20
86.5198342
40
0.3846066
50
275.5607354
51
279.087751
0
ARC
8
DEFAULT_255_1_388
10
14.9271383
20
86.7559428
40
0.6236283
50
279.0369545
51
281.5000133
0
ARC
8
DEFAULT_255_1_388
10
14.8880651
20
86.9536499
40
0.825157
50
281.4217093
51
282.1031556
0
ARC
8
DEFAULT_255_1_388
10
14.9256626
20
86.4993229
40
0.5064619
50
275.2597791
51
285.5081125
0
ARC
8
DEFAULT_255_1_388
10
14.932564
20
86.4367452
40
0.4435166
50
270.0268175
51
275.1130565
0
ARC
8
DEFAULT_255_1_388
10
14.9303091
20
86.2874367
40
0.2942182
50
257.3572424
51
270.4795428
0
ARC
8
DEFAULT_255_1_388
10
14.9063361
20
86.1863952
40
0.1903838
50
230.8036715
51
257.7414447
0
ARC
8
DEFAULT_255_1_388
10
14.8986858
20
86.1740723
40
0.1760087
50
219.9745381
51
230.1985446
0
ARC
8
DEFAULT_255_1_388
10
14.9360145
20
86.2026116
40
0.2229598
50
196.5081334
51
219.4319996
0
ARC
8
DEFAULT_255_1_388
10
15.0502756
20
86.2384617
40
0.3427033
50
184.6408645
51
196.8266009
0
ARC
8
DEFAULT_255_1_388
10
15.1903662
20
86.252601
40
0.4834863
50
179.8987586
51
184.9677262
0
LINE
8
DEFAULT_255_1_388
10
15.724294
20
86.9943781
11
15.724294
21
86.838965
0
LINE
8
DEFAULT_255_1_388
10
15.4188893
20
86.7052375
11
15.4188893
21
86.0113
0
LINE
8
DEFAULT_255_1_388
10
15.4188893
20
86.0113
11
15.2517298
21
86.0113
0
LINE
8
DEFAULT_255_1_388
10
15.2517298
20
86.0113
11
15.2517298
21
86.9889567
0
LINE
8
DEFAULT_255_1_388
10
15.2517298
20
86.9889567
11
15.4143714
21
86.9889567
0
LINE
8
DEFAULT_255_1_388
10
15.4143714
20
86.9889567
11
15.4170821
21
86.8760112
0
ARC
8
DEFAULT_255_1_388
10
15.64931
20
86.3823068
40
0.4627735
50
80.6751522
51
86.893806
0
ARC
8
DEFAULT_255_1_388
10
15.642493
20
86.2731103
40
0.5721798
50
86.8046851
51
90.0423898
0
ARC
8
DEFAULT_255_1_388
10
15.638335
20
86.5498197
40
0.2954939
50
89.2758283
51
106.6212906
0
ARC
8
DEFAULT_255_1_388
10
15.6153374
20
86.6334009
40
0.2088351
50
107.1347109
51
157.6456887
0
ARC
8
DEFAULT_255_1_388
10
15.6921437
20
86.5906908
40
0.296292
50
155.6557383
51
157.256838
0
ARC
8
DEFAULT_255_1_388
10
15.6701051
20
86.7217472
40
0.296341
50
127.8167201
51
148.6300223
0
ARC
8
DEFAULT_255_1_388
10
15.6415798
20
86.7510066
40
0.2557782
50
91.3329934
51
126.7875218
0
ARC
8
DEFAULT_255_1_388
10
15.6501185
20
86.6706718
40
0.3363561
50
89.9858247
51
92.4688453
0
ARC
8
DEFAULT_255_1_388
10
15.6510679
20
86.7015114
40
0.3055179
50
85.3587643
51
90.1624243
0
ARC
8
DEFAULT_255_1_388
10
15.6605744
20
86.8144458
40
0.1921848
50
78.4019195
51
85.4592653
0
ARC
8
DEFAULT_255_1_388
10
15.6768804
20
86.8922142
40
0.1127267
50
67.7849217
51
78.573798
0
ARC
8
DEFAULT_255_1_388
10
15.6890439
20
86.9237374
40
0.0789473
50
63.4805074
51
67.3074739
0
LINE
8
DEFAULT_255_1_388
10
15.8155541
20
86.4974177
11
15.8155541
21
86.509164
0
LINE
8
DEFAULT_255_1_388
10
16.705565
20
86.5010319
11
16.705565
21
86.4892856
0
ARC
8
DEFAULT_255_1_388
10
16.4439985
20
86.512804
40
0.628455
50
166.3005265
51
180.3318609
0
ARC
8
DEFAULT_255_1_388
10
16.3469335
20
86.5345267
40
0.52901
50
153.8608648
51
166.0965672
0
ARC
8
DEFAULT_255_1_388
10
16.2720501
20
86.5746652
40
0.4441126
50
135.1317053
51
154.2534962
0
ARC
8
DEFAULT_255_1_388
10
16.2407151
20
86.6023431
40
0.4023863
50
121.7042632
51
134.7771455
0
ARC
8
DEFAULT_255_1_388
10
16.2482583
20
86.5878469
40
0.4186852
50
93.4001111
51
121.5399523
0
ARC
8
DEFAULT_255_1_388
10
16.2589417
20
86.4948759
40
0.5121521
50
89.9706387
51
93.9763381
0
ARC
8
DEFAULT_255_1_388
10
16.2642402
20
86.5388563
40
0.4681988
50
71.3321659
51
90.6162917
0
ARC
8
DEFAULT_255_1_388
10
16.2825436
20
86.6066003
40
0.3981841
50
41.1813875
51
70.7072086
0
ARC
8
DEFAULT_255_1_388
10
16.2288152
20
86.557813
40
0.4707474
50
12.1971434
51
41.3446641
0
ARC
8
DEFAULT_255_1_388
10
16.0121416
20
86.5062328
40
0.6934429
50
359.5702713
51
12.5803533
0
ARC
8
DEFAULT_255_1_388
10
16.0653732
20
86.4857207
40
0.6402018
50
347.0196754
51
0.3190452
0
ARC
8
DEFAULT_255_1_388
10
16.1731785
20
86.4625189
40
0.5299421
50
334.350439
51
346.8460534
0
ARC
8
DEFAULT_255_1_388
10
16.2683031
20
86.4131244
40
0.4228234
50
310.4228125
51
334.8045131
0
ARC
8
DEFAULT_255_1_388
10
16.277501
20
86.4059301
40
0.4113892
50
301.8488154
51
310.0972985
0
ARC
8
DEFAULT_255_1_388
10
16.273875
20
86.4144573
40
0.4205483
50
274.3078723
51
301.6554173
0
ARC
8
DEFAULT_255_1_388
10
16.2614206
20
86.5131943
40
0.5199658
50
269.954904
51
274.859116
0
ARC
8
DEFAULT_255_1_388
10
16.255903
20
86.4568239
40
0.4636233
50
250.8887647
51
270.6313164
0
ARC
8
DEFAULT_255_1_388
10
16.239019
20
86.3939405
40
0.398705
50
221.1701369
51
250.2227012
0
ARC
8
DEFAULT_255_1_388
10
16.2934856
20
86.4435716
40
0.4723796
50
191.6263861
51
221.3526879
0
ARC
8
DEFAULT_255_1_388
10
16.5058701
20
86.4927203
40
0.6903321
50
179.6101251
51
192.0694841
0
ARC
8
DEFAULT_255_1_388
10
16.5535049
20
86.4856681
40
0.5698993
50
179.636304
51
190.6161344
0
ARC
8
DEFAULT_255_1_388
10
16.368738
20
86.4496635
40
0.3816643
50
190.4136062
51
208.7168709
0
ARC
8
DEFAULT_255_1_388
10
16.3113415
20
86.4211905
40
0.3176572
50
209.187109
51
217.4221816
0
ARC
8
DEFAULT_255_1_388
10
16.2517885
20
86.3687729
40
0.2385702
50
216.1156863
51
265.2575395
0
ARC
8
DEFAULT_255_1_388
10
16.2606921
20
86.4332608
40
0.3035941
50
264.5891546
51
270.0602378
0
ARC
8
DEFAULT_255_1_388
10
16.2644118
20
86.3905539
40
0.2609091
50
269.2532353
51
291.8793864
0
ARC
8
DEFAULT_255_1_388
10
16.2676997
20
86.3705359
40
0.241148
50
292.9269367
51
323.1777736
0
ARC
8
DEFAULT_255_1_388
10
16.2206282
20
86.4118762
40
0.3036446
50
322.25666
51
323.087958
0
ARC
8
DEFAULT_255_1_388
10
16.190354
20
86.4301332
40
0.3388345
50
323.6941379
51
343.8493587
0
ARC
8
DEFAULT_255_1_388
10
16.0127976
20
86.4841698
40
0.5244204
50
343.5746655
51
355.008149
0
ARC
8
DEFAULT_255_1_388
10
15.7869668
20
86.5075797
40
0.7514406
50
354.728272
51
0.1208026
0
ARC
8
DEFAULT_255_1_388
10
15.9858694
20
86.5127947
40
0.5525482
50
359.6235211
51
11.2016685
0
ARC
8
DEFAULT_255_1_388
10
16.1584521
20
86.5483284
40
0.3763527
50
10.9991302
51
30.8317616
0
ARC
8
DEFAULT_255_1_388
10
16.2029824
20
86.5717988
40
0.3260975
50
31.3007463
51
37.395541
0
ARC
8
DEFAULT_255_1_388
10
16.2588544
20
86.6189773
40
0.253082
50
36.5918894
51
62.2439906
0
ARC
8
DEFAULT_255_1_388
10
16.2640835
20
86.6186378
40
0.2509927
50
63.3364883
51
89.7193846
0
ARC
8
DEFAULT_255_1_388
10
16.2592289
20
86.5538375
40
0.3158485
50
88.8962924
51
90.004475
0
ARC
8
DEFAULT_255_1_388
10
16.2556716
20
86.6191071
40
0.250604
50
89.1923115
51
114.7099029
0
ARC
8
DEFAULT_255_1_388
10
16.2589058
20
86.6233675
40
0.2481307
50
115.7996284
51
142.2901353
0
ARC
8
DEFAULT_255_1_388
10
16.3057329
20
86.5814752
40
0.310833
50
141.4607507
51
142.383894
0
ARC
8
DEFAULT_255_1_388
10
16.320518
20
86.5746449
40
0.3267335
50
143.0176473
51
163.2340089
0
ARC
8
DEFAULT_255_1_388
10
16.4980469
20
86.5184553
40
0.5129308
50
162.9446504
51
174.3733893
0
ARC
8
DEFAULT_255_1_388
10
16.7394441
20
86.4913483
40
0.75583
50
174.1225809
51
180.1563667
0
LINE
8
DEFAULT_255_1_388
10
17.0968084
20
87.399175
11
17.0968084
21
86.0113
0
LINE
8
DEFAULT_255_1_388
10
17.0968084
20
86.0113
11
16.929649
21
86.0113
0
LINE
8
DEFAULT_255_1_388
10
16.929649
20
86.0113
11
16.929649
21
87.399175
0
LINE
8
DEFAULT_255_1_388
10
16.929649
20
87.399175
11
17.0968084
21
87.399175
0
LINE
8
DEFAULT_255_1_388
10
17.5648548
20
87.3268898
11
17.5648548
21
86.1531596
0
LINE
8
DEFAULT_255_1_388
10
17.5648548
20
86.1531596
11
18.1883143
21
86.1531596
0
LINE
8
DEFAULT_255_1_388
10
18.1883143
20
86.1531596
11
18.1883143
21
86.0113
0
LINE
8
DEFAULT_255_1_388
10
18.1883143
20
86.0113
11
17.3904669
21
86.0113
0
LINE
8
DEFAULT_255_1_388
10
17.3904669
20
86.0113
11
17.3904669
21
87.3268898
0
LINE
8
DEFAULT_255_1_388
10
17.3904669
20
87.3268898
11
17.5648548
21
87.3268898
0
LINE
8
DEFAULT_255_1_388
10
18.3157169
20
86.4974177
11
18.3157169
21
86.509164
0
LINE
8
DEFAULT_255_1_388
10
19.2057279
20
86.5010319
11
19.2057279
21
86.4892856
0
ARC
8
DEFAULT_255_1_388
10
18.9441613
20
86.512804
40
0.628455
50
166.3005265
51
180.3318609
0
ARC
8
DEFAULT_255_1_388
10
18.8470963
20
86.5345267
40
0.52901
50
153.8608648
51
166.0965672
0
ARC
8
DEFAULT_255_1_388
10
18.7722129
20
86.5746652
40
0.4441126
50
135.1317053
51
154.2534962
0
ARC
8
DEFAULT_255_1_388
10
18.740878
20
86.6023431
40
0.4023863
50
121.7042632
51
134.7771455
0
ARC
8
DEFAULT_255_1_388
10
18.7484212
20
86.5878469
40
0.4186852
50
93.4001111
51
121.5399523
0
ARC
8
DEFAULT_255_1_388
10
18.7591046
20
86.4948759
40
0.5121521
50
89.9706387
51
93.9763381
0
ARC
8
DEFAULT_255_1_388
10
18.764403
20
86.5388563
40
0.4681988
50
71.3321659
51
90.6162917
0
ARC
8
DEFAULT_255_1_388
10
18.7827064
20
86.6066003
40
0.3981841
50
41.1813875
51
70.7072086
0
ARC
8
DEFAULT_255_1_388
10
18.728978
20
86.557813
40
0.4707474
50
12.1971434
51
41.3446641
0
ARC
8
DEFAULT_255_1_388
10
18.5123044
20
86.5062328
40
0.6934429
50
359.5702713
51
12.5803533
0
ARC
8
DEFAULT_255_1_388
10
18.565536
20
86.4857207
40
0.6402018
50
347.0196754
51
0.3190452
0
ARC
8
DEFAULT_255_1_388
10
18.6733413
20
86.4625189
40
0.5299421
50
334.350439
51
346.8460534
0
ARC
8
DEFAULT_255_1_388
10
18.768466
20
86.4131244
40
0.4228234
50
310.4228125
51
334.8045131
0
ARC
8
DEFAULT_255_1_388
10
18.7776638
20
86.4059301
40
0.4113892
50
301.8488154
51
310.0972985
0
ARC
8
DEFAULT_255_1_388
10
18.7740378
20
86.4144573
40
0.4205483
50
274.3078723
51
301.6554173
0
ARC
8
DEFAULT_255_1_388
10
18.7615834
20
86.5131943
40
0.5199658
50
269.954904
51
274.859116
0
ARC
8
DEFAULT_255_1_388
10
18.7560658
20
86.4568239
40
0.4636233
50
250.8887647
51
270.6313164
0
ARC
8
DEFAULT_255_1_388
10
18.7391819
20
86.3939405
40
0.398705
50
221.1701369
51
250.2227012
0
ARC
8
DEFAULT_255_1_388
10
18.7936484
20
86.4435716
40
0.4723796
50
191.6263861
51
221.3526879
0
ARC
8
DEFAULT_255_1_388
10
19.0060329
20
86.4927203
40
0.6903321
50
179.6101251
51
192.0694841
0
ARC
8
DEFAULT_255_1_388
10
19.0536677
20
86.4856681
40
0.5698993
50
179.636304
51
190.6161344
0
ARC
8
DEFAULT_255_1_388
10
18.8689009
20
86.4496635
40
0.3816643
50
190.4136062
51
208.7168709
0
ARC
8
DEFAULT_255_1_388
10
18.8115043
20
86.4211905
40
0.3176572
50
209.187109
51
217.4221816
0
ARC
8
DEFAULT_255_1_388
10
18.7519513
20
86.3687729
40
0.2385702
50
216.1156863
51
265.2575395
0
ARC
8
DEFAULT_255_1_388
10
18.760855
20
86.4332608
40
0.3035941
50
264.5891546
51
270.0602378
0
ARC
8
DEFAULT_255_1_388
10
18.7645746
20
86.3905539
40
0.2609091
50
269.2532353
51
291.8793864
0
ARC
8
DEFAULT_255_1_388
10
18.7678625
20
86.3705359
40
0.241148
50
292.9269367
51
323.1777736
0
ARC
8
DEFAULT_255_1_388
10
18.7207911
20
86.4118762
40
0.3036446
50
322.25666
51
323.087958
0
ARC
8
DEFAULT_255_1_388
10
18.6905168
20
86.4301332
40
0.3388345
50
323.6941379
51
343.8493587
0
ARC
8
DEFAULT_255_1_388
10
18.5129605
20
86.4841698
40
0.5244204
50
343.5746655
51
355.008149
0
ARC
8
DEFAULT_255_1_388
10
18.2871296
20
86.5075797
40
0.7514406
50
354.728272
51
0.1208026
0
ARC
8
DEFAULT_255_1_388
10
18.4860322
20
86.5127947
40
0.5525482
50
359.6235211
51
11.2016685
0
ARC
8
DEFAULT_255_1_388
10
18.6586149
20
86.5483284
40
0.3763527
50
10.9991302
51
30.8317616
0
ARC
8
DEFAULT_255_1_388
10
18.7031453
20
86.5717988
40
0.3260975
50
31.3007463
51
37.395541
0
ARC
8
DEFAULT_255_1_388
10
18.7590172
20
86.6189773
40
0.253082
50
36.5918894
51
62.2439906
0
ARC
8
DEFAULT_255_1_388
10
18.7642464
20
86.6186378
40
0.2509927
50
63.3364883
51
89.7193846
0
ARC
8
DEFAULT_255_1_388
10
18.7593917
20
86.5538375
40
0.3158485
50
88.8962924
51
90.004475
0
ARC
8
DEFAULT_255_1_388
10
18.7558344
20
86.6191071
40
0.250604
50
89.1923115
51
114.7099029
0
ARC
8
DEFAULT_255_1_388
10
18.7590686
20
86.6233675
40
0.2481307
50
115.7996284
51
142.2901353
0
ARC
8
DEFAULT_255_1_388
10
18.8058957
20
86.5814752
40
0.310833
50
141.4607507
51
142.383894
0
ARC
8
DEFAULT_255_1_388
10
18.8206808
20
86.5746449
40
0.3267335
50
143.0176473
51
163.2340089
0
ARC
8
DEFAULT_255_1_388
10
18.9982097
20
86.5184553
40
0.5129308
50
162.9446504
51
174.3733893
0
ARC
8
DEFAULT_255_1_388
10
19.239607
20
86.4913483
40
0.75583
50
174.1225809
51
180.1563667
0
LINE
8
DEFAULT_255_1_388
10
20.0406214
20
86.880529
11
20.0487535
21
86.9889567
0
LINE
8
DEFAULT_255_1_388
10
20.0487535
20
86.9889567
11
20.2014559
21
86.9889567
0
LINE
8
DEFAULT_255_1_388
10
20.2014559
20
86.9889567
11
20.2014559
21
86.0347927
0
LINE
8
DEFAULT_255_1_388
10
19.425294
20
85.7953481
11
19.5120362
21
85.8956438
0
LINE
8
DEFAULT_255_1_388
10
20.0333929
20
86.0248535
11
20.0333929
21
86.108885
0
LINE
8
DEFAULT_255_1_388
10
20.0333929
20
86.2787551
11
20.0333929
21
86.7251159
0
ARC
8
DEFAULT_255_1_388
10
20.1794907
20
86.513122
40
0.8039074
50
169.8802333
51
180.3464902
0
ARC
8
DEFAULT_255_1_388
10
19.9147713
20
86.562287
40
0.5346711
50
152.8534324
51
170.0824729
0
ARC
8
DEFAULT_255_1_388
10
19.8210108
20
86.6066868
40
0.4309932
50
142.0147746
51
152.418569
0
ARC
8
DEFAULT_255_1_388
10
19.7493556
20
86.6719169
40
0.3344504
50
94.3317494
51
143.2674518
0
ARC
8
DEFAULT_255_1_388
10
19.7610415
20
86.5838903
40
0.423138
50
89.9487512
51
95.0093077
0
ARC
8
DEFAULT_255_1_388
10
19.7657213
20
86.6018021
40
0.4052487
50
72.9496911
51
90.6081488
0
ARC
8
DEFAULT_255_1_388
10
19.7887937
20
86.6853718
40
0.3185963
50
37.7743532
51
72.5099202
0
ARC
8
DEFAULT_255_1_388
10
19.6852803
20
86.0304774
40
0.5161937
50
346.3655403
51
0.4789834
0
ARC
8
DEFAULT_255_1_388
10
19.8391636
20
85.9913644
40
0.3574311
50
314.3365584
51
346.6438898
0
ARC
8
DEFAULT_255_1_388
10
19.8276781
20
86.00749
40
0.3770042
50
280.7144
51
313.872307
0
ARC
8
DEFAULT_255_1_388
10
19.7899516
20
86.1756099
40
0.5492378
50
269.6628653
51
281.3208129
0
ARC
8
DEFAULT_255_1_388
10
19.7881176
20
86.1292105
40
0.5028309
50
245.5258654
51
269.8407328
0
ARC
8
DEFAULT_255_1_388
10
19.7452021
20
86.0487065
40
0.4118207
50
232.6664457
51
246.3200328
0
ARC
8
DEFAULT_255_1_388
10
19.6907265
20
85.9764386
40
0.3213227
50
214.3036526
51
232.5750527
0
ARC
8
DEFAULT_255_1_388
10
19.8165297
20
86.1368259
40
0.3884393
50
218.381912
51
236.3657409
0
ARC
8
DEFAULT_255_1_388
10
19.7715067
20
86.0740326
40
0.3112322
50
236.8637655
51
270.6382272
0
ARC
8
DEFAULT_255_1_388
10
19.777675
20
86.1112587
40
0.3484494
50
269.5557858
51
282.3972101
0
ARC
8
DEFAULT_255_1_388
10
19.8042335
20
85.9970767
40
0.2312324
50
282.043923
51
308.3079272
0
ARC
8
DEFAULT_255_1_388
10
19.813845
20
85.981747
40
0.2132542
50
308.8347234
51
315.2037678
0
ARC
8
DEFAULT_255_1_388
10
19.8050159
20
85.9882123
40
0.2240808
50
315.6213011
51
345.6795376
0
ARC
8
DEFAULT_255_1_388
10
19.6948584
20
86.0188736
40
0.3384084
50
345.2627538
51
358.6311244
0
ARC
8
DEFAULT_255_1_388
10
19.595009
20
86.0247581
40
0.4383839
50
358.1739988
51
0.0124651
0
ARC
8
DEFAULT_255_1_388
10
19.7844266
20
86.3241381
40
0.3291173
50
275.6950404
51
319.1537182
0
ARC
8
DEFAULT_255_1_388
10
19.7605897
20
86.4619049
40
0.4686772
50
269.8805882
51
276.9235205
0
ARC
8
DEFAULT_255_1_388
10
19.7546197
20
86.33699
40
0.3437976
50
244.0748846
51
270.8321697
0
ARC
8
DEFAULT_255_1_388
10
19.7630705
20
86.3392423
40
0.3495805
50
217.781776
51
242.9905232
0
ARC
8
DEFAULT_255_1_388
10
19.8306136
20
86.3993567
40
0.4398355
50
217.5209891
51
218.58043
0
ARC
8
DEFAULT_255_1_388
10
19.8621975
20
86.417913
40
0.4762087
50
195.3497149
51
216.9773048
0
ARC
8
DEFAULT_255_1_388
10
20.0897864
20
86.4840667
40
0.7131994
50
183.9387193
51
195.6348167
0
ARC
8
DEFAULT_255_1_388
10
20.3458059
20
86.5070646
40
0.9702086
50
179.929381
51
184.2551265
0
ARC
8
DEFAULT_255_1_388
10
20.1971725
20
86.4858515
40
0.6535206
50
179.6989243
51
188.5749266
0
ARC
8
DEFAULT_255_1_388
10
19.9706916
20
86.4504789
40
0.4242988
50
188.4117627
51
202.0559679
0
ARC
8
DEFAULT_255_1_388
10
19.8617176
20
86.4076952
40
0.3072368
50
202.2924994
51
215.4475859
0
ARC
8
DEFAULT_255_1_388
10
19.7892247
20
86.3515576
40
0.2156547
50
214.4673097
51
264.3362727
0
ARC
8
DEFAULT_255_1_388
10
19.8006915
20
86.4231673
40
0.2880794
50
263.4723224
51
270.0965288
0
ARC
8
DEFAULT_255_1_388
10
19.805215
20
86.4063896
40
0.2713313
50
269.1472473
51
291.7978484
0
ARC
8
DEFAULT_255_1_388
10
19.8122411
20
86.3750081
40
0.2396396
50
293.0243185
51
327.6232391
0
ARC
8
DEFAULT_255_1_388
10
19.7325844
20
86.4332435
40
0.3381603
50
326.5171836
51
332.8160011
0
ARC
8
DEFAULT_255_1_388
10
19.7721026
20
86.5862272
40
0.29591
50
27.9928465
51
47.6314088
0
ARC
8
DEFAULT_255_1_388
10
19.812773
20
86.6249256
40
0.2399437
50
48.5793547
51
88.6245273
0
ARC
8
DEFAULT_255_1_388
10
19.8030849
20
86.5409448
40
0.3242237
50
87.2690754
51
90.0178312
0
ARC
8
DEFAULT_255_1_388
10
19.7998548
20
86.6147957
40
0.2503923
50
89.2839515
51
110.1847982
0
ARC
8
DEFAULT_255_1_388
10
19.7929349
20
86.6447002
40
0.2199699
50
111.180781
51
145.0423499
0
ARC
8
DEFAULT_255_1_388
10
19.829021
20
86.6134759
40
0.2674811
50
143.9895932
51
144.106678
0
ARC
8
DEFAULT_255_1_388
10
19.866028
20
86.591319
40
0.3104736
50
144.7981654
51
162.8715843
0
ARC
8
DEFAULT_255_1_388
10
20.056688
20
86.5300138
40
0.5107383
50
162.598526
51
173.3417416
0
ARC
8
DEFAULT_255_1_388
10
20.3568253
20
86.4927767
40
0.8131718
50
173.1877249
51
180.2459848
0
LINE
8
DEFAULT_255_1_388
10
20.6351668
20
86.9889567
11
20.6351668
21
86.0113
0
LINE
8
DEFAULT_255_1_388
10
20.6351668
20
86.0113
11
20.4680074
21
86.0113
0
LINE
8
DEFAULT_255_1_388
10
20.4680074
20
86.0113
11
20.4680074
21
86.9889567
0
LINE
8
DEFAULT_255_1_388
10
20.4680074
20
86.9889567
11
20.6351668
21
86.9889567
0
ARC
8
DEFAULT_255_1_388
10
20.5645436
20
87.2493428
40
0.1100948
50
161.4148232
51
180.5532607
0
ARC
8
DEFAULT_255_1_388
10
20.5505746
20
87.2531875
40
0.0956324
50
138.1830164
51
160.9307633
0
ARC
8
DEFAULT_255_1_388
10
20.5381933
20
87.2639313
40
0.0792417
50
104.6371663
51
138.0036136
0
ARC
8
DEFAULT_255_1_388
10
20.5502472
20
87.2226963
40
0.1221906
50
92.0601206
51
105.2198859
0
ARC
8
DEFAULT_255_1_388
10
20.5528836
20
87.1838583
40
0.161103
50
89.9790681
51
92.5006086
0
ARC
8
DEFAULT_255_1_388
10
20.5540012
20
87.2094998
40
0.1354654
50
78.0234649
51
90.4478111
0
ARC
8
DEFAULT_255_1_388
10
20.5643597
20
87.2560203
40
0.0878096
50
55.0521508
51
78.336297
0
ARC
8
DEFAULT_255_1_388
10
20.5700131
20
87.2655168
40
0.0767913
50
42.0506198
51
54.4508489
0
ARC
8
DEFAULT_255_1_388
10
20.5548164
20
87.2515821
40
0.0974091
50
1.7493657
51
42.1498724
0
ARC
8
DEFAULT_255_1_388
10
20.526207
20
87.2483166
40
0.1261276
50
359.9832635
51
2.8353994
0
ARC
8
DEFAULT_255_1_388
10
20.544848
20
87.2472412
40
0.1074916
50
342.1062453
51
0.5535864
0
ARC
8
DEFAULT_255_1_388
10
20.5608904
20
87.2428197
40
0.0908695
50
316.7110111
51
341.6513114
0
ARC
8
DEFAULT_255_1_388
10
20.5684336
20
87.2360607
40
0.0807447
50
285.4398289
51
316.5320129
0
ARC
8
DEFAULT_255_1_388
10
20.5560506
20
87.2772023
40
0.1237022
50
272.3543902
51
285.8951677
0
ARC
8
DEFAULT_255_1_388
10
20.5530216
20
87.3187742
40
0.1653687
50
269.9725761
51
272.8112722
0
ARC
8
DEFAULT_255_1_388
10
20.5519268
20
87.2936727
40
0.1402709
50
258.8433431
51
270.4148607
0
ARC
8
DEFAULT_255_1_388
10
20.5418048
20
87.2446739
40
0.0902407
50
238.54281
51
259.1289544
0
ARC
8
DEFAULT_255_1_388
10
20.534137
20
87.2307694
40
0.0743817
50
222.5056676
51
237.9918132
0
ARC
8
DEFAULT_255_1_388
10
20.5484963
20
87.2438295
40
0.0937918
50
184.1070774
51
222.4604165
0
ARC
8
DEFAULT_255_1_388
10
20.5787377
20
87.2481538
40
0.1242838
50
179.9419581
51
185.0970785
0
LINE
8
DEFAULT_255_1_388
10
21.016471
20
86.9889567
11
21.2306158
21
86.6320488
0
LINE
8
DEFAULT_255_1_388
10
21.2306158
20
86.6320488
11
21.4474713
21
86.9889567
0
LINE
8
DEFAULT_255_1_388
10
21.4474713
20
86.9889567
11
21.6426412
21
86.9889567
0
LINE
8
DEFAULT_255_1_388
10
21.6426412
20
86.9889567
11
21.3227794
21
86.5055498
0
LINE
8
DEFAULT_255_1_388
10
21.3227794
20
86.5055498
11
21.6525804
21
86.0113
0
LINE
8
DEFAULT_255_1_388
10
21.6525804
20
86.0113
11
21.4592176
21
86.0113
0
LINE
8
DEFAULT_255_1_388
10
21.4592176
20
86.0113
11
21.2333265
21
86.3772436
0
LINE
8
DEFAULT_255_1_388
10
21.2333265
20
86.3772436
11
21.0074354
21
86.0113
0
LINE
8
DEFAULT_255_1_388
10
21.0074354
20
86.0113
11
20.813169
21
86.0113
0
LINE
8
DEFAULT_255_1_388
10
20.813169
20
86.0113
11
21.1429701
21
86.5055498
0
LINE
8
DEFAULT_255_1_388
10
21.1429701
20
86.5055498
11
20.8231083
21
86.9889567
0
LINE
8
DEFAULT_255_1_388
10
20.8231083
20
86.9889567
11
21.016471
21
86.9889567
0
LINE
8
DEFAULT_255_2_778
10
9.3932417
20
76.596849
11
10.7161417
21
76.596849
0
LINE
8
DEFAULT_255_2_778
10
10.7161417
20
76.596849
11
10.7161417
21
43.523949
0
LINE
8
DEFAULT_255_2_778
10
10.7161417
20
38.232249
11
10.7161417
21
5.159349
0
LINE
8
DEFAULT_255_2_778
10
10.7161417
20
5.159349
11
9.3932417
21
5.159349
0
LINE
8
DEFAULT_255_2_778
10
9.3932834
20
43.5239333
11
12.0390834
21
43.5239333
0
LINE
8
DEFAULT_255_2_778
10
12.0390834
20
43.5239333
11
12.0390834
21
38.2322333
0
LINE
8
DEFAULT_255_2_778
10
12.0390834
20
38.2322333
11
9.3932834
21
38.2322333
0
LINE
8
DEFAULT_255_2_778
10
9.3932834
20
38.2322333
11
9.3932834
21
43.5239333
0
LINE
8
DEFAULT_255_2_778
10
10.187
20
38.7614666
11
10.187
21
42.9947666
0
LINE
8
DEFAULT_255_2_778
10
9.9224167
20
42.201075
11
10.1870167
21
42.994775
0
LINE
8
DEFAULT_255_2_778
10
10.1870167
20
42.994775
11
10.4516167
21
42.201075
0
LINE
8
DEFAULT_255_2_778
10
10.4516167
20
42.201075
11
9.9224167
21
42.201075
0
LINE
8
DEFAULT_255_2_778
10
11.2453
20
42.9947666
11
11.2453
21
38.7614666
0
LINE
8
DEFAULT_255_2_778
10
10.9807167
20
39.555175
11
11.2453167
21
38.761475
0
LINE
8
DEFAULT_255_2_778
10
11.2453167
20
38.761475
11
11.5099167
21
39.555175
0
LINE
8
DEFAULT_255_2_778
10
11.5099167
20
39.555175
11
10.9807167
21
39.555175
0
LINE
8
DEFAULT_255_2_778
10
18.6536417
20
42.2010991
11
18.6536417
21
13.0968991
0
LINE
8
DEFAULT_255_2_778
10
18.6536417
20
13.0968991
11
19.9765417
21
13.0968991
0
LINE
8
DEFAULT_255_2_778
10
19.9765417
20
76.5968991
11
18.6536417
21
76.5968991
0
LINE
8
DEFAULT_255_2_778
10
18.6536417
20
76.5968991
11
18.6536417
21
47.4926991
0
LINE
8
DEFAULT_255_2_778
10
17.3307834
20
47.4927333
11
19.9765834
21
47.4927333
0
LINE
8
DEFAULT_255_2_778
10
19.9765834
20
47.4927333
11
19.9765834
21
42.2010333
0
LINE
8
DEFAULT_255_2_778
10
19.9765834
20
42.2010333
11
17.3307834
21
42.2010333
0
LINE
8
DEFAULT_255_2_778
10
17.3307834
20
42.2010333
11
17.3307834
21
47.4927333
0
LINE
8
DEFAULT_255_2_778
10
18.1245
20
42.7302666
11
18.1245
21
46.9635666
0
LINE
8
DEFAULT_255_2_778
10
17.8599167
20
46.169875
11
18.1245167
21
46.963575
0
LINE
8
DEFAULT_255_2_778
10
18.1245167
20
46.963575
11
18.3891167
21
46.169875
0
LINE
8
DEFAULT_255_2_778
10
18.3891167
20
46.169875
11
17.8599167
21
46.169875
0
LINE
8
DEFAULT_255_2_778
10
19.1828
20
46.9635666
11
19.1828
21
42.7302666
0
LINE
8
DEFAULT_255_2_778
10
18.9182167
20
43.523975
11
19.1828167
21
42.730275
0
LINE
8
DEFAULT_255_2_778
10
19.1828167
20
42.730275
11
19.4474167
21
43.523975
0
LINE
8
DEFAULT_255_2_778
10
19.4474167
20
43.523975
11
18.9182167
21
43.523975
0
LINE
8
DEFAULT_255_1_388
10
4.8798318
20
84.1633382
11
4.8798318
21
84.0269
0
LINE
8
DEFAULT_255_1_388
10
4.8798318
20
84.0269
11
4.0178313
21
84.0269
0
LINE
8
DEFAULT_255_1_388
10
4.0178313
20
84.0269
11
4.0178313
21
84.1470741
0
LINE
8
DEFAULT_255_1_388
10
4.0178313
20
84.1470741
11
4.4732278
21
84.6530702
0
LINE
8
DEFAULT_255_1_388
10
4.1596909
20
84.9548607
11
3.9925315
21
84.9548607
0
LINE
8
DEFAULT_255_1_388
10
4.5717163
20
84.545546
11
4.2193262
21
84.1633382
0
LINE
8
DEFAULT_255_1_388
10
4.2193262
20
84.1633382
11
4.8798318
21
84.1633382
0
ARC
8
DEFAULT_255_1_388
10
2.9556337
20
85.9950983
40
2.0258655
50
318.5132526
51
320.7829045
0
ARC
8
DEFAULT_255_1_388
10
3.5504294
20
85.5109929
40
1.2589638
50
320.7372878
51
323.9739031
0
ARC
8
DEFAULT_255_1_388
10
3.9913226
20
85.1915554
40
0.7145141
50
323.8962701
51
328.64194
0
ARC
8
DEFAULT_255_1_388
10
4.2215484
20
85.0495545
40
0.4440242
50
328.8294576
51
331.7891185
0
ARC
8
DEFAULT_255_1_388
10
4.3337804
20
84.9916374
40
0.3177517
50
331.4254512
51
352.9365785
0
ARC
8
DEFAULT_255_1_388
10
4.3490804
20
84.988205
40
0.3021496
50
353.2257659
51
0.0166158
0
ARC
8
DEFAULT_255_1_388
10
4.3727564
20
84.9907894
40
0.2784847
50
359.486299
51
15.9343185
0
ARC
8
DEFAULT_255_1_388
10
4.4297831
20
85.0061269
40
0.2194403
50
16.1712913
51
43.5286088
0
ARC
8
DEFAULT_255_1_388
10
4.4384776
20
85.0148191
40
0.2071504
50
43.4417391
51
83.1661095
0
ARC
8
DEFAULT_255_1_388
10
4.4233937
20
84.9319316
40
0.2912888
50
82.160179
51
90.1505708
0
ARC
8
DEFAULT_255_1_388
10
4.4198418
20
84.8715279
40
0.3517025
50
89.5460741
51
102.5418361
0
ARC
8
DEFAULT_255_1_388
10
4.3925138
20
84.9874933
40
0.2325748
50
102.1738499
51
129.206123
0
ARC
8
DEFAULT_255_1_388
10
4.3836592
20
85.0014664
40
0.2161591
50
129.72865
51
135.753947
0
ARC
8
DEFAULT_255_1_388
10
4.3973074
20
84.9905728
40
0.2335433
50
136.1757367
51
166.3673339
0
ARC
8
DEFAULT_255_1_388
10
4.5105762
20
84.9602148
40
0.3507873
50
165.9090694
51
178.8684636
0
ARC
8
DEFAULT_255_1_388
10
4.6081534
20
84.9549263
40
0.4484624
50
178.4391136
51
180.0083808
0
ARC
8
DEFAULT_255_1_388
10
4.4502235
20
84.9593197
40
0.4577138
50
163.2878482
51
180.5581842
0
ARC
8
DEFAULT_255_1_388
10
4.3600276
20
84.9841393
40
0.3641968
50
133.4540601
51
162.947111
0
ARC
8
DEFAULT_255_1_388
10
4.3801158
20
84.9627789
40
0.3935189
50
100.7869829
51
133.4382499
0
ARC
8
DEFAULT_255_1_388
10
4.4192403
20
84.7885399
40
0.5720313
50
89.660664
51
101.3702276
0
ARC
8
DEFAULT_255_1_388
10
4.4267012
20
84.7954263
40
0.5651495
50
78.2172678
51
90.412935
0
ARC
8
DEFAULT_255_1_388
10
4.4666478
20
84.9781511
40
0.378122
50
55.9269121
51
78.4888449
0
ARC
8
DEFAULT_255_1_388
10
4.4887193
20
85.0162187
40
0.3342379
50
47.929771
51
55.4049217
0
ARC
8
DEFAULT_255_1_388
10
4.5001723
20
85.0278618
40
0.3179217
50
4.334829
51
48.0560205
0
ARC
8
DEFAULT_255_1_388
10
4.3769525
20
85.0087487
40
0.442341
50
359.9251713
51
5.5971671
0
ARC
8
DEFAULT_255_1_388
10
4.425168
20
85.0150728
40
0.3941854
50
337.8914027
51
358.9967534
0
ARC
8
DEFAULT_255_1_388
10
4.119925
20
85.1328295
40
0.7213271
50
326.9132501
51
338.3508308
0
ARC
8
DEFAULT_255_1_388
10
3.6715362
20
85.4202105
40
1.2538973
50
319.6471833
51
327.0959558
0
ARC
8
DEFAULT_255_1_388
10
3.240202
20
85.776005
40
1.8129975
50
317.2588228
51
319.9045804
0
LINE
8
DEFAULT_255_1_388
10
5.7626143
20
85.3424898
11
5.7626143
21
84.468743
0
LINE
8
DEFAULT_255_1_388
10
5.7626143
20
84.468743
11
5.9451343
21
84.468743
0
LINE
8
DEFAULT_255_1_388
10
5.9451343
20
84.468743
11
5.9451343
21
84.3323048
0
LINE
8
DEFAULT_255_1_388
10
5.9451343
20
84.3323048
11
5.7626143
21
84.3323048
0
LINE
8
DEFAULT_255_1_388
10
5.7626143
20
84.3323048
11
5.7626143
21
84.0269
0
LINE
8
DEFAULT_255_1_388
10
5.7626143
20
84.0269
11
5.5945513
21
84.0269
0
LINE
8
DEFAULT_255_1_388
10
5.5945513
20
84.0269
11
5.5945513
21
84.3323048
0
LINE
8
DEFAULT_255_1_388
10
5.5945513
20
84.3323048
11
4.995488
21
84.3323048
0
LINE
8
DEFAULT_255_1_388
10
4.995488
20
84.3323048
11
4.995488
21
84.4307933
0
LINE
8
DEFAULT_255_1_388
10
4.995488
20
84.4307933
11
5.5846121
21
85.3424898
0
LINE
8
DEFAULT_255_1_388
10
5.5846121
20
85.3424898
11
5.7626143
21
85.3424898
0
LINE
8
DEFAULT_255_1_388
10
5.5746729
20
85.0777455
11
5.1852366
21
84.468743
0
LINE
8
DEFAULT_255_1_388
10
5.1852366
20
84.468743
11
5.5945513
21
84.468743
0
LINE
8
DEFAULT_255_1_388
10
5.5945513
20
84.468743
11
5.5945513
21
85.113888
0
LINE
8
DEFAULT_255_1_388
10
5.5945513
20
85.113888
11
5.5746729
21
85.0777455
0
LINE
8
DEFAULT_255_1_388
10
6.200843
20
85.3424898
11
6.5749187
21
84.2573089
0
LINE
8
DEFAULT_255_1_388
10
6.5749187
20
84.2573089
11
6.9508015
21
85.3424898
0
LINE
8
DEFAULT_255_1_388
10
6.9508015
20
85.3424898
11
7.14055
21
85.3424898
0
LINE
8
DEFAULT_255_1_388
10
7.14055
20
85.3424898
11
6.6526252
21
84.0269
0
LINE
8
DEFAULT_255_1_388
10
6.6526252
20
84.0269
11
6.4990193
21
84.0269
0
LINE
8
DEFAULT_255_1_388
10
6.4990193
20
84.0269
11
6.011998
21
85.3424898
0
LINE
8
DEFAULT_255_1_388
10
6.011998
20
85.3424898
11
6.200843
21
85.3424898
0
LINE
8
DEFAULT_255_1_388
10
4.1650903
20
5.9674898
11
4.1650903
21
4.7937596
0
LINE
8
DEFAULT_255_1_388
10
4.1650903
20
4.7937596
11
4.7885498
21
4.7937596
0
LINE
8
DEFAULT_255_1_388
10
4.7885498
20
4.7937596
11
4.7885498
21
4.6519
0
LINE
8
DEFAULT_255_1_388
10
4.7885498
20
4.6519
11
3.9907024
21
4.6519
0
LINE
8
DEFAULT_255_1_388
10
3.9907024
20
4.6519
11
3.9907024
21
5.9674898
0
LINE
8
DEFAULT_255_1_388
10
3.9907024
20
5.9674898
11
4.1650903
21
5.9674898
0
LINE
8
DEFAULT_255_1_388
10
5.4924265
20
5.9738148
11
5.4924265
21
4.6519
0
LINE
8
DEFAULT_255_1_388
10
5.4924265
20
4.6519
11
5.3243635
21
4.6519
0
LINE
8
DEFAULT_255_1_388
10
5.3243635
20
4.6519
11
5.3243635
21
5.765995
0
LINE
8
DEFAULT_255_1_388
10
5.3243635
20
5.765995
11
4.987334
21
5.6422066
0
LINE
8
DEFAULT_255_1_388
10
4.987334
20
5.6422066
11
4.987334
21
5.7940055
0
LINE
8
DEFAULT_255_1_388
10
4.987334
20
5.7940055
11
5.4662231
21
5.9738148
0
LINE
8
DEFAULT_255_1_388
10
5.4662231
20
5.9738148
11
5.4924265
21
5.9738148
0
LINE
8
DEFAULT_255_1_388
10
6.3471985
20
5.2789737
11
6.3471985
21
5.1425355
0
LINE
8
DEFAULT_255_1_388
10
6.3471985
20
5.1425355
11
5.906259
21
5.1425355
0
LINE
8
DEFAULT_255_1_388
10
5.906259
20
5.1425355
11
5.906259
21
5.2789737
0
LINE
8
DEFAULT_255_1_388
10
5.906259
20
5.2789737
11
6.3471985
21
5.2789737
0
LINE
8
DEFAULT_255_1_388
10
7.0420396
20
5.9738148
11
7.0420396
21
4.6519
0
LINE
8
DEFAULT_255_1_388
10
7.0420396
20
4.6519
11
6.8739766
21
4.6519
0
LINE
8
DEFAULT_255_1_388
10
6.8739766
20
4.6519
11
6.8739766
21
5.765995
0
LINE
8
DEFAULT_255_1_388
10
6.8739766
20
5.765995
11
6.536947
21
5.6422066
0
LINE
8
DEFAULT_255_1_388
10
6.536947
20
5.6422066
11
6.536947
21
5.7940055
0
LINE
8
DEFAULT_255_1_388
10
6.536947
20
5.7940055
11
7.0158362
21
5.9738148
0
LINE
8
DEFAULT_255_1_388
10
7.0158362
20
5.9738148
11
7.0420396
21
5.9738148
0
LINE
8
DEFAULT_255_1_388
10
5.0109946
20
13.2878553
11
5.0109946
21
13.2047274
0
LINE
8
DEFAULT_255_1_388
10
3.9529206
20
13.1929811
11
3.9529206
21
13.2878553
0
LINE
8
DEFAULT_255_1_388
10
4.8384138
20
13.1920775
11
4.8384138
21
13.2896625
0
LINE
8
DEFAULT_255_1_388
10
4.1255014
20
13.3014088
11
4.1255014
21
13.2047274
0
ARC
8
DEFAULT_255_1_388
10
4.0387684
20
13.2002726
40
0.9722364
50
350.4878118
51
0.2625322
0
ARC
8
DEFAULT_255_1_388
10
4.2967644
20
13.1558994
40
0.7104556
50
336.0277991
51
350.5787241
0
ARC
8
DEFAULT_255_1_388
10
4.4480751
20
13.0875243
40
0.544417
50
319.887443
51
336.1331163
0
ARC
8
DEFAULT_255_1_388
10
4.5158563
20
13.0332733
40
0.4576311
50
302.4806296
51
319.6144102
0
ARC
8
DEFAULT_255_1_388
10
4.5029184
20
13.0582067
40
0.4856183
50
275.8196423
51
302.1885521
0
ARC
8
DEFAULT_255_1_388
10
4.4842046
20
13.1867466
40
0.6154183
50
269.9169897
51
276.339506
0
ARC
8
DEFAULT_255_1_388
10
4.4791646
20
13.109568
40
0.5382553
50
252.5221437
51
270.441579
0
ARC
8
DEFAULT_255_1_388
10
4.4629897
20
13.0489046
40
0.4755426
50
237.5349961
51
252.1858334
0
ARC
8
DEFAULT_255_1_388
10
4.4730273
20
13.061712
40
0.4917393
50
209.0632754
51
237.3492577
0
ARC
8
DEFAULT_255_1_388
10
4.5709599
20
13.1232104
40
0.6072464
50
205.118533
51
209.6465345
0
ARC
8
DEFAULT_255_1_388
10
4.6605601
20
13.1612174
40
0.7045164
50
188.7216633
51
204.8239753
0
ARC
8
DEFAULT_255_1_388
10
4.8852376
20
13.1990387
40
0.9323368
50
180.3722704
51
188.9253909
0
ARC
8
DEFAULT_255_1_388
10
4.8821938
20
13.2923416
40
0.929284
50
169.5253055
51
180.2766048
0
ARC
8
DEFAULT_255_1_388
10
4.6681737
20
13.3317024
40
0.7116745
50
155.8314601
51
169.5088611
0
ARC
8
DEFAULT_255_1_388
10
4.52412
20
13.3985312
40
0.5528904
50
139.6259579
51
156.0379072
0
ARC
8
DEFAULT_255_1_388
10
4.4577733
20
13.4519143
40
0.4677708
50
122.6414784
51
139.3431662
0
ARC
8
DEFAULT_255_1_388
10
4.4690988
20
13.4312787
40
0.4912586
50
93.0224537
51
122.4556091
0
ARC
8
DEFAULT_255_1_388
10
4.4812509
20
13.3226776
40
0.6003837
50
89.9756766
51
93.6340839
0
ARC
8
DEFAULT_255_1_388
10
4.4856107
20
13.3675879
40
0.5554884
50
73.7463329
51
90.4234008
0
ARC
8
DEFAULT_255_1_388
10
4.505358
20
13.4440772
40
0.4765353
50
57.663051
51
73.4516911
0
ARC
8
DEFAULT_255_1_388
10
4.5044618
20
13.4465108
40
0.4749629
50
29.1441355
51
57.4146687
0
ARC
8
DEFAULT_255_1_388
10
4.3992429
20
13.3808046
40
0.5988917
50
24.0985653
51
29.732054
0
ARC
8
DEFAULT_255_1_388
10
4.2830061
20
13.3326154
40
0.7246823
50
8.6654943
51
23.8241215
0
ARC
8
DEFAULT_255_1_388
10
4.0316479
20
13.2916037
40
0.9793537
50
359.7807044
51
8.8218476
0
ARC
8
DEFAULT_255_1_388
10
3.9026184
20
13.2944731
40
0.9358078
50
359.7054632
51
8.0359751
0
ARC
8
DEFAULT_255_1_388
10
4.2401235
20
13.3436252
40
0.5947474
50
7.8926278
51
20.2962188
0
ARC
8
DEFAULT_255_1_388
10
4.4232085
20
13.4111367
40
0.3996117
50
20.3231056
51
36.4990255
0
ARC
8
DEFAULT_255_1_388
10
4.5003383
20
13.4705399
40
0.3022818
50
36.1436715
51
85.6627846
0
ARC
8
DEFAULT_255_1_388
10
4.4820638
20
13.3535881
40
0.4203853
50
84.3845912
51
90.076054
0
ARC
8
DEFAULT_255_1_388
10
4.4772993
20
13.4278416
40
0.346157
50
89.3037228
51
109.9046209
0
ARC
8
DEFAULT_255_1_388
10
4.4668826
20
13.4708379
40
0.3022217
50
110.8229774
51
143.917961
0
ARC
8
DEFAULT_255_1_388
10
4.5719185
20
13.3906455
40
0.434348
50
143.5289166
51
163.2980252
0
ARC
8
DEFAULT_255_1_388
10
4.7865472
20
13.3231685
40
0.659321
50
163.0418884
51
174.3139873
0
ARC
8
DEFAULT_255_1_388
10
5.0570437
20
13.2919378
40
0.9315905
50
174.050934
51
179.4174954
0
ARC
8
DEFAULT_255_1_388
10
5.0002381
20
13.2000382
40
0.8747493
50
179.6928582
51
188.7908948
0
ARC
8
DEFAULT_255_1_388
10
4.7006181
20
13.1521086
40
0.5713262
50
188.6328449
51
202.5630732
0
ARC
8
DEFAULT_255_1_388
10
4.5595018
20
13.0954142
40
0.4192612
50
202.8078931
51
216.1195888
0
ARC
8
DEFAULT_255_1_388
10
4.4684535
20
13.0221479
40
0.3025752
50
215.0755613
51
264.6379773
0
ARC
8
DEFAULT_255_1_388
10
4.4827372
20
13.1156376
40
0.3970284
50
263.8464302
51
270.0830805
0
ARC
8
DEFAULT_255_1_388
10
4.4873917
20
13.0865808
40
0.3679937
50
269.3649295
51
287.5149684
0
ARC
8
DEFAULT_255_1_388
10
4.5074358
20
13.0137714
40
0.2925408
50
288.0629019
51
323.8115617
0
ARC
8
DEFAULT_255_1_388
10
4.4094334
20
13.0868754
40
0.4148018
50
323.6546541
51
342.6591359
0
ARC
8
DEFAULT_255_1_388
10
4.1808992
20
13.161228
40
0.6551163
50
342.4092446
51
353.6451501
0
ARC
8
DEFAULT_255_1_388
10
3.8623785
20
13.2008565
40
0.9760748
50
353.4027553
51
359.4846611
0
LINE
8
DEFAULT_255_1_388
10
6.0772006
20
13.9049898
11
6.0772006
21
13.8110191
0
LINE
8
DEFAULT_255_1_388
10
6.0772006
20
13.8110191
11
5.5323513
21
12.5894
0
LINE
8
DEFAULT_255_1_388
10
5.5323513
20
12.5894
11
5.3570598
21
12.5894
0
LINE
8
DEFAULT_255_1_388
10
5.3570598
20
12.5894
11
5.900102
21
13.767648
0
LINE
8
DEFAULT_255_1_388
10
5.900102
20
13.767648
11
5.1880932
21
13.767648
0
LINE
8
DEFAULT_255_1_388
10
5.1880932
20
13.767648
11
5.1880932
21
13.9049898
0
LINE
8
DEFAULT_255_1_388
10
5.1880932
20
13.9049898
11
6.0772006
21
13.9049898
0
LINE
8
DEFAULT_255_1_388
10
5.0109946
20
21.2253553
11
5.0109946
21
21.1422274
0
LINE
8
DEFAULT_255_1_388
10
3.9529206
20
21.1304811
11
3.9529206
21
21.2253553
0
LINE
8
DEFAULT_255_1_388
10
4.8384138
20
21.1295775
11
4.8384138
21
21.2271625
0
LINE
8
DEFAULT_255_1_388
10
4.1255014
20
21.2389088
11
4.1255014
21
21.1422274
0
ARC
8
DEFAULT_255_1_388
10
4.0387684
20
21.1377726
40
0.9722364
50
350.4878118
51
0.2625322
0
ARC
8
DEFAULT_255_1_388
10
4.2967644
20
21.0933994
40
0.7104556
50
336.0277991
51
350.5787241
0
ARC
8
DEFAULT_255_1_388
10
4.4480751
20
21.0250243
40
0.544417
50
319.887443
51
336.1331163
0
ARC
8
DEFAULT_255_1_388
10
4.5158563
20
20.9707733
40
0.4576311
50
302.4806296
51
319.6144102
0
ARC
8
DEFAULT_255_1_388
10
4.5029184
20
20.9957067
40
0.4856183
50
275.8196423
51
302.1885521
0
ARC
8
DEFAULT_255_1_388
10
4.4842046
20
21.1242466
40
0.6154183
50
269.9169897
51
276.339506
0
ARC
8
DEFAULT_255_1_388
10
4.4791646
20
21.047068
40
0.5382553
50
252.5221437
51
270.441579
0
ARC
8
DEFAULT_255_1_388
10
4.4629897
20
20.9864046
40
0.4755426
50
237.5349961
51
252.1858334
0
ARC
8
DEFAULT_255_1_388
10
4.4730273
20
20.999212
40
0.4917393
50
209.0632754
51
237.3492577
0
ARC
8
DEFAULT_255_1_388
10
4.5709599
20
21.0607104
40
0.6072464
50
205.118533
51
209.6465345
0
ARC
8
DEFAULT_255_1_388
10
4.6605601
20
21.0987174
40
0.7045164
50
188.7216633
51
204.8239753
0
ARC
8
DEFAULT_255_1_388
10
4.8852376
20
21.1365387
40
0.9323368
50
180.3722704
51
188.9253909
0
ARC
8
DEFAULT_255_1_388
10
4.8821938
20
21.2298416
40
0.929284
50
169.5253055
51
180.2766048
0
ARC
8
DEFAULT_255_1_388
10
4.6681737
20
21.2692024
40
0.7116745
50
155.8314601
51
169.5088611
0
ARC
8
DEFAULT_255_1_388
10
4.52412
20
21.3360312
40
0.5528904
50
139.6259579
51
156.0379072
0
ARC
8
DEFAULT_255_1_388
10
4.4577733
20
21.3894143
40
0.4677708
50
122.6414784
51
139.3431662
0
ARC
8
DEFAULT_255_1_388
10
4.4690988
20
21.3687787
40
0.4912586
50
93.0224537
51
122.4556091
0
ARC
8
DEFAULT_255_1_388
10
4.4812509
20
21.2601776
40
0.6003837
50
89.9756766
51
93.6340839
0
ARC
8
DEFAULT_255_1_388
10
4.4856107
20
21.3050879
40
0.5554884
50
73.7463329
51
90.4234008
0
ARC
8
DEFAULT_255_1_388
10
4.505358
20
21.3815772
40
0.4765353
50
57.663051
51
73.4516911
0
ARC
8
DEFAULT_255_1_388
10
4.5044618
20
21.3840108
40
0.4749629
50
29.1441355
51
57.4146687
0
ARC
8
DEFAULT_255_1_388
10
4.3992429
20
21.3183046
40
0.5988917
50
24.0985653
51
29.732054
0
ARC
8
DEFAULT_255_1_388
10
4.2830061
20
21.2701154
40
0.7246823
50
8.6654943
51
23.8241215
0
ARC
8
DEFAULT_255_1_388
10
4.0316479
20
21.2291037
40
0.9793537
50
359.7807044
51
8.8218476
0
ARC
8
DEFAULT_255_1_388
10
3.9026184
20
21.2319731
40
0.9358078
50
359.7054632
51
8.0359751
0
ARC
8
DEFAULT_255_1_388
10
4.2401235
20
21.2811252
40
0.5947474
50
7.8926278
51
20.2962188
0
ARC
8
DEFAULT_255_1_388
10
4.4232085
20
21.3486367
40
0.3996117
50
20.3231056
51
36.4990255
0
ARC
8
DEFAULT_255_1_388
10
4.5003383
20
21.4080399
40
0.3022818
50
36.1436715
51
85.6627846
0
ARC
8
DEFAULT_255_1_388
10
4.4820638
20
21.2910881
40
0.4203853
50
84.3845912
51
90.076054
0
ARC
8
DEFAULT_255_1_388
10
4.4772993
20
21.3653416
40
0.346157
50
89.3037228
51
109.9046209
0
ARC
8
DEFAULT_255_1_388
10
4.4668826
20
21.4083379
40
0.3022217
50
110.8229774
51
143.917961
0
ARC
8
DEFAULT_255_1_388
10
4.5719185
20
21.3281455
40
0.434348
50
143.5289166
51
163.2980252
0
ARC
8
DEFAULT_255_1_388
10
4.7865472
20
21.2606685
40
0.659321
50
163.0418884
51
174.3139873
0
ARC
8
DEFAULT_255_1_388
10
5.0570437
20
21.2294378
40
0.9315905
50
174.050934
51
179.4174954
0
ARC
8
DEFAULT_255_1_388
10
5.0002381
20
21.1375382
40
0.8747493
50
179.6928582
51
188.7908948
0
ARC
8
DEFAULT_255_1_388
10
4.7006181
20
21.0896086
40
0.5713262
50
188.6328449
51
202.5630732
0
ARC
8
DEFAULT_255_1_388
10
4.5595018
20
21.0329142
40
0.4192612
50
202.8078931
51
216.1195888
0
ARC
8
DEFAULT_255_1_388
10
4.4684535
20
20.9596479
40
0.3025752
50
215.0755613
51
264.6379773
0
ARC
8
DEFAULT_255_1_388
10
4.4827372
20
21.0531376
40
0.3970284
50
263.8464302
51
270.0830805
0
ARC
8
DEFAULT_255_1_388
10
4.4873917
20
21.0240808
40
0.3679937
50
269.3649295
51
287.5149684
0
ARC
8
DEFAULT_255_1_388
10
4.5074358
20
20.9512714
40
0.2925408
50
288.0629019
51
323.8115617
0
ARC
8
DEFAULT_255_1_388
10
4.4094334
20
21.0243754
40
0.4148018
50
323.6546541
51
342.6591359
0
ARC
8
DEFAULT_255_1_388
10
4.1808992
20
21.098728
40
0.6551163
50
342.4092446
51
353.6451501
0
ARC
8
DEFAULT_255_1_388
10
3.8623785
20
21.1383565
40
0.9760748
50
353.4027553
51
359.4846611
0
LINE
8
DEFAULT_255_1_388
10
5.8540202
20
21.8433934
11
5.8838378
21
21.8433934
0
LINE
8
DEFAULT_255_1_388
10
5.8838378
20
21.8433934
11
5.8838378
21
21.7015338
0
LINE
8
DEFAULT_255_1_388
10
5.8838378
20
21.7015338
11
5.8531167
21
21.7015338
0
LINE
8
DEFAULT_255_1_388
10
5.2377893
20
21.0274747
11
5.2377893
21
21.0916278
0
LINE
8
DEFAULT_255_1_388
10
5.4058522
20
21.0699422
11
5.4058522
21
21.0084999
0
ARC
8
DEFAULT_255_1_388
10
5.8590058
20
21.1392826
40
0.562282
50
90.6001079
51
104.5146616
0
ARC
8
DEFAULT_255_1_388
10
5.8153018
20
21.30181
40
0.3939917
50
104.2855758
51
133.8630124
0
ARC
8
DEFAULT_255_1_388
10
5.833727
20
21.2896243
40
0.4155734
50
134.5304124
51
161.6210222
0
ARC
8
DEFAULT_255_1_388
10
6.0197202
20
21.2240421
40
0.6127682
50
161.2850533
51
174.2074364
0
ARC
8
DEFAULT_255_1_388
10
6.1786769
20
21.2021437
40
0.7731446
50
173.7817938
51
174.9251711
0
ARC
8
DEFAULT_255_1_388
10
5.6660963
20
21.046627
40
0.3412588
50
95.8332067
51
138.995412
0
ARC
8
DEFAULT_255_1_388
10
5.6912243
20
20.9027695
40
0.4870358
50
89.8755506
51
97.0540979
0
ARC
8
DEFAULT_255_1_388
10
5.6965632
20
20.9967841
40
0.3930432
50
71.6407016
51
90.6240821
0
ARC
8
DEFAULT_255_1_388
10
5.7135026
20
21.0591433
40
0.3285421
50
39.6368051
51
71.0190743
0
ARC
8
DEFAULT_255_1_388
10
5.6418933
20
20.9972586
40
0.4231706
50
10.6588054
51
39.9044509
0
ARC
8
DEFAULT_255_1_388
10
5.4677479
20
20.9594223
40
0.60133
50
359.6827842
51
11.1326896
0
ARC
8
DEFAULT_255_1_388
10
5.4632815
20
20.9514715
40
0.6058047
50
347.2485908
51
0.4371098
0
ARC
8
DEFAULT_255_1_388
10
5.65086
20
20.9063379
40
0.4128987
50
318.1408565
51
347.6118497
0
ARC
8
DEFAULT_255_1_388
10
5.6874197
20
20.8762903
40
0.3656244
50
275.6342406
51
317.824739
0
ARC
8
DEFAULT_255_1_388
10
5.6625718
20
21.0224827
40
0.513655
50
269.8872513
51
276.7916069
0
ARC
8
DEFAULT_255_1_388
10
5.656391
20
20.9071181
40
0.398323
50
246.9139443
51
270.7436787
0
ARC
8
DEFAULT_255_1_388
10
5.6571106
20
20.8911044
40
0.3839368
50
218.1665534
51
245.8780431
0
ARC
8
DEFAULT_255_1_388
10
5.7560478
20
20.9738903
40
0.5128958
50
191.4115343
51
218.6077624
0
ARC
8
DEFAULT_255_1_388
10
5.9740795
20
21.0227777
40
0.7363054
50
179.6344971
51
191.7836758
0
ARC
8
DEFAULT_255_1_388
10
6.6020669
20
21.0991495
40
1.3642984
50
171.4523743
51
180.3158856
0
ARC
8
DEFAULT_255_1_388
10
6.1076396
20
21.1760895
40
0.8639311
50
157.9802296
51
171.6246761
0
ARC
8
DEFAULT_255_1_388
10
5.8585747
20
21.2754038
40
0.5958004
50
141.4299236
51
157.8541251
0
ARC
8
DEFAULT_255_1_388
10
5.786383
20
21.3264746
40
0.5075416
50
102.871586
51
140.8564533
0
ARC
8
DEFAULT_255_1_388
10
5.8592383
20
21.0519943
40
0.7914163
50
90.377773
51
103.5868422
0
ARC
8
DEFAULT_255_1_388
10
5.6636904
20
20.9839543
40
0.2667015
50
89.8751238
51
126.2072139
0
ARC
8
DEFAULT_255_1_388
10
5.6688375
20
20.9665847
40
0.2838229
50
124.9742447
51
144.8960197
0
ARC
8
DEFAULT_255_1_388
10
5.649062
20
20.9826981
40
0.2583845
50
145.2974778
51
160.2660922
0
ARC
8
DEFAULT_255_1_388
10
5.9947108
20
21.0049151
40
0.5888695
50
179.6512124
51
190.285571
0
ARC
8
DEFAULT_255_1_388
10
5.8041588
20
20.9689968
40
0.3949683
50
190.0944895
51
207.5099647
0
ARC
8
DEFAULT_255_1_388
10
5.740517
20
20.9387177
40
0.3245464
50
207.9585471
51
216.325377
0
ARC
8
DEFAULT_255_1_388
10
5.7022807
20
20.9072712
40
0.2751259
50
215.7661336
51
232.5457193
0
ARC
8
DEFAULT_255_1_388
10
5.6591923
20
20.8525273
40
0.2054668
50
232.8005815
51
270.6605497
0
ARC
8
DEFAULT_255_1_388
10
5.6643347
20
20.8934853
40
0.2464268
50
269.3550767
51
288.474612
0
ARC
8
DEFAULT_255_1_388
10
5.6747854
20
20.8541721
40
0.2058436
50
289.1831976
51
322.9685307
0
ARC
8
DEFAULT_255_1_388
10
5.6059956
20
20.9084279
40
0.2934408
50
322.6007085
51
346.5183319
0
ARC
8
DEFAULT_255_1_388
10
5.4757712
20
20.9416434
40
0.4278249
50
346.2584622
51
358.7739592
0
ARC
8
DEFAULT_255_1_388
10
5.3606287
20
20.9478829
40
0.5430876
50
358.3757628
51
0.0082477
0
ARC
8
DEFAULT_255_1_388
10
5.4463106
20
20.9509856
40
0.4574157
50
359.6211417
51
11.28403
0
ARC
8
DEFAULT_255_1_388
10
5.5899712
20
20.9809535
40
0.3106708
50
11.0483152
51
31.8145585
0
ARC
8
DEFAULT_255_1_388
10
5.6247417
20
20.9998045
40
0.2711963
50
32.3028554
51
38.0820598
0
ARC
8
DEFAULT_255_1_388
10
5.672065
20
21.0426717
40
0.2075566
50
36.8249851
51
85.741667
0
ARC
8
DEFAULT_255_1_388
10
5.6645063
20
20.9863065
40
0.2643487
50
85.0150021
51
90.050843
0
LINE
8
DEFAULT_255_1_388
10
5.0109946
20
29.1628553
11
5.0109946
21
29.0797274
0
LINE
8
DEFAULT_255_1_388
10
3.9529206
20
29.0679811
11
3.9529206
21
29.1628553
0
LINE
8
DEFAULT_255_1_388
10
4.8384138
20
29.0670775
11
4.8384138
21
29.1646625
0
LINE
8
DEFAULT_255_1_388
10
4.1255014
20
29.1764088
11
4.1255014
21
29.0797274
0
ARC
8
DEFAULT_255_1_388
10
4.0387684
20
29.0752726
40
0.9722364
50
350.4878118
51
0.2625322
0
ARC
8
DEFAULT_255_1_388
10
4.2967644
20
29.0308994
40
0.7104556
50
336.0277991
51
350.5787241
0
ARC
8
DEFAULT_255_1_388
10
4.4480751
20
28.9625243
40
0.544417
50
319.887443
51
336.1331163
0
ARC
8
DEFAULT_255_1_388
10
4.5158563
20
28.9082733
40
0.4576311
50
302.4806296
51
319.6144102
0
ARC
8
DEFAULT_255_1_388
10
4.5029184
20
28.9332067
40
0.4856183
50
275.8196423
51
302.1885521
0
ARC
8
DEFAULT_255_1_388
10
4.4842046
20
29.0617466
40
0.6154183
50
269.9169897
51
276.339506
0
ARC
8
DEFAULT_255_1_388
10
4.4791646
20
28.984568
40
0.5382553
50
252.5221437
51
270.441579
0
ARC
8
DEFAULT_255_1_388
10
4.4629897
20
28.9239046
40
0.4755426
50
237.5349961
51
252.1858334
0
ARC
8
DEFAULT_255_1_388
10
4.4730273
20
28.936712
40
0.4917393
50
209.0632754
51
237.3492577
0
ARC
8
DEFAULT_255_1_388
10
4.5709599
20
28.9982104
40
0.6072464
50
205.118533
51
209.6465345
0
ARC
8
DEFAULT_255_1_388
10
4.6605601
20
29.0362174
40
0.7045164
50
188.7216633
51
204.8239753
0
ARC
8
DEFAULT_255_1_388
10
4.8852376
20
29.0740387
40
0.9323368
50
180.3722704
51
188.9253909
0
ARC
8
DEFAULT_255_1_388
10
4.8821938
20
29.1673416
40
0.929284
50
169.5253055
51
180.2766048
0
ARC
8
DEFAULT_255_1_388
10
4.6681737
20
29.2067024
40
0.7116745
50
155.8314601
51
169.5088611
0
ARC
8
DEFAULT_255_1_388
10
4.52412
20
29.2735312
40
0.5528904
50
139.6259579
51
156.0379072
0
ARC
8
DEFAULT_255_1_388
10
4.4577733
20
29.3269143
40
0.4677708
50
122.6414784
51
139.3431662
0
ARC
8
DEFAULT_255_1_388
10
4.4690988
20
29.3062787
40
0.4912586
50
93.0224537
51
122.4556091
0
ARC
8
DEFAULT_255_1_388
10
4.4812509
20
29.1976776
40
0.6003837
50
89.9756766
51
93.6340839
0
ARC
8
DEFAULT_255_1_388
10
4.4856107
20
29.2425879
40
0.5554884
50
73.7463329
51
90.4234008
0
ARC
8
DEFAULT_255_1_388
10
4.505358
20
29.3190772
40
0.4765353
50
57.663051
51
73.4516911
0
ARC
8
DEFAULT_255_1_388
10
4.5044618
20
29.3215108
40
0.4749629
50
29.1441355
51
57.4146687
0
ARC
8
DEFAULT_255_1_388
10
4.3992429
20
29.2558046
40
0.5988917
50
24.0985653
51
29.732054
0
ARC
8
DEFAULT_255_1_388
10
4.2830061
20
29.2076154
40
0.7246823
50
8.6654943
51
23.8241215
0
ARC
8
DEFAULT_255_1_388
10
4.0316479
20
29.1666037
40
0.9793537
50
359.7807044
51
8.8218476
0
ARC
8
DEFAULT_255_1_388
10
3.9026184
20
29.1694731
40
0.9358078
50
359.7054632
51
8.0359751
0
ARC
8
DEFAULT_255_1_388
10
4.2401235
20
29.2186252
40
0.5947474
50
7.8926278
51
20.2962188
0
ARC
8
DEFAULT_255_1_388
10
4.4232085
20
29.2861367
40
0.3996117
50
20.3231056
51
36.4990255
0
ARC
8
DEFAULT_255_1_388
10
4.5003383
20
29.3455399
40
0.3022818
50
36.1436715
51
85.6627846
0
ARC
8
DEFAULT_255_1_388
10
4.4820638
20
29.2285881
40
0.4203853
50
84.3845912
51
90.076054
0
ARC
8
DEFAULT_255_1_388
10
4.4772993
20
29.3028416
40
0.346157
50
89.3037228
51
109.9046209
0
ARC
8
DEFAULT_255_1_388
10
4.4668826
20
29.3458379
40
0.3022217
50
110.8229774
51
143.917961
0
ARC
8
DEFAULT_255_1_388
10
4.5719185
20
29.2656455
40
0.434348
50
143.5289166
51
163.2980252
0
ARC
8
DEFAULT_255_1_388
10
4.7865472
20
29.1981685
40
0.659321
50
163.0418884
51
174.3139873
0
ARC
8
DEFAULT_255_1_388
10
5.0570437
20
29.1669378
40
0.9315905
50
174.050934
51
179.4174954
0
ARC
8
DEFAULT_255_1_388
10
5.0002381
20
29.0750382
40
0.8747493
50
179.6928582
51
188.7908948
0
ARC
8
DEFAULT_255_1_388
10
4.7006181
20
29.0271086
40
0.5713262
50
188.6328449
51
202.5630732
0
ARC
8
DEFAULT_255_1_388
10
4.5595018
20
28.9704142
40
0.4192612
50
202.8078931
51
216.1195888
0
ARC
8
DEFAULT_255_1_388
10
4.4684535
20
28.8971479
40
0.3025752
50
215.0755613
51
264.6379773
0
ARC
8
DEFAULT_255_1_388
10
4.4827372
20
28.9906376
40
0.3970284
50
263.8464302
51
270.0830805
0
ARC
8
DEFAULT_255_1_388
10
4.4873917
20
28.9615808
40
0.3679937
50
269.3649295
51
287.5149684
0
ARC
8
DEFAULT_255_1_388
10
4.5074358
20
28.8887714
40
0.2925408
50
288.0629019
51
323.8115617
0
ARC
8
DEFAULT_255_1_388
10
4.4094334
20
28.9618754
40
0.4148018
50
323.6546541
51
342.6591359
0
ARC
8
DEFAULT_255_1_388
10
4.1808992
20
29.036228
40
0.6551163
50
342.4092446
51
353.6451501
0
ARC
8
DEFAULT_255_1_388
10
3.8623785
20
29.0758565
40
0.9760748
50
353.4027553
51
359.4846611
0
LINE
8
DEFAULT_255_1_388
10
5.4383806
20
29.0896666
11
5.304653
21
29.1240021
0
LINE
8
DEFAULT_255_1_388
10
5.304653
20
29.1240021
11
5.3715168
21
29.7799898
0
LINE
8
DEFAULT_255_1_388
10
5.3715168
20
29.7799898
11
6.0455759
21
29.7799898
0
LINE
8
DEFAULT_255_1_388
10
6.0455759
20
29.7799898
11
6.0455759
21
29.6254803
0
LINE
8
DEFAULT_255_1_388
10
6.0455759
20
29.6254803
11
5.5133764
21
29.6254803
0
LINE
8
DEFAULT_255_1_388
10
5.5133764
20
29.6254803
11
5.4736196
21
29.2667652
0
LINE
8
DEFAULT_255_1_388
10
5.2576677
20
28.8104652
11
5.4157915
21
28.8104652
0
LINE
8
DEFAULT_255_1_388
10
5.4826552
20
29.1258092
11
5.4383806
21
29.0896666
0
ARC
8
DEFAULT_255_1_388
10
5.6822809
20
28.9090241
40
0.4141476
50
93.7181681
51
120.253934
0
ARC
8
DEFAULT_255_1_388
10
5.6928862
20
28.8181284
40
0.5055616
50
89.9660471
51
94.2495185
0
ARC
8
DEFAULT_255_1_388
10
5.6974683
20
28.8844154
40
0.4392953
50
73.8045384
51
90.5585736
0
ARC
8
DEFAULT_255_1_388
10
5.7238941
20
28.980952
40
0.3392225
50
41.3071072
51
73.543002
0
ARC
8
DEFAULT_255_1_388
10
5.6770761
20
28.9406461
40
0.4009977
50
13.5075837
51
41.2174839
0
ARC
8
DEFAULT_255_1_388
10
5.4923858
20
28.8922907
40
0.5918864
50
1.1330171
51
13.8830737
0
ARC
8
DEFAULT_255_1_388
10
5.3327504
20
28.8837522
40
0.7516787
50
359.9925091
51
1.5431298
0
ARC
8
DEFAULT_255_1_388
10
5.4772119
20
28.8791027
40
0.6072343
50
347.8572712
51
0.4294349
0
ARC
8
DEFAULT_255_1_388
10
5.6741254
20
28.8344898
40
0.4053482
50
323.6727442
51
348.1674594
0
ARC
8
DEFAULT_255_1_388
10
5.7072219
20
28.8143175
40
0.3667495
50
316.8171818
51
323.1486802
0
ARC
8
DEFAULT_255_1_388
10
5.7141342
20
28.8101612
40
0.358869
50
281.839603
51
316.5458142
0
ARC
8
DEFAULT_255_1_388
10
5.671863
20
28.9851363
40
0.5388223
50
269.5770964
51
282.4214641
0
ARC
8
DEFAULT_255_1_388
10
5.6638551
20
28.961093
40
0.5147801
50
256.2425863
51
270.4486481
0
ARC
8
DEFAULT_255_1_388
10
5.6302078
20
28.8261124
40
0.3756708
50
228.9024379
51
256.33135
0
ARC
8
DEFAULT_255_1_388
10
5.6219058
20
28.8130054
40
0.360344
50
193.7536029
51
228.5272638
0
ARC
8
DEFAULT_255_1_388
10
5.7611623
20
28.8538463
40
0.5053599
50
184.9244437
51
194.4976052
0
ARC
8
DEFAULT_255_1_388
10
5.7828265
20
28.8578722
40
0.3700839
50
187.3596909
51
198.6733728
0
ARC
8
DEFAULT_255_1_388
10
5.6647508
20
28.8169373
40
0.2451195
50
198.4453795
51
217.7945479
0
ARC
8
DEFAULT_255_1_388
10
5.6314681
20
28.7933563
40
0.2043754
50
218.2887146
51
228.5613203
0
ARC
8
DEFAULT_255_1_388
10
5.6424688
20
28.8081902
40
0.2227819
50
228.9652423
51
258.1237049
0
ARC
8
DEFAULT_255_1_388
10
5.6656125
20
28.9072964
40
0.3245374
50
257.7260585
51
270.4013717
0
ARC
8
DEFAULT_255_1_388
10
5.6706623
20
28.8572255
40
0.2744726
50
269.4204315
51
286.420998
0
ARC
8
DEFAULT_255_1_388
10
5.6873679
20
28.7965705
40
0.2115721
50
286.7250065
51
320.6004665
0
ARC
8
DEFAULT_255_1_388
10
5.6442594
20
28.8315527
40
0.2670878
50
320.6712228
51
344.5440474
0
ARC
8
DEFAULT_255_1_388
10
5.5141308
20
28.8697394
40
0.4026927
50
344.241448
51
356.735803
0
ARC
8
DEFAULT_255_1_388
10
5.3737615
20
28.8813656
40
0.5435085
50
356.3547471
51
0.0507222
0
ARC
8
DEFAULT_255_1_388
10
5.523988
20
28.8848812
40
0.3932934
50
359.5579289
51
12.9534322
0
ARC
8
DEFAULT_255_1_388
10
5.642672
20
28.9136586
40
0.2711827
50
12.6489751
51
41.608121
0
ARC
8
DEFAULT_255_1_388
10
5.668588
20
28.9356946
40
0.2371737
50
41.7851122
51
85.9892156
0
ARC
8
DEFAULT_255_1_388
10
5.654719
20
28.8441738
40
0.3295244
50
84.6965848
51
90.0672125
0
ARC
8
DEFAULT_255_1_388
10
5.6520758
20
28.7690118
40
0.4046926
50
89.6804991
51
99.161352
0
ARC
8
DEFAULT_255_1_388
10
5.6289767
20
28.9070848
40
0.2647044
50
98.9836248
51
113.8905702
0
ARC
8
DEFAULT_255_1_388
10
5.6031442
20
28.9680118
40
0.1985386
50
114.195234
51
127.3641866
0
LINE
8
DEFAULT_255_1_388
10
5.1432946
20
37.1003553
11
5.1432946
21
37.0172274
0
LINE
8
DEFAULT_255_1_388
10
4.0852206
20
37.0054811
11
4.0852206
21
37.1003553
0
LINE
8
DEFAULT_255_1_388
10
4.9707138
20
37.0045775
11
4.9707138
21
37.1021625
0
LINE
8
DEFAULT_255_1_388
10
4.2578014
20
37.1139088
11
4.2578014
21
37.0172274
0
ARC
8
DEFAULT_255_1_388
10
4.1710684
20
37.0127726
40
0.9722364
50
350.4878118
51
0.2625322
0
ARC
8
DEFAULT_255_1_388
10
4.4290644
20
36.9683994
40
0.7104556
50
336.0277991
51
350.5787241
0
ARC
8
DEFAULT_255_1_388
10
4.5803751
20
36.9000243
40
0.544417
50
319.887443
51
336.1331163
0
ARC
8
DEFAULT_255_1_388
10
4.6481563
20
36.8457733
40
0.4576311
50
302.4806296
51
319.6144102
0
ARC
8
DEFAULT_255_1_388
10
4.6352184
20
36.8707067
40
0.4856183
50
275.8196423
51
302.1885521
0
ARC
8
DEFAULT_255_1_388
10
4.6165046
20
36.9992466
40
0.6154183
50
269.9169897
51
276.339506
0
ARC
8
DEFAULT_255_1_388
10
4.6114646
20
36.922068
40
0.5382553
50
252.5221437
51
270.441579
0
ARC
8
DEFAULT_255_1_388
10
4.5952897
20
36.8614046
40
0.4755426
50
237.5349961
51
252.1858334
0
ARC
8
DEFAULT_255_1_388
10
4.6053273
20
36.874212
40
0.4917393
50
209.0632754
51
237.3492577
0
ARC
8
DEFAULT_255_1_388
10
4.7032599
20
36.9357104
40
0.6072464
50
205.118533
51
209.6465345
0
ARC
8
DEFAULT_255_1_388
10
4.7928601
20
36.9737174
40
0.7045164
50
188.7216633
51
204.8239753
0
ARC
8
DEFAULT_255_1_388
10
5.0175376
20
37.0115387
40
0.9323368
50
180.3722704
51
188.9253909
0
ARC
8
DEFAULT_255_1_388
10
5.0144938
20
37.1048416
40
0.929284
50
169.5253055
51
180.2766048
0
ARC
8
DEFAULT_255_1_388
10
4.8004737
20
37.1442024
40
0.7116745
50
155.8314601
51
169.5088611
0
ARC
8
DEFAULT_255_1_388
10
4.65642
20
37.2110312
40
0.5528904
50
139.6259579
51
156.0379072
0
ARC
8
DEFAULT_255_1_388
10
4.5900733
20
37.2644143
40
0.4677708
50
122.6414784
51
139.3431662
0
ARC
8
DEFAULT_255_1_388
10
4.6013988
20
37.2437787
40
0.4912586
50
93.0224537
51
122.4556091
0
ARC
8
DEFAULT_255_1_388
10
4.6135509
20
37.1351776
40
0.6003837
50
89.9756766
51
93.6340839
0
ARC
8
DEFAULT_255_1_388
10
4.6179107
20
37.1800879
40
0.5554884
50
73.7463329
51
90.4234008
0
ARC
8
DEFAULT_255_1_388
10
4.637658
20
37.2565772
40
0.4765353
50
57.663051
51
73.4516911
0
ARC
8
DEFAULT_255_1_388
10
4.6367618
20
37.2590108
40
0.4749629
50
29.1441355
51
57.4146687
0
ARC
8
DEFAULT_255_1_388
10
4.5315429
20
37.1933046
40
0.5988917
50
24.0985653
51
29.732054
0
ARC
8
DEFAULT_255_1_388
10
4.4153061
20
37.1451154
40
0.7246823
50
8.6654943
51
23.8241215
0
ARC
8
DEFAULT_255_1_388
10
4.1639479
20
37.1041037
40
0.9793537
50
359.7807044
51
8.8218476
0
ARC
8
DEFAULT_255_1_388
10
4.0349184
20
37.1069731
40
0.9358078
50
359.7054632
51
8.0359751
0
ARC
8
DEFAULT_255_1_388
10
4.3724235
20
37.1561252
40
0.5947474
50
7.8926278
51
20.2962188
0
ARC
8
DEFAULT_255_1_388
10
4.5555085
20
37.2236367
40
0.3996117
50
20.3231056
51
36.4990255
0
ARC
8
DEFAULT_255_1_388
10
4.6326383
20
37.2830399
40
0.3022818
50
36.1436715
51
85.6627846
0
ARC
8
DEFAULT_255_1_388
10
4.6143638
20
37.1660881
40
0.4203853
50
84.3845912
51
90.076054
0
ARC
8
DEFAULT_255_1_388
10
4.6095993
20
37.2403416
40
0.346157
50
89.3037228
51
109.9046209
0
ARC
8
DEFAULT_255_1_388
10
4.5991826
20
37.2833379
40
0.3022217
50
110.8229774
51
143.917961
0
ARC
8
DEFAULT_255_1_388
10
4.7042185
20
37.2031455
40
0.434348
50
143.5289166
51
163.2980252
0
ARC
8
DEFAULT_255_1_388
10
4.9188472
20
37.1356685
40
0.659321
50
163.0418884
51
174.3139873
0
ARC
8
DEFAULT_255_1_388
10
5.1893437
20
37.1044378
40
0.9315905
50
174.050934
51
179.4174954
0
ARC
8
DEFAULT_255_1_388
10
5.1325381
20
37.0125382
40
0.8747493
50
179.6928582
51
188.7908948
0
ARC
8
DEFAULT_255_1_388
10
4.8329181
20
36.9646086
40
0.5713262
50
188.6328449
51
202.5630732
0
ARC
8
DEFAULT_255_1_388
10
4.6918018
20
36.9079142
40
0.4192612
50
202.8078931
51
216.1195888
0
ARC
8
DEFAULT_255_1_388
10
4.6007535
20
36.8346479
40
0.3025752
50
215.0755613
51
264.6379773
0
ARC
8
DEFAULT_255_1_388
10
4.6150372
20
36.9281376
40
0.3970284
50
263.8464302
51
270.0830805
0
ARC
8
DEFAULT_255_1_388
10
4.6196917
20
36.8990808
40
0.3679937
50
269.3649295
51
287.5149684
0
ARC
8
DEFAULT_255_1_388
10
4.6397358
20
36.8262714
40
0.2925408
50
288.0629019
51
323.8115617
0
ARC
8
DEFAULT_255_1_388
10
4.5417334
20
36.8993754
40
0.4148018
50
323.6546541
51
342.6591359
0
ARC
8
DEFAULT_255_1_388
10
4.3131992
20
36.973728
40
0.6551163
50
342.4092446
51
353.6451501
0
ARC
8
DEFAULT_255_1_388
10
3.9946785
20
37.0133565
40
0.9760748
50
353.4027553
51
359.4846611
0
LINE
8
DEFAULT_255_1_388
10
6.0658339
20
37.7174898
11
6.0658339
21
36.843743
0
LINE
8
DEFAULT_255_1_388
10
6.0658339
20
36.843743
11
6.2483539
21
36.843743
0
LINE
8
DEFAULT_255_1_388
10
6.2483539
20
36.843743
11
6.2483539
21
36.7073048
0
LINE
8
DEFAULT_255_1_388
10
6.2483539
20
36.7073048
11
6.0658339
21
36.7073048
0
LINE
8
DEFAULT_255_1_388
10
6.0658339
20
36.7073048
11
6.0658339
21
36.4019
0
LINE
8
DEFAULT_255_1_388
10
6.0658339
20
36.4019
11
5.8977709
21
36.4019
0
LINE
8
DEFAULT_255_1_388
10
5.8977709
20
36.4019
11
5.8977709
21
36.7073048
0
LINE
8
DEFAULT_255_1_388
10
5.8977709
20
36.7073048
11
5.2987077
21
36.7073048
0
LINE
8
DEFAULT_255_1_388
10
5.2987077
20
36.7073048
11
5.2987077
21
36.8057933
0
LINE
8
DEFAULT_255_1_388
10
5.2987077
20
36.8057933
11
5.8878317
21
37.7174898
0
LINE
8
DEFAULT_255_1_388
10
5.8878317
20
37.7174898
11
6.0658339
21
37.7174898
0
LINE
8
DEFAULT_255_1_388
10
5.8778925
20
37.4527455
11
5.4884562
21
36.843743
0
LINE
8
DEFAULT_255_1_388
10
5.4884562
20
36.843743
11
5.8977709
21
36.843743
0
LINE
8
DEFAULT_255_1_388
10
5.8977709
20
36.843743
11
5.8977709
21
37.488888
0
LINE
8
DEFAULT_255_1_388
10
5.8977709
20
37.488888
11
5.8778925
21
37.4527455
0
LINE
8
DEFAULT_255_1_388
10
5.0109946
20
45.0378553
11
5.0109946
21
44.9547274
0
LINE
8
DEFAULT_255_1_388
10
3.9529206
20
44.9429811
11
3.9529206
21
45.0378553
0
LINE
8
DEFAULT_255_1_388
10
4.8384138
20
44.9420775
11
4.8384138
21
45.0396625
0
LINE
8
DEFAULT_255_1_388
10
4.1255014
20
45.0514088
11
4.1255014
21
44.9547274
0
ARC
8
DEFAULT_255_1_388
10
4.0387684
20
44.9502726
40
0.9722364
50
350.4878118
51
0.2625322
0
ARC
8
DEFAULT_255_1_388
10
4.2967644
20
44.9058994
40
0.7104556
50
336.0277991
51
350.5787241
0
ARC
8
DEFAULT_255_1_388
10
4.4480751
20
44.8375243
40
0.544417
50
319.887443
51
336.1331163
0
ARC
8
DEFAULT_255_1_388
10
4.5158563
20
44.7832733
40
0.4576311
50
302.4806296
51
319.6144102
0
ARC
8
DEFAULT_255_1_388
10
4.5029184
20
44.8082067
40
0.4856183
50
275.8196423
51
302.1885521
0
ARC
8
DEFAULT_255_1_388
10
4.4842046
20
44.9367466
40
0.6154183
50
269.9169897
51
276.339506
0
ARC
8
DEFAULT_255_1_388
10
4.4791646
20
44.859568
40
0.5382553
50
252.5221437
51
270.441579
0
ARC
8
DEFAULT_255_1_388
10
4.4629897
20
44.7989046
40
0.4755426
50
237.5349961
51
252.1858334
0
ARC
8
DEFAULT_255_1_388
10
4.4730273
20
44.811712
40
0.4917393
50
209.0632754
51
237.3492577
0
ARC
8
DEFAULT_255_1_388
10
4.5709599
20
44.8732104
40
0.6072464
50
205.118533
51
209.6465345
0
ARC
8
DEFAULT_255_1_388
10
4.6605601
20
44.9112174
40
0.7045164
50
188.7216633
51
204.8239753
0
ARC
8
DEFAULT_255_1_388
10
4.8852376
20
44.9490387
40
0.9323368
50
180.3722704
51
188.9253909
0
ARC
8
DEFAULT_255_1_388
10
4.8821938
20
45.0423416
40
0.929284
50
169.5253055
51
180.2766048
0
ARC
8
DEFAULT_255_1_388
10
4.6681737
20
45.0817024
40
0.7116745
50
155.8314601
51
169.5088611
0
ARC
8
DEFAULT_255_1_388
10
4.52412
20
45.1485312
40
0.5528904
50
139.6259579
51
156.0379072
0
ARC
8
DEFAULT_255_1_388
10
4.4577733
20
45.2019143
40
0.4677708
50
122.6414784
51
139.3431662
0
ARC
8
DEFAULT_255_1_388
10
4.4690988
20
45.1812787
40
0.4912586
50
93.0224537
51
122.4556091
0
ARC
8
DEFAULT_255_1_388
10
4.4812509
20
45.0726776
40
0.6003837
50
89.9756766
51
93.6340839
0
ARC
8
DEFAULT_255_1_388
10
4.4856107
20
45.1175879
40
0.5554884
50
73.7463329
51
90.4234008
0
ARC
8
DEFAULT_255_1_388
10
4.505358
20
45.1940772
40
0.4765353
50
57.663051
51
73.4516911
0
ARC
8
DEFAULT_255_1_388
10
4.5044618
20
45.1965108
40
0.4749629
50
29.1441355
51
57.4146687
0
ARC
8
DEFAULT_255_1_388
10
4.3992429
20
45.1308046
40
0.5988917
50
24.0985653
51
29.732054
0
ARC
8
DEFAULT_255_1_388
10
4.2830061
20
45.0826154
40
0.7246823
50
8.6654943
51
23.8241215
0
ARC
8
DEFAULT_255_1_388
10
4.0316479
20
45.0416037
40
0.9793537
50
359.7807044
51
8.8218476
0
ARC
8
DEFAULT_255_1_388
10
3.9026184
20
45.0444731
40
0.9358078
50
359.7054632
51
8.0359751
0
ARC
8
DEFAULT_255_1_388
10
4.2401235
20
45.0936252
40
0.5947474
50
7.8926278
51
20.2962188
0
ARC
8
DEFAULT_255_1_388
10
4.4232085
20
45.1611367
40
0.3996117
50
20.3231056
51
36.4990255
0
ARC
8
DEFAULT_255_1_388
10
4.5003383
20
45.2205399
40
0.3022818
50
36.1436715
51
85.6627846
0
ARC
8
DEFAULT_255_1_388
10
4.4820638
20
45.1035881
40
0.4203853
50
84.3845912
51
90.076054
0
ARC
8
DEFAULT_255_1_388
10
4.4772993
20
45.1778416
40
0.346157
50
89.3037228
51
109.9046209
0
ARC
8
DEFAULT_255_1_388
10
4.4668826
20
45.2208379
40
0.3022217
50
110.8229774
51
143.917961
0
ARC
8
DEFAULT_255_1_388
10
4.5719185
20
45.1406455
40
0.434348
50
143.5289166
51
163.2980252
0
ARC
8
DEFAULT_255_1_388
10
4.7865472
20
45.0731685
40
0.659321
50
163.0418884
51
174.3139873
0
ARC
8
DEFAULT_255_1_388
10
5.0570437
20
45.0419378
40
0.9315905
50
174.050934
51
179.4174954
0
ARC
8
DEFAULT_255_1_388
10
5.0002381
20
44.9500382
40
0.8747493
50
179.6928582
51
188.7908948
0
ARC
8
DEFAULT_255_1_388
10
4.7006181
20
44.9021086
40
0.5713262
50
188.6328449
51
202.5630732
0
ARC
8
DEFAULT_255_1_388
10
4.5595018
20
44.8454142
40
0.4192612
50
202.8078931
51
216.1195888
0
ARC
8
DEFAULT_255_1_388
10
4.4684535
20
44.7721479
40
0.3025752
50
215.0755613
51
264.6379773
0
ARC
8
DEFAULT_255_1_388
10
4.4827372
20
44.8656376
40
0.3970284
50
263.8464302
51
270.0830805
0
ARC
8
DEFAULT_255_1_388
10
4.4873917
20
44.8365808
40
0.3679937
50
269.3649295
51
287.5149684
0
ARC
8
DEFAULT_255_1_388
10
4.5074358
20
44.7637714
40
0.2925408
50
288.0629019
51
323.8115617
0
ARC
8
DEFAULT_255_1_388
10
4.4094334
20
44.8368754
40
0.4148018
50
323.6546541
51
342.6591359
0
ARC
8
DEFAULT_255_1_388
10
4.1808992
20
44.911228
40
0.6551163
50
342.4092446
51
353.6451501
0
ARC
8
DEFAULT_255_1_388
10
3.8623785
20
44.9508565
40
0.9760748
50
353.4027553
51
359.4846611
0
LINE
8
DEFAULT_255_1_388
10
5.4709089
20
44.9420775
11
5.4709089
21
45.0785157
0
LINE
8
DEFAULT_255_1_388
10
5.4709089
20
45.0785157
11
5.5965043
21
45.0785157
0
LINE
8
DEFAULT_255_1_388
10
5.3823596
20
45.3098282
11
5.2152001
21
45.3098282
0
LINE
8
DEFAULT_255_1_388
10
5.2034538
20
44.6863688
11
5.3715168
21
44.6863688
0
LINE
8
DEFAULT_255_1_388
10
5.5965043
20
44.9420775
11
5.4709089
21
44.9420775
0
ARC
8
DEFAULT_255_1_388
10
5.593227
20
45.4601922
40
0.3816905
50
270.491971
51
281.8953028
0
ARC
8
DEFAULT_255_1_388
10
5.6203697
20
45.3362199
40
0.2547877
50
281.6690378
51
301.2943765
0
ARC
8
DEFAULT_255_1_388
10
5.6395148
20
45.3011926
40
0.2149197
50
301.7834992
51
311.754567
0
ARC
8
DEFAULT_255_1_388
10
5.649819
20
45.289765
40
0.1995326
50
311.7325027
51
354.2803031
0
ARC
8
DEFAULT_255_1_388
10
5.5680606
20
45.303828
40
0.2823461
50
353.0941646
51
0.1174696
0
ARC
8
DEFAULT_255_1_388
10
5.5162163
20
45.3091874
40
0.3342238
50
359.1804452
51
15.0452323
0
ARC
8
DEFAULT_255_1_388
10
5.6676222
20
45.3533546
40
0.1765747
50
13.957816
51
77.6713812
0
ARC
8
DEFAULT_255_1_388
10
5.6241458
20
45.1975464
40
0.3381982
50
76.111571
51
90.7028736
0
ARC
8
DEFAULT_255_1_388
10
5.617487
20
45.228325
40
0.3074046
50
89.5321574
51
103.5319393
0
ARC
8
DEFAULT_255_1_388
10
5.5949253
20
45.3182443
40
0.2147041
50
103.2930114
51
133.5619756
0
ARC
8
DEFAULT_255_1_388
10
5.5899195
20
45.3249351
40
0.2064084
50
133.8349761
51
173.5343225
0
ARC
8
DEFAULT_255_1_388
10
5.6712852
20
45.3105144
40
0.2889266
50
172.5097183
51
180.1360699
0
ARC
8
DEFAULT_255_1_388
10
5.5642616
20
45.314388
40
0.3490913
50
155.3483706
51
180.7484035
0
ARC
8
DEFAULT_255_1_388
10
5.5587592
20
45.3111519
40
0.3454798
50
131.5745177
51
154.4799474
0
ARC
8
DEFAULT_255_1_388
10
5.5939874
20
45.2755422
40
0.3955058
50
96.9874487
51
131.9690874
0
ARC
8
DEFAULT_255_1_388
10
5.6186767
20
45.1354407
40
0.537622
50
89.8592909
51
97.7827481
0
ARC
8
DEFAULT_255_1_388
10
5.6240876
20
45.105936
40
0.5671399
50
78.3654493
51
90.4132586
0
ARC
8
DEFAULT_255_1_388
10
5.6643517
20
45.2925918
40
0.3762034
50
56.6229818
51
78.6387103
0
ARC
8
DEFAULT_255_1_388
10
5.6885347
20
45.3348846
40
0.3275964
50
47.0254604
51
56.085558
0
ARC
8
DEFAULT_255_1_388
10
5.6907598
20
45.3393189
40
0.3228382
50
10.9207523
51
46.777927
0
ARC
8
DEFAULT_255_1_388
10
5.5373191
20
45.3038401
40
0.4802559
50
359.6364235
51
11.6087615
0
ARC
8
DEFAULT_255_1_388
10
5.7437357
20
45.3021404
40
0.273833
50
332.3549969
51
359.7179765
0
ARC
8
DEFAULT_255_1_388
10
5.6705758
20
45.3368285
40
0.3547505
50
325.2332381
51
332.8746682
0
ARC
8
DEFAULT_255_1_388
10
5.6877341
20
45.3248763
40
0.3338396
50
292.9803892
51
325.2391113
0
ARC
8
DEFAULT_255_1_388
10
5.6566536
20
45.3853679
40
0.4016959
50
292.542178
51
293.6931461
0
ARC
8
DEFAULT_255_1_388
10
5.7010108
20
44.6588036
40
0.372079
50
57.643292
51
72.8626085
0
ARC
8
DEFAULT_255_1_388
10
5.7408943
20
44.7234273
40
0.2961455
50
36.7246661
51
57.4701329
0
ARC
8
DEFAULT_255_1_388
10
5.73961
20
44.724847
40
0.2963321
50
8.054535
51
36.3561529
0
ARC
8
DEFAULT_255_1_388
10
5.6425772
20
44.7074073
40
0.3948682
50
359.8316595
51
8.5873361
0
ARC
8
DEFAULT_255_1_388
10
5.6003246
20
44.701997
40
0.4371398
50
343.9831631
51
0.557075
0
ARC
8
DEFAULT_255_1_388
10
5.7000296
20
44.6746963
40
0.3337749
50
311.6358204
51
343.7652116
0
ARC
8
DEFAULT_255_1_388
10
5.657455
20
44.7226955
40
0.3979351
50
279.7829743
51
311.625622
0
ARC
8
DEFAULT_255_1_388
10
5.6235685
20
44.8843642
40
0.5630417
50
269.7285092
51
280.3857694
0
ARC
8
DEFAULT_255_1_388
10
5.6165998
20
44.8797241
40
0.5584119
50
256.6827433
51
270.4412869
0
ARC
8
DEFAULT_255_1_388
10
5.5784984
20
44.7239698
40
0.3980715
50
229.4223821
51
256.8554507
0
ARC
8
DEFAULT_255_1_388
10
5.5318538
20
44.6714683
40
0.3278564
50
181.8183354
51
229.6455015
0
ARC
8
DEFAULT_255_1_388
10
5.6488147
20
44.6861825
40
0.4453611
50
179.9760419
51
183.2330638
0
ARC
8
DEFAULT_255_1_388
10
5.62947
20
44.6838781
40
0.2579652
50
179.4467996
51
196.2871626
0
ARC
8
DEFAULT_255_1_388
10
5.5746153
20
44.6688709
40
0.2011057
50
196.5661293
51
227.7059371
0
ARC
8
DEFAULT_255_1_388
10
5.5930761
20
44.6895155
40
0.2287994
50
227.7653015
51
257.8763321
0
ARC
8
DEFAULT_255_1_388
10
5.6183844
20
44.7955961
40
0.3378385
50
257.4583525
51
270.4267406
0
ARC
8
DEFAULT_255_1_388
10
5.6235093
20
44.828223
40
0.3704652
50
269.5965319
51
280.8788143
0
ARC
8
DEFAULT_255_1_388
10
5.6493321
20
44.6992529
40
0.2389415
50
280.6347277
51
299.8594068
0
ARC
8
DEFAULT_255_1_388
10
5.6708091
20
44.6584736
40
0.19289
50
300.3575552
51
314.5515667
0
ARC
8
DEFAULT_255_1_388
10
5.6614767
20
44.6653025
40
0.204312
50
315.0730962
51
345.0429362
0
ARC
8
DEFAULT_255_1_388
10
5.5576274
20
44.6955539
40
0.31246
50
344.598526
51
357.9270698
0
ARC
8
DEFAULT_255_1_388
10
5.4566579
20
44.7024705
40
0.4136265
50
357.4755098
51
0.0224936
0
ARC
8
DEFAULT_255_1_388
10
5.5719457
20
44.7052099
40
0.2983498
50
359.5051035
51
13.4236939
0
ARC
8
DEFAULT_255_1_388
10
5.6694546
20
44.7301637
40
0.1977186
50
12.9497905
51
48.7550905
0
ARC
8
DEFAULT_255_1_388
10
5.6489468
20
44.7021373
40
0.2323321
50
49.509109
51
72.1832965
0
ARC
8
DEFAULT_255_1_388
10
5.6086937
20
44.5826632
40
0.358397
50
71.9008458
51
84.3555134
0
ARC
8
DEFAULT_255_1_388
10
5.5905331
20
44.4294712
40
0.512641
50
84.019632
51
89.3326067
0
LINE
8
DEFAULT_255_1_388
10
5.0109946
20
52.9753553
11
5.0109946
21
52.8922274
0
LINE
8
DEFAULT_255_1_388
10
3.9529206
20
52.8804811
11
3.9529206
21
52.9753553
0
LINE
8
DEFAULT_255_1_388
10
4.8384138
20
52.8795775
11
4.8384138
21
52.9771625
0
LINE
8
DEFAULT_255_1_388
10
4.1255014
20
52.9889088
11
4.1255014
21
52.8922274
0
ARC
8
DEFAULT_255_1_388
10
4.0387684
20
52.8877726
40
0.9722364
50
350.4878118
51
0.2625322
0
ARC
8
DEFAULT_255_1_388
10
4.2967644
20
52.8433994
40
0.7104556
50
336.0277991
51
350.5787241
0
ARC
8
DEFAULT_255_1_388
10
4.4480751
20
52.7750243
40
0.544417
50
319.887443
51
336.1331163
0
ARC
8
DEFAULT_255_1_388
10
4.5158563
20
52.7207733
40
0.4576311
50
302.4806296
51
319.6144102
0
ARC
8
DEFAULT_255_1_388
10
4.5029184
20
52.7457067
40
0.4856183
50
275.8196423
51
302.1885521
0
ARC
8
DEFAULT_255_1_388
10
4.4842046
20
52.8742466
40
0.6154183
50
269.9169897
51
276.339506
0
ARC
8
DEFAULT_255_1_388
10
4.4791646
20
52.797068
40
0.5382553
50
252.5221437
51
270.441579
0
ARC
8
DEFAULT_255_1_388
10
4.4629897
20
52.7364046
40
0.4755426
50
237.5349961
51
252.1858334
0
ARC
8
DEFAULT_255_1_388
10
4.4730273
20
52.749212
40
0.4917393
50
209.0632754
51
237.3492577
0
ARC
8
DEFAULT_255_1_388
10
4.5709599
20
52.8107104
40
0.6072464
50
205.118533
51
209.6465345
0
ARC
8
DEFAULT_255_1_388
10
4.6605601
20
52.8487174
40
0.7045164
50
188.7216633
51
204.8239753
0
ARC
8
DEFAULT_255_1_388
10
4.8852376
20
52.8865387
40
0.9323368
50
180.3722704
51
188.9253909
0
ARC
8
DEFAULT_255_1_388
10
4.8821938
20
52.9798416
40
0.929284
50
169.5253055
51
180.2766048
0
ARC
8
DEFAULT_255_1_388
10
4.6681737
20
53.0192024
40
0.7116745
50
155.8314601
51
169.5088611
0
ARC
8
DEFAULT_255_1_388
10
4.52412
20
53.0860312
40
0.5528904
50
139.6259579
51
156.0379072
0
ARC
8
DEFAULT_255_1_388
10
4.4577733
20
53.1394143
40
0.4677708
50
122.6414784
51
139.3431662
0
ARC
8
DEFAULT_255_1_388
10
4.4690988
20
53.1187787
40
0.4912586
50
93.0224537
51
122.4556091
0
ARC
8
DEFAULT_255_1_388
10
4.4812509
20
53.0101776
40
0.6003837
50
89.9756766
51
93.6340839
0
ARC
8
DEFAULT_255_1_388
10
4.4856107
20
53.0550879
40
0.5554884
50
73.7463329
51
90.4234008
0
ARC
8
DEFAULT_255_1_388
10
4.505358
20
53.1315772
40
0.4765353
50
57.663051
51
73.4516911
0
ARC
8
DEFAULT_255_1_388
10
4.5044618
20
53.1340108
40
0.4749629
50
29.1441355
51
57.4146687
0
ARC
8
DEFAULT_255_1_388
10
4.3992429
20
53.0683046
40
0.5988917
50
24.0985653
51
29.732054
0
ARC
8
DEFAULT_255_1_388
10
4.2830061
20
53.0201154
40
0.7246823
50
8.6654943
51
23.8241215
0
ARC
8
DEFAULT_255_1_388
10
4.0316479
20
52.9791037
40
0.9793537
50
359.7807044
51
8.8218476
0
ARC
8
DEFAULT_255_1_388
10
3.9026184
20
52.9819731
40
0.9358078
50
359.7054632
51
8.0359751
0
ARC
8
DEFAULT_255_1_388
10
4.2401235
20
53.0311252
40
0.5947474
50
7.8926278
51
20.2962188
0
ARC
8
DEFAULT_255_1_388
10
4.4232085
20
53.0986367
40
0.3996117
50
20.3231056
51
36.4990255
0
ARC
8
DEFAULT_255_1_388
10
4.5003383
20
53.1580399
40
0.3022818
50
36.1436715
51
85.6627846
0
ARC
8
DEFAULT_255_1_388
10
4.4820638
20
53.0410881
40
0.4203853
50
84.3845912
51
90.076054
0
ARC
8
DEFAULT_255_1_388
10
4.4772993
20
53.1153416
40
0.346157
50
89.3037228
51
109.9046209
0
ARC
8
DEFAULT_255_1_388
10
4.4668826
20
53.1583379
40
0.3022217
50
110.8229774
51
143.917961
0
ARC
8
DEFAULT_255_1_388
10
4.5719185
20
53.0781455
40
0.434348
50
143.5289166
51
163.2980252
0
ARC
8
DEFAULT_255_1_388
10
4.7865472
20
53.0106685
40
0.659321
50
163.0418884
51
174.3139873
0
ARC
8
DEFAULT_255_1_388
10
5.0570437
20
52.9794378
40
0.9315905
50
174.050934
51
179.4174954
0
ARC
8
DEFAULT_255_1_388
10
5.0002381
20
52.8875382
40
0.8747493
50
179.6928582
51
188.7908948
0
ARC
8
DEFAULT_255_1_388
10
4.7006181
20
52.8396086
40
0.5713262
50
188.6328449
51
202.5630732
0
ARC
8
DEFAULT_255_1_388
10
4.5595018
20
52.7829142
40
0.4192612
50
202.8078931
51
216.1195888
0
ARC
8
DEFAULT_255_1_388
10
4.4684535
20
52.7096479
40
0.3025752
50
215.0755613
51
264.6379773
0
ARC
8
DEFAULT_255_1_388
10
4.4827372
20
52.8031376
40
0.3970284
50
263.8464302
51
270.0830805
0
ARC
8
DEFAULT_255_1_388
10
4.4873917
20
52.7740808
40
0.3679937
50
269.3649295
51
287.5149684
0
ARC
8
DEFAULT_255_1_388
10
4.5074358
20
52.7012714
40
0.2925408
50
288.0629019
51
323.8115617
0
ARC
8
DEFAULT_255_1_388
10
4.4094334
20
52.7743754
40
0.4148018
50
323.6546541
51
342.6591359
0
ARC
8
DEFAULT_255_1_388
10
4.1808992
20
52.848728
40
0.6551163
50
342.4092446
51
353.6451501
0
ARC
8
DEFAULT_255_1_388
10
3.8623785
20
52.8883565
40
0.9760748
50
353.4027553
51
359.4846611
0
LINE
8
DEFAULT_255_1_388
10
6.0898505
20
52.4133382
11
6.0898505
21
52.2769
0
LINE
8
DEFAULT_255_1_388
10
6.0898505
20
52.2769
11
5.22785
21
52.2769
0
LINE
8
DEFAULT_255_1_388
10
5.22785
20
52.2769
11
5.22785
21
52.3970741
0
LINE
8
DEFAULT_255_1_388
10
5.22785
20
52.3970741
11
5.6832465
21
52.9030702
0
LINE
8
DEFAULT_255_1_388
10
5.3697097
20
53.2048607
11
5.2025502
21
53.2048607
0
LINE
8
DEFAULT_255_1_388
10
5.7817351
20
52.795546
11
5.4293449
21
52.4133382
0
LINE
8
DEFAULT_255_1_388
10
5.4293449
20
52.4133382
11
6.0898505
21
52.4133382
0
ARC
8
DEFAULT_255_1_388
10
4.1656525
20
54.2450983
40
2.0258655
50
318.5132526
51
320.7829045
0
ARC
8
DEFAULT_255_1_388
10
4.7604482
20
53.7609929
40
1.2589638
50
320.7372878
51
323.9739031
0
ARC
8
DEFAULT_255_1_388
10
5.2013413
20
53.4415554
40
0.7145141
50
323.8962701
51
328.64194
0
ARC
8
DEFAULT_255_1_388
10
5.4315671
20
53.2995545
40
0.4440242
50
328.8294576
51
331.7891185
0
ARC
8
DEFAULT_255_1_388
10
5.5437991
20
53.2416374
40
0.3177517
50
331.4254512
51
352.9365785
0
ARC
8
DEFAULT_255_1_388
10
5.5590991
20
53.238205
40
0.3021496
50
353.2257659
51
0.0166158
0
ARC
8
DEFAULT_255_1_388
10
5.5827752
20
53.2407894
40
0.2784847
50
359.486299
51
15.9343185
0
ARC
8
DEFAULT_255_1_388
10
5.6398018
20
53.2561269
40
0.2194403
50
16.1712913
51
43.5286088
0
ARC
8
DEFAULT_255_1_388
10
5.6484963
20
53.2648191
40
0.2071504
50
43.4417391
51
83.1661095
0
ARC
8
DEFAULT_255_1_388
10
5.6334124
20
53.1819316
40
0.2912888
50
82.160179
51
90.1505708
0
ARC
8
DEFAULT_255_1_388
10
5.6298606
20
53.1215279
40
0.3517025
50
89.5460741
51
102.5418361
0
ARC
8
DEFAULT_255_1_388
10
5.6025326
20
53.2374933
40
0.2325748
50
102.1738499
51
129.206123
0
ARC
8
DEFAULT_255_1_388
10
5.5936779
20
53.2514664
40
0.2161591
50
129.72865
51
135.753947
0
ARC
8
DEFAULT_255_1_388
10
5.6073261
20
53.2405728
40
0.2335433
50
136.1757367
51
166.3673339
0
ARC
8
DEFAULT_255_1_388
10
5.720595
20
53.2102148
40
0.3507873
50
165.9090694
51
178.8684636
0
ARC
8
DEFAULT_255_1_388
10
5.8181721
20
53.2049263
40
0.4484624
50
178.4391136
51
180.0083808
0
ARC
8
DEFAULT_255_1_388
10
5.6602423
20
53.2093197
40
0.4577138
50
163.2878482
51
180.5581842
0
ARC
8
DEFAULT_255_1_388
10
5.5700464
20
53.2341393
40
0.3641968
50
133.4540601
51
162.947111
0
ARC
8
DEFAULT_255_1_388
10
5.5901346
20
53.2127789
40
0.3935189
50
100.7869829
51
133.4382499
0
ARC
8
DEFAULT_255_1_388
10
5.6292591
20
53.0385399
40
0.5720313
50
89.660664
51
101.3702276
0
ARC
8
DEFAULT_255_1_388
10
5.63672
20
53.0454263
40
0.5651495
50
78.2172678
51
90.412935
0
ARC
8
DEFAULT_255_1_388
10
5.6766665
20
53.2281511
40
0.378122
50
55.9269121
51
78.4888449
0
ARC
8
DEFAULT_255_1_388
10
5.698738
20
53.2662187
40
0.3342379
50
47.929771
51
55.4049217
0
ARC
8
DEFAULT_255_1_388
10
5.7101911
20
53.2778618
40
0.3179217
50
4.334829
51
48.0560205
0
ARC
8
DEFAULT_255_1_388
10
5.5869713
20
53.2587487
40
0.442341
50
359.9251713
51
5.5971671
0
ARC
8
DEFAULT_255_1_388
10
5.6351867
20
53.2650728
40
0.3941854
50
337.8914027
51
358.9967534
0
ARC
8
DEFAULT_255_1_388
10
5.3299437
20
53.3828295
40
0.7213271
50
326.9132501
51
338.3508308
0
ARC
8
DEFAULT_255_1_388
10
4.8815549
20
53.6702105
40
1.2538973
50
319.6471833
51
327.0959558
0
ARC
8
DEFAULT_255_1_388
10
4.4502207
20
54.026005
40
1.8129975
50
317.2588228
51
319.9045804
0
LINE
8
DEFAULT_255_1_388
10
5.0026946
20
60.9128553
11
5.0026946
21
60.8297274
0
LINE
8
DEFAULT_255_1_388
10
3.9446206
20
60.8179811
11
3.9446206
21
60.9128553
0
LINE
8
DEFAULT_255_1_388
10
4.8301138
20
60.8170775
11
4.8301138
21
60.9146625
0
LINE
8
DEFAULT_255_1_388
10
4.1172014
20
60.9264088
11
4.1172014
21
60.8297274
0
ARC
8
DEFAULT_255_1_388
10
4.0304684
20
60.8252726
40
0.9722364
50
350.4878118
51
0.2625322
0
ARC
8
DEFAULT_255_1_388
10
4.2884644
20
60.7808994
40
0.7104556
50
336.0277991
51
350.5787241
0
ARC
8
DEFAULT_255_1_388
10
4.4397751
20
60.7125243
40
0.544417
50
319.887443
51
336.1331163
0
ARC
8
DEFAULT_255_1_388
10
4.5075563
20
60.6582733
40
0.4576311
50
302.4806296
51
319.6144102
0
ARC
8
DEFAULT_255_1_388
10
4.4946184
20
60.6832067
40
0.4856183
50
275.8196423
51
302.1885521
0
ARC
8
DEFAULT_255_1_388
10
4.4759046
20
60.8117466
40
0.6154183
50
269.9169897
51
276.339506
0
ARC
8
DEFAULT_255_1_388
10
4.4708646
20
60.734568
40
0.5382553
50
252.5221437
51
270.441579
0
ARC
8
DEFAULT_255_1_388
10
4.4546897
20
60.6739046
40
0.4755426
50
237.5349961
51
252.1858334
0
ARC
8
DEFAULT_255_1_388
10
4.4647273
20
60.686712
40
0.4917393
50
209.0632754
51
237.3492577
0
ARC
8
DEFAULT_255_1_388
10
4.5626599
20
60.7482104
40
0.6072464
50
205.118533
51
209.6465345
0
ARC
8
DEFAULT_255_1_388
10
4.6522601
20
60.7862174
40
0.7045164
50
188.7216633
51
204.8239753
0
ARC
8
DEFAULT_255_1_388
10
4.8769376
20
60.8240387
40
0.9323368
50
180.3722704
51
188.9253909
0
ARC
8
DEFAULT_255_1_388
10
4.8738938
20
60.9173416
40
0.929284
50
169.5253055
51
180.2766048
0
ARC
8
DEFAULT_255_1_388
10
4.6598737
20
60.9567024
40
0.7116745
50
155.8314601
51
169.5088611
0
ARC
8
DEFAULT_255_1_388
10
4.51582
20
61.0235312
40
0.5528904
50
139.6259579
51
156.0379072
0
ARC
8
DEFAULT_255_1_388
10
4.4494733
20
61.0769143
40
0.4677708
50
122.6414784
51
139.3431662
0
ARC
8
DEFAULT_255_1_388
10
4.4607988
20
61.0562787
40
0.4912586
50
93.0224537
51
122.4556091
0
ARC
8
DEFAULT_255_1_388
10
4.4729509
20
60.9476776
40
0.6003837
50
89.9756766
51
93.6340839
0
ARC
8
DEFAULT_255_1_388
10
4.4773107
20
60.9925879
40
0.5554884
50
73.7463329
51
90.4234008
0
ARC
8
DEFAULT_255_1_388
10
4.497058
20
61.0690772
40
0.4765353
50
57.663051
51
73.4516911
0
ARC
8
DEFAULT_255_1_388
10
4.4961618
20
61.0715108
40
0.4749629
50
29.1441355
51
57.4146687
0
ARC
8
DEFAULT_255_1_388
10
4.3909429
20
61.0058046
40
0.5988917
50
24.0985653
51
29.732054
0
ARC
8
DEFAULT_255_1_388
10
4.2747061
20
60.9576154
40
0.7246823
50
8.6654943
51
23.8241215
0
ARC
8
DEFAULT_255_1_388
10
4.0233479
20
60.9166037
40
0.9793537
50
359.7807044
51
8.8218476
0
ARC
8
DEFAULT_255_1_388
10
3.8943184
20
60.9194731
40
0.9358078
50
359.7054632
51
8.0359751
0
ARC
8
DEFAULT_255_1_388
10
4.2318235
20
60.9686252
40
0.5947474
50
7.8926278
51
20.2962188
0
ARC
8
DEFAULT_255_1_388
10
4.4149085
20
61.0361367
40
0.3996117
50
20.3231056
51
36.4990255
0
ARC
8
DEFAULT_255_1_388
10
4.4920383
20
61.0955399
40
0.3022818
50
36.1436715
51
85.6627846
0
ARC
8
DEFAULT_255_1_388
10
4.4737638
20
60.9785881
40
0.4203853
50
84.3845912
51
90.076054
0
ARC
8
DEFAULT_255_1_388
10
4.4689993
20
61.0528416
40
0.346157
50
89.3037228
51
109.9046209
0
ARC
8
DEFAULT_255_1_388
10
4.4585826
20
61.0958379
40
0.3022217
50
110.8229774
51
143.917961
0
ARC
8
DEFAULT_255_1_388
10
4.5636185
20
61.0156455
40
0.434348
50
143.5289166
51
163.2980252
0
ARC
8
DEFAULT_255_1_388
10
4.7782472
20
60.9481685
40
0.659321
50
163.0418884
51
174.3139873
0
ARC
8
DEFAULT_255_1_388
10
5.0487437
20
60.9169378
40
0.9315905
50
174.050934
51
179.4174954
0
ARC
8
DEFAULT_255_1_388
10
4.9919381
20
60.8250382
40
0.8747493
50
179.6928582
51
188.7908948
0
ARC
8
DEFAULT_255_1_388
10
4.6923181
20
60.7771086
40
0.5713262
50
188.6328449
51
202.5630732
0
ARC
8
DEFAULT_255_1_388
10
4.5512018
20
60.7204142
40
0.4192612
50
202.8078931
51
216.1195888
0
ARC
8
DEFAULT_255_1_388
10
4.4601535
20
60.6471479
40
0.3025752
50
215.0755613
51
264.6379773
0
ARC
8
DEFAULT_255_1_388
10
4.4744372
20
60.7406376
40
0.3970284
50
263.8464302
51
270.0830805
0
ARC
8
DEFAULT_255_1_388
10
4.4790917
20
60.7115808
40
0.3679937
50
269.3649295
51
287.5149684
0
ARC
8
DEFAULT_255_1_388
10
4.4991358
20
60.6387714
40
0.2925408
50
288.0629019
51
323.8115617
0
ARC
8
DEFAULT_255_1_388
10
4.4011334
20
60.7118754
40
0.4148018
50
323.6546541
51
342.6591359
0
ARC
8
DEFAULT_255_1_388
10
4.1725992
20
60.786228
40
0.6551163
50
342.4092446
51
353.6451501
0
ARC
8
DEFAULT_255_1_388
10
3.8540785
20
60.8258565
40
0.9760748
50
353.4027553
51
359.4846611
0
LINE
8
DEFAULT_255_1_388
10
5.7689172
20
61.5363148
11
5.7689172
21
60.2144
0
LINE
8
DEFAULT_255_1_388
10
5.7689172
20
60.2144
11
5.6008542
21
60.2144
0
LINE
8
DEFAULT_255_1_388
10
5.6008542
20
60.2144
11
5.6008542
21
61.328495
0
LINE
8
DEFAULT_255_1_388
10
5.6008542
20
61.328495
11
5.2638247
21
61.2047066
0
LINE
8
DEFAULT_255_1_388
10
5.2638247
20
61.2047066
11
5.2638247
21
61.3565055
0
LINE
8
DEFAULT_255_1_388
10
5.2638247
20
61.3565055
11
5.7427139
21
61.5363148
0
LINE
8
DEFAULT_255_1_388
10
5.7427139
20
61.5363148
11
5.7689172
21
61.5363148
0
LINE
8
DEFAULT_255_1_388
10
5.0109946
20
68.8503553
11
5.0109946
21
68.7672274
0
LINE
8
DEFAULT_255_1_388
10
3.9529206
20
68.7554811
11
3.9529206
21
68.8503553
0
LINE
8
DEFAULT_255_1_388
10
4.8384138
20
68.7545775
11
4.8384138
21
68.8521625
0
LINE
8
DEFAULT_255_1_388
10
4.1255014
20
68.8639088
11
4.1255014
21
68.7672274
0
ARC
8
DEFAULT_255_1_388
10
4.0387684
20
68.7627726
40
0.9722364
50
350.4878118
51
0.2625322
0
ARC
8
DEFAULT_255_1_388
10
4.2967644
20
68.7183994
40
0.7104556
50
336.0277991
51
350.5787241
0
ARC
8
DEFAULT_255_1_388
10
4.4480751
20
68.6500243
40
0.544417
50
319.887443
51
336.1331163
0
ARC
8
DEFAULT_255_1_388
10
4.5158563
20
68.5957733
40
0.4576311
50
302.4806296
51
319.6144102
0
ARC
8
DEFAULT_255_1_388
10
4.5029184
20
68.6207067
40
0.4856183
50
275.8196423
51
302.1885521
0
ARC
8
DEFAULT_255_1_388
10
4.4842046
20
68.7492466
40
0.6154183
50
269.9169897
51
276.339506
0
ARC
8
DEFAULT_255_1_388
10
4.4791646
20
68.672068
40
0.5382553
50
252.5221437
51
270.441579
0
ARC
8
DEFAULT_255_1_388
10
4.4629897
20
68.6114046
40
0.4755426
50
237.5349961
51
252.1858334
0
ARC
8
DEFAULT_255_1_388
10
4.4730273
20
68.624212
40
0.4917393
50
209.0632754
51
237.3492577
0
ARC
8
DEFAULT_255_1_388
10
4.5709599
20
68.6857104
40
0.6072464
50
205.118533
51
209.6465345
0
ARC
8
DEFAULT_255_1_388
10
4.6605601
20
68.7237174
40
0.7045164
50
188.7216633
51
204.8239753
0
ARC
8
DEFAULT_255_1_388
10
4.8852376
20
68.7615387
40
0.9323368
50
180.3722704
51
188.9253909
0
ARC
8
DEFAULT_255_1_388
10
4.8821938
20
68.8548416
40
0.929284
50
169.5253055
51
180.2766048
0
ARC
8
DEFAULT_255_1_388
10
4.6681737
20
68.8942024
40
0.7116745
50
155.8314601
51
169.5088611
0
ARC
8
DEFAULT_255_1_388
10
4.52412
20
68.9610312
40
0.5528904
50
139.6259579
51
156.0379072
0
ARC
8
DEFAULT_255_1_388
10
4.4577733
20
69.0144143
40
0.4677708
50
122.6414784
51
139.3431662
0
ARC
8
DEFAULT_255_1_388
10
4.4690988
20
68.9937787
40
0.4912586
50
93.0224537
51
122.4556091
0
ARC
8
DEFAULT_255_1_388
10
4.4812509
20
68.8851776
40
0.6003837
50
89.9756766
51
93.6340839
0
ARC
8
DEFAULT_255_1_388
10
4.4856107
20
68.9300879
40
0.5554884
50
73.7463329
51
90.4234008
0
ARC
8
DEFAULT_255_1_388
10
4.505358
20
69.0065772
40
0.4765353
50
57.663051
51
73.4516911
0
ARC
8
DEFAULT_255_1_388
10
4.5044618
20
69.0090108
40
0.4749629
50
29.1441355
51
57.4146687
0
ARC
8
DEFAULT_255_1_388
10
4.3992429
20
68.9433046
40
0.5988917
50
24.0985653
51
29.732054
0
ARC
8
DEFAULT_255_1_388
10
4.2830061
20
68.8951154
40
0.7246823
50
8.6654943
51
23.8241215
0
ARC
8
DEFAULT_255_1_388
10
4.0316479
20
68.8541037
40
0.9793537
50
359.7807044
51
8.8218476
0
ARC
8
DEFAULT_255_1_388
10
3.9026184
20
68.8569731
40
0.9358078
50
359.7054632
51
8.0359751
0
ARC
8
DEFAULT_255_1_388
10
4.2401235
20
68.9061252
40
0.5947474
50
7.8926278
51
20.2962188
0
ARC
8
DEFAULT_255_1_388
10
4.4232085
20
68.9736367
40
0.3996117
50
20.3231056
51
36.4990255
0
ARC
8
DEFAULT_255_1_388
10
4.5003383
20
69.0330399
40
0.3022818
50
36.1436715
51
85.6627846
0
ARC
8
DEFAULT_255_1_388
10
4.4820638
20
68.9160881
40
0.4203853
50
84.3845912
51
90.076054
0
ARC
8
DEFAULT_255_1_388
10
4.4772993
20
68.9903416
40
0.346157
50
89.3037228
51
109.9046209
0
ARC
8
DEFAULT_255_1_388
10
4.4668826
20
69.0333379
40
0.3022217
50
110.8229774
51
143.917961
0
ARC
8
DEFAULT_255_1_388
10
4.5719185
20
68.9531455
40
0.434348
50
143.5289166
51
163.2980252
0
ARC
8
DEFAULT_255_1_388
10
4.7865472
20
68.8856685
40
0.659321
50
163.0418884
51
174.3139873
0
ARC
8
DEFAULT_255_1_388
10
5.0570437
20
68.8544378
40
0.9315905
50
174.050934
51
179.4174954
0
ARC
8
DEFAULT_255_1_388
10
5.0002381
20
68.7625382
40
0.8747493
50
179.6928582
51
188.7908948
0
ARC
8
DEFAULT_255_1_388
10
4.7006181
20
68.7146086
40
0.5713262
50
188.6328449
51
202.5630732
0
ARC
8
DEFAULT_255_1_388
10
4.5595018
20
68.6579142
40
0.4192612
50
202.8078931
51
216.1195888
0
ARC
8
DEFAULT_255_1_388
10
4.4684535
20
68.5846479
40
0.3025752
50
215.0755613
51
264.6379773
0
ARC
8
DEFAULT_255_1_388
10
4.4827372
20
68.6781376
40
0.3970284
50
263.8464302
51
270.0830805
0
ARC
8
DEFAULT_255_1_388
10
4.4873917
20
68.6490808
40
0.3679937
50
269.3649295
51
287.5149684
0
ARC
8
DEFAULT_255_1_388
10
4.5074358
20
68.5762714
40
0.2925408
50
288.0629019
51
323.8115617
0
ARC
8
DEFAULT_255_1_388
10
4.4094334
20
68.6493754
40
0.4148018
50
323.6546541
51
342.6591359
0
ARC
8
DEFAULT_255_1_388
10
4.1808992
20
68.723728
40
0.6551163
50
342.4092446
51
353.6451501
0
ARC
8
DEFAULT_255_1_388
10
3.8623785
20
68.7633565
40
0.9760748
50
353.4027553
51
359.4846611
0
LINE
8
DEFAULT_255_1_388
10
6.0528044
20
68.929869
11
6.0528044
21
68.7130135
0
LINE
8
DEFAULT_255_1_388
10
5.2224287
20
68.6904244
11
5.2224287
21
68.9136048
0
LINE
8
DEFAULT_255_1_388
10
5.885645
20
68.6678353
11
5.885645
21
68.9416153
0
LINE
8
DEFAULT_255_1_388
10
5.3895881
20
68.9542652
11
5.3895881
21
68.6868102
0
ARC
8
DEFAULT_255_1_388
10
4.6750378
20
68.7075118
40
1.3777776
50
353.8440855
51
0.2287917
0
ARC
8
DEFAULT_255_1_388
10
5.1969395
20
68.6492414
40
0.852639
50
344.4934746
51
353.9763743
0
ARC
8
DEFAULT_255_1_388
10
5.5336202
20
68.5535191
40
0.5026273
50
329.2803599
51
344.7473406
0
ARC
8
DEFAULT_255_1_388
10
5.6451698
20
68.4923038
40
0.3754848
50
324.9361395
51
328.6153007
0
ARC
8
DEFAULT_255_1_388
10
5.6877348
20
68.4625586
40
0.3235566
50
280.5801797
51
324.9173226
0
ARC
8
DEFAULT_255_1_388
10
5.6425977
20
68.6505236
40
0.5167077
50
269.5979457
51
281.6732777
0
ARC
8
DEFAULT_255_1_388
10
5.634488
20
68.6370113
40
0.5032026
50
256.6228565
51
270.5105488
0
ARC
8
DEFAULT_255_1_388
10
5.5892623
20
68.4628345
40
0.3233092
50
215.8618351
51
257.2787793
0
ARC
8
DEFAULT_255_1_388
10
5.704133
20
68.5399106
40
0.4615831
50
197.9695203
51
215.2622745
0
ARC
8
DEFAULT_255_1_388
10
5.9837006
20
68.6342641
40
0.7566307
50
187.8816486
51
198.2346584
0
ARC
8
DEFAULT_255_1_388
10
6.4290244
20
68.6985453
40
1.2065653
50
180.8977266
51
188.0054894
0
ARC
8
DEFAULT_255_1_388
10
6.7340458
20
68.71004
40
1.5117443
50
180.7434591
51
181.152202
0
ARC
8
DEFAULT_255_1_388
10
6.5665453
20
68.9190371
40
1.3441277
50
173.7674302
51
180.2315596
0
ARC
8
DEFAULT_255_1_388
10
6.0583322
20
68.9764779
40
0.8326847
50
164.3058537
51
173.9000553
0
ARC
8
DEFAULT_255_1_388
10
5.7307322
20
69.0708652
40
0.4917711
50
148.7922028
51
164.5682288
0
ARC
8
DEFAULT_255_1_388
10
5.623806
20
69.1305457
40
0.3694204
50
144.5883979
51
148.1161588
0
ARC
8
DEFAULT_255_1_388
10
5.5850805
20
69.1575667
40
0.322202
50
101.6440149
51
144.5142619
0
ARC
8
DEFAULT_255_1_388
10
5.6328997
20
68.9675337
40
0.5180451
50
89.528284
51
102.5820197
0
ARC
8
DEFAULT_255_1_388
10
5.6417989
20
68.9631376
40
0.5224441
50
77.0437914
51
90.508231
0
ARC
8
DEFAULT_255_1_388
10
5.6870243
20
69.1479272
40
0.3322297
50
48.2777708
51
77.4996087
0
ARC
8
DEFAULT_255_1_388
10
5.6951983
20
69.1624557
40
0.315966
50
36.3141586
51
47.6307332
0
ARC
8
DEFAULT_255_1_388
10
5.5974705
20
69.0966159
40
0.4337313
50
18.2931065
51
35.6770203
0
ARC
8
DEFAULT_255_1_388
10
5.3113546
20
68.9984107
40
0.7362203
50
8.0246996
51
18.5605636
0
ARC
8
DEFAULT_255_1_388
10
4.8429901
20
68.9292432
40
1.2096583
50
1.127539
51
8.1718423
0
ARC
8
DEFAULT_255_1_388
10
4.4781035
20
68.9149374
40
1.5747719
50
0.5432713
51
1.38669
0
ARC
8
DEFAULT_255_1_388
10
4.6838414
20
68.9456163
40
1.2018103
50
359.8092569
51
4.9408001
0
ARC
8
DEFAULT_255_1_388
10
5.1574995
20
68.98789
40
0.7262727
50
4.8364937
51
12.2906017
0
ARC
8
DEFAULT_255_1_388
10
5.467446
20
69.0569485
40
0.4087324
50
12.0806994
51
23.8171225
0
ARC
8
DEFAULT_255_1_388
10
5.5994856
20
69.1128508
40
0.2653719
50
24.2874621
51
31.3934353
0
ARC
8
DEFAULT_255_1_388
10
5.6585291
20
69.1514822
40
0.1948607
50
30.7407708
51
82.4658033
0
ARC
8
DEFAULT_255_1_388
10
5.6382952
20
69.0521017
40
0.2961198
50
81.1057101
51
90.2187368
0
ARC
8
DEFAULT_255_1_388
10
5.6342764
20
69.0811421
40
0.2670929
50
89.380395
51
105.6763916
0
ARC
8
DEFAULT_255_1_388
10
5.6136486
20
69.156132
40
0.1893189
50
105.7980655
51
149.7387869
0
ARC
8
DEFAULT_255_1_388
10
5.7333626
20
69.0841719
40
0.3289892
50
149.4208441
51
163.628295
0
ARC
8
DEFAULT_255_1_388
10
5.9685856
20
69.0124345
40
0.5749004
50
163.3764549
51
172.141138
0
ARC
8
DEFAULT_255_1_388
10
6.3398577
20
68.9592582
40
0.9499585
50
172.0258462
51
178.0705453
0
ARC
8
DEFAULT_255_1_388
10
6.682013
20
68.9430682
40
1.2924734
50
177.8639301
51
179.5036263
0
ARC
8
DEFAULT_255_1_388
10
6.5601149
20
68.6827151
40
1.170534
50
179.7995545
51
185.246089
0
ARC
8
DEFAULT_255_1_388
10
6.1052742
20
68.6396404
40
0.7136613
50
185.1411911
51
193.0082205
0
ARC
8
DEFAULT_255_1_388
10
5.8079003
20
68.5693441
40
0.4080987
50
192.7897338
51
205.2507384
0
ARC
8
DEFAULT_255_1_388
10
5.6901213
20
68.5167538
40
0.2791522
50
205.8001921
51
211.2545876
0
ARC
8
DEFAULT_255_1_388
10
5.6312752
20
68.4773132
40
0.2084074
50
210.3789935
51
238.4007996
0
ARC
8
DEFAULT_255_1_388
10
5.6290838
20
68.4825786
40
0.2117943
50
239.6521916
51
265.9793852
0
ARC
8
DEFAULT_255_1_388
10
5.6386687
20
68.5582358
40
0.2879689
50
265.1324455
51
270.0603288
0
ARC
8
DEFAULT_255_1_388
10
5.6419064
20
68.5217418
40
0.2514919
50
269.3314378
51
287.2180039
0
ARC
8
DEFAULT_255_1_388
10
5.6574146
20
68.4651291
40
0.1928357
50
287.7957942
51
329.0808983
0
ARC
8
DEFAULT_255_1_388
10
5.5496903
20
68.5323651
40
0.319808
50
328.6635261
51
343.3325043
0
ARC
8
DEFAULT_255_1_388
10
5.3052362
20
68.6085195
40
0.5758408
50
343.0498092
51
351.9392499
0
ARC
8
DEFAULT_255_1_388
10
4.9151683
20
68.6660205
40
0.9701202
50
351.8071632
51
357.7957897
0
ARC
8
DEFAULT_255_1_388
10
4.551716
20
68.6848724
40
1.3340376
50
357.5870923
51
359.2682493
0
LINE
8
DEFAULT_255_1_388
10
4.1737903
20
77.4049898
11
4.1737903
21
76.2312596
0
LINE
8
DEFAULT_255_1_388
10
4.1737903
20
76.2312596
11
4.7972498
21
76.2312596
0
LINE
8
DEFAULT_255_1_388
10
4.7972498
20
76.2312596
11
4.7972498
21
76.0894
0
LINE
8
DEFAULT_255_1_388
10
4.7972498
20
76.0894
11
3.9994024
21
76.0894
0
LINE
8
DEFAULT_255_1_388
10
3.9994024
20
76.0894
11
3.9994024
21
77.4049898
0
LINE
8
DEFAULT_255_1_388
10
3.9994024
20
77.4049898
11
4.1737903
21
77.4049898
0
LINE
8
DEFAULT_255_1_388
10
5.8137598
20
76.2258382
11
5.8137598
21
76.0894
0
LINE
8
DEFAULT_255_1_388
10
5.8137598
20
76.0894
11
4.9517593
21
76.0894
0
LINE
8
DEFAULT_255_1_388
10
4.9517593
20
76.0894
11
4.9517593
21
76.2095741
0
LINE
8
DEFAULT_255_1_388
10
4.9517593
20
76.2095741
11
5.4071558
21
76.7155702
0
LINE
8
DEFAULT_255_1_388
10
5.0936189
20
77.0173607
11
4.9264595
21
77.0173607
0
LINE
8
DEFAULT_255_1_388
10
5.5056443
20
76.608046
11
5.1532542
21
76.2258382
0
LINE
8
DEFAULT_255_1_388
10
5.1532542
20
76.2258382
11
5.8137598
21
76.2258382
0
ARC
8
DEFAULT_255_1_388
10
3.8895618
20
78.0575983
40
2.0258655
50
318.5132526
51
320.7829045
0
ARC
8
DEFAULT_255_1_388
10
4.4843575
20
77.5734929
40
1.2589638
50
320.7372878
51
323.9739031
0
ARC
8
DEFAULT_255_1_388
10
4.9252506
20
77.2540554
40
0.7145141
50
323.8962701
51
328.64194
0
ARC
8
DEFAULT_255_1_388
10
5.1554764
20
77.1120545
40
0.4440242
50
328.8294576
51
331.7891185
0
ARC
8
DEFAULT_255_1_388
10
5.2677084
20
77.0541374
40
0.3177517
50
331.4254512
51
352.9365785
0
ARC
8
DEFAULT_255_1_388
10
5.2830084
20
77.050705
40
0.3021496
50
353.2257659
51
0.0166158
0
ARC
8
DEFAULT_255_1_388
10
5.3066845
20
77.0532894
40
0.2784847
50
359.486299
51
15.9343185
0
ARC
8
DEFAULT_255_1_388
10
5.3637111
20
77.0686269
40
0.2194403
50
16.1712913
51
43.5286088
0
ARC
8
DEFAULT_255_1_388
10
5.3724056
20
77.0773191
40
0.2071504
50
43.4417391
51
83.1661095
0
ARC
8
DEFAULT_255_1_388
10
5.3573217
20
76.9944316
40
0.2912888
50
82.160179
51
90.1505708
0
ARC
8
DEFAULT_255_1_388
10
5.3537699
20
76.9340279
40
0.3517025
50
89.5460741
51
102.5418361
0
ARC
8
DEFAULT_255_1_388
10
5.3264419
20
77.0499933
40
0.2325748
50
102.1738499
51
129.206123
0
ARC
8
DEFAULT_255_1_388
10
5.3175872
20
77.0639664
40
0.2161591
50
129.72865
51
135.753947
0
ARC
8
DEFAULT_255_1_388
10
5.3312354
20
77.0530728
40
0.2335433
50
136.1757367
51
166.3673339
0
ARC
8
DEFAULT_255_1_388
10
5.4445043
20
77.0227148
40
0.3507873
50
165.9090694
51
178.8684636
0
ARC
8
DEFAULT_255_1_388
10
5.5420814
20
77.0174263
40
0.4484624
50
178.4391136
51
180.0083808
0
ARC
8
DEFAULT_255_1_388
10
5.3841516
20
77.0218197
40
0.4577138
50
163.2878482
51
180.5581842
0
ARC
8
DEFAULT_255_1_388
10
5.2939557
20
77.0466393
40
0.3641968
50
133.4540601
51
162.947111
0
ARC
8
DEFAULT_255_1_388
10
5.3140438
20
77.0252789
40
0.3935189
50
100.7869829
51
133.4382499
0
ARC
8
DEFAULT_255_1_388
10
5.3531683
20
76.8510399
40
0.5720313
50
89.660664
51
101.3702276
0
ARC
8
DEFAULT_255_1_388
10
5.3606292
20
76.8579263
40
0.5651495
50
78.2172678
51
90.412935
0
ARC
8
DEFAULT_255_1_388
10
5.4005758
20
77.0406511
40
0.378122
50
55.9269121
51
78.4888449
0
ARC
8
DEFAULT_255_1_388
10
5.4226473
20
77.0787187
40
0.3342379
50
47.929771
51
55.4049217
0
ARC
8
DEFAULT_255_1_388
10
5.4341004
20
77.0903618
40
0.3179217
50
4.334829
51
48.0560205
0
ARC
8
DEFAULT_255_1_388
10
5.3108805
20
77.0712487
40
0.442341
50
359.9251713
51
5.5971671
0
ARC
8
DEFAULT_255_1_388
10
5.359096
20
77.0775728
40
0.3941854
50
337.8914027
51
358.9967534
0
ARC
8
DEFAULT_255_1_388
10
5.053853
20
77.1953295
40
0.7213271
50
326.9132501
51
338.3508308
0
ARC
8
DEFAULT_255_1_388
10
4.6054642
20
77.4827105
40
1.2538973
50
319.6471833
51
327.0959558
0
ARC
8
DEFAULT_255_1_388
10
4.17413
20
77.838505
40
1.8129975
50
317.2588228
51
319.9045804
0
LINE
8
DEFAULT_255_1_388
10
6.3558985
20
76.7164737
11
6.3558985
21
76.5800355
0
LINE
8
DEFAULT_255_1_388
10
6.3558985
20
76.5800355
11
5.914959
21
76.5800355
0
LINE
8
DEFAULT_255_1_388
10
5.914959
20
76.5800355
11
5.914959
21
76.7164737
0
LINE
8
DEFAULT_255_1_388
10
5.914959
20
76.7164737
11
6.3558985
21
76.7164737
0
LINE
8
DEFAULT_255_1_388
10
7.3263267
20
76.867369
11
7.3263267
21
76.6505135
0
LINE
8
DEFAULT_255_1_388
10
6.495951
20
76.6279244
11
6.495951
21
76.8511048
0
LINE
8
DEFAULT_255_1_388
10
7.1591673
20
76.6053353
11
7.1591673
21
76.8791153
0
LINE
8
DEFAULT_255_1_388
10
6.6631104
20
76.8917652
11
6.6631104
21
76.6243102
0
ARC
8
DEFAULT_255_1_388
10
5.9485601
20
76.6450118
40
1.3777776
50
353.8440855
51
0.2287917
0
ARC
8
DEFAULT_255_1_388
10
6.4704618
20
76.5867414
40
0.852639
50
344.4934746
51
353.9763743
0
ARC
8
DEFAULT_255_1_388
10
6.8071426
20
76.4910191
40
0.5026273
50
329.2803599
51
344.7473406
0
ARC
8
DEFAULT_255_1_388
10
6.9186921
20
76.4298038
40
0.3754848
50
324.9361395
51
328.6153007
0
ARC
8
DEFAULT_255_1_388
10
6.9612571
20
76.4000586
40
0.3235566
50
280.5801797
51
324.9173226
0
ARC
8
DEFAULT_255_1_388
10
6.91612
20
76.5880236
40
0.5167077
50
269.5979457
51
281.6732777
0
ARC
8
DEFAULT_255_1_388
10
6.9080103
20
76.5745113
40
0.5032026
50
256.6228565
51
270.5105488
0
ARC
8
DEFAULT_255_1_388
10
6.8627846
20
76.4003345
40
0.3233092
50
215.8618351
51
257.2787793
0
ARC
8
DEFAULT_255_1_388
10
6.9776553
20
76.4774106
40
0.4615831
50
197.9695203
51
215.2622745
0
ARC
8
DEFAULT_255_1_388
10
7.2572229
20
76.5717641
40
0.7566307
50
187.8816486
51
198.2346584
0
ARC
8
DEFAULT_255_1_388
10
7.7025467
20
76.6360453
40
1.2065653
50
180.8977266
51
188.0054894
0
ARC
8
DEFAULT_255_1_388
10
8.0075681
20
76.64754
40
1.5117443
50
180.7434591
51
181.152202
0
ARC
8
DEFAULT_255_1_388
10
7.8400677
20
76.8565371
40
1.3441277
50
173.7674302
51
180.2315596
0
ARC
8
DEFAULT_255_1_388
10
7.3318545
20
76.9139779
40
0.8326847
50
164.3058537
51
173.9000553
0
ARC
8
DEFAULT_255_1_388
10
7.0042546
20
77.0083652
40
0.4917711
50
148.7922028
51
164.5682288
0
ARC
8
DEFAULT_255_1_388
10
6.8973283
20
77.0680457
40
0.3694204
50
144.5883979
51
148.1161588
0
ARC
8
DEFAULT_255_1_388
10
6.8586028
20
77.0950667
40
0.322202
50
101.6440149
51
144.5142619
0
ARC
8
DEFAULT_255_1_388
10
6.906422
20
76.9050337
40
0.5180451
50
89.528284
51
102.5820197
0
ARC
8
DEFAULT_255_1_388
10
6.9153212
20
76.9006376
40
0.5224441
50
77.0437914
51
90.508231
0
ARC
8
DEFAULT_255_1_388
10
6.9605466
20
77.0854272
40
0.3322297
50
48.2777708
51
77.4996087
0
ARC
8
DEFAULT_255_1_388
10
6.9687206
20
77.0999557
40
0.315966
50
36.3141586
51
47.6307332
0
ARC
8
DEFAULT_255_1_388
10
6.8709928
20
77.0341159
40
0.4337313
50
18.2931065
51
35.6770203
0
ARC
8
DEFAULT_255_1_388
10
6.5848769
20
76.9359107
40
0.7362203
50
8.0246996
51
18.5605636
0
ARC
8
DEFAULT_255_1_388
10
6.1165125
20
76.8667432
40
1.2096583
50
1.127539
51
8.1718423
0
ARC
8
DEFAULT_255_1_388
10
5.7516258
20
76.8524374
40
1.5747719
50
0.5432713
51
1.38669
0
ARC
8
DEFAULT_255_1_388
10
5.9573637
20
76.8831163
40
1.2018103
50
359.8092569
51
4.9408001
0
ARC
8
DEFAULT_255_1_388
10
6.4310218
20
76.92539
40
0.7262727
50
4.8364937
51
12.2906017
0
ARC
8
DEFAULT_255_1_388
10
6.7409683
20
76.9944485
40
0.4087324
50
12.0806994
51
23.8171225
0
ARC
8
DEFAULT_255_1_388
10
6.8730079
20
77.0503508
40
0.2653719
50
24.2874621
51
31.3934353
0
ARC
8
DEFAULT_255_1_388
10
6.9320515
20
77.0889822
40
0.1948607
50
30.7407708
51
82.4658033
0
ARC
8
DEFAULT_255_1_388
10
6.9118175
20
76.9896017
40
0.2961198
50
81.1057101
51
90.2187368
0
ARC
8
DEFAULT_255_1_388
10
6.9077987
20
77.0186421
40
0.2670929
50
89.380395
51
105.6763916
0
ARC
8
DEFAULT_255_1_388
10
6.8871709
20
77.093632
40
0.1893189
50
105.7980655
51
149.7387869
0
ARC
8
DEFAULT_255_1_388
10
7.0068849
20
77.0216719
40
0.3289892
50
149.4208441
51
163.628295
0
ARC
8
DEFAULT_255_1_388
10
7.2421079
20
76.9499345
40
0.5749004
50
163.3764549
51
172.141138
0
ARC
8
DEFAULT_255_1_388
10
7.61338
20
76.8967582
40
0.9499585
50
172.0258462
51
178.0705453
0
ARC
8
DEFAULT_255_1_388
10
7.9555353
20
76.8805682
40
1.2924734
50
177.8639301
51
179.5036263
0
ARC
8
DEFAULT_255_1_388
10
7.8336372
20
76.6202151
40
1.170534
50
179.7995545
51
185.246089
0
ARC
8
DEFAULT_255_1_388
10
7.3787965
20
76.5771404
40
0.7136613
50
185.1411911
51
193.0082205
0
ARC
8
DEFAULT_255_1_388
10
7.0814226
20
76.5068441
40
0.4080987
50
192.7897338
51
205.2507384
0
ARC
8
DEFAULT_255_1_388
10
6.9636436
20
76.4542538
40
0.2791522
50
205.8001921
51
211.2545876
0
ARC
8
DEFAULT_255_1_388
10
6.9047975
20
76.4148132
40
0.2084074
50
210.3789935
51
238.4007996
0
ARC
8
DEFAULT_255_1_388
10
6.9026061
20
76.4200786
40
0.2117943
50
239.6521916
51
265.9793852
0
ARC
8
DEFAULT_255_1_388
10
6.912191
20
76.4957358
40
0.2879689
50
265.1324455
51
270.0603288
0
ARC
8
DEFAULT_255_1_388
10
6.9154287
20
76.4592418
40
0.2514919
50
269.3314378
51
287.2180039
0
ARC
8
DEFAULT_255_1_388
10
6.9309369
20
76.4026291
40
0.1928357
50
287.7957942
51
329.0808983
0
ARC
8
DEFAULT_255_1_388
10
6.8232126
20
76.4698651
40
0.319808
50
328.6635261
51
343.3325043
0
ARC
8
DEFAULT_255_1_388
10
6.5787585
20
76.5460195
40
0.5758408
50
343.0498092
51
351.9392499
0
ARC
8
DEFAULT_255_1_388
10
6.1886906
20
76.6035205
40
0.9701202
50
351.8071632
51
357.7957897
0
ARC
8
DEFAULT_255_1_388
10
5.8252383
20
76.6223724
40
1.3340376
50
357.5870923
51
359.2682493
0
LINE
8
DEFAULT_255_1_388
10
23.1203856
20
84.804869
11
23.1203856
21
84.5880135
0
LINE
8
DEFAULT_255_1_388
10
22.2900099
20
84.5654244
11
22.2900099
21
84.7886048
0
LINE
8
DEFAULT_255_1_388
10
22.9532262
20
84.5428353
11
22.9532262
21
84.8166153
0
LINE
8
DEFAULT_255_1_388
10
22.4571693
20
84.8292652
11
22.4571693
21
84.5618102
0
ARC
8
DEFAULT_255_1_388
10
21.742619
20
84.5825118
40
1.3777776
50
353.8440855
51
0.2287917
0
ARC
8
DEFAULT_255_1_388
10
22.2645208
20
84.5242414
40
0.852639
50
344.4934746
51
353.9763743
0
ARC
8
DEFAULT_255_1_388
10
22.6012015
20
84.4285191
40
0.5026273
50
329.2803599
51
344.7473406
0
ARC
8
DEFAULT_255_1_388
10
22.7127511
20
84.3673038
40
0.3754848
50
324.9361395
51
328.6153007
0
ARC
8
DEFAULT_255_1_388
10
22.7553161
20
84.3375586
40
0.3235566
50
280.5801797
51
324.9173226
0
ARC
8
DEFAULT_255_1_388
10
22.7101789
20
84.5255236
40
0.5167077
50
269.5979457
51
281.6732777
0
ARC
8
DEFAULT_255_1_388
10
22.7020693
20
84.5120113
40
0.5032026
50
256.6228565
51
270.5105488
0
ARC
8
DEFAULT_255_1_388
10
22.6568435
20
84.3378345
40
0.3233092
50
215.8618351
51
257.2787793
0
ARC
8
DEFAULT_255_1_388
10
22.7717142
20
84.4149106
40
0.4615831
50
197.9695203
51
215.2622745
0
ARC
8
DEFAULT_255_1_388
10
23.0512818
20
84.5092641
40
0.7566307
50
187.8816486
51
198.2346584
0
ARC
8
DEFAULT_255_1_388
10
23.4966056
20
84.5735453
40
1.2065653
50
180.8977266
51
188.0054894
0
ARC
8
DEFAULT_255_1_388
10
23.801627
20
84.58504
40
1.5117443
50
180.7434591
51
181.152202
0
ARC
8
DEFAULT_255_1_388
10
23.6341266
20
84.7940371
40
1.3441277
50
173.7674302
51
180.2315596
0
ARC
8
DEFAULT_255_1_388
10
23.1259135
20
84.8514779
40
0.8326847
50
164.3058537
51
173.9000553
0
ARC
8
DEFAULT_255_1_388
10
22.7983135
20
84.9458652
40
0.4917711
50
148.7922028
51
164.5682288
0
ARC
8
DEFAULT_255_1_388
10
22.6913872
20
85.0055457
40
0.3694204
50
144.5883979
51
148.1161588
0
ARC
8
DEFAULT_255_1_388
10
22.6526618
20
85.0325667
40
0.322202
50
101.6440149
51
144.5142619
0
ARC
8
DEFAULT_255_1_388
10
22.700481
20
84.8425337
40
0.5180451
50
89.528284
51
102.5820197
0
ARC
8
DEFAULT_255_1_388
10
22.7093802
20
84.8381376
40
0.5224441
50
77.0437914
51
90.508231
0
ARC
8
DEFAULT_255_1_388
10
22.7546055
20
85.0229272
40
0.3322297
50
48.2777708
51
77.4996087
0
ARC
8
DEFAULT_255_1_388
10
22.7627795
20
85.0374557
40
0.315966
50
36.3141586
51
47.6307332
0
ARC
8
DEFAULT_255_1_388
10
22.6650518
20
84.9716159
40
0.4337313
50
18.2931065
51
35.6770203
0
ARC
8
DEFAULT_255_1_388
10
22.3789358
20
84.8734107
40
0.7362203
50
8.0246996
51
18.5605636
0
ARC
8
DEFAULT_255_1_388
10
21.9105714
20
84.8042432
40
1.2096583
50
1.127539
51
8.1718423
0
ARC
8
DEFAULT_255_1_388
10
21.5456847
20
84.7899374
40
1.5747719
50
0.5432713
51
1.38669
0
ARC
8
DEFAULT_255_1_388
10
21.7514226
20
84.8206163
40
1.2018103
50
359.8092569
51
4.9408001
0
ARC
8
DEFAULT_255_1_388
10
22.2250807
20
84.86289
40
0.7262727
50
4.8364937
51
12.2906017
0
ARC
8
DEFAULT_255_1_388
10
22.5350272
20
84.9319485
40
0.4087324
50
12.0806994
51
23.8171225
0
ARC
8
DEFAULT_255_1_388
10
22.6670668
20
84.9878508
40
0.2653719
50
24.2874621
51
31.3934353
0
ARC
8
DEFAULT_255_1_388
10
22.7261104
20
85.0264822
40
0.1948607
50
30.7407708
51
82.4658033
0
ARC
8
DEFAULT_255_1_388
10
22.7058765
20
84.9271017
40
0.2961198
50
81.1057101
51
90.2187368
0
ARC
8
DEFAULT_255_1_388
10
22.7018577
20
84.9561421
40
0.2670929
50
89.380395
51
105.6763916
0
ARC
8
DEFAULT_255_1_388
10
22.6812299
20
85.031132
40
0.1893189
50
105.7980655
51
149.7387869
0
ARC
8
DEFAULT_255_1_388
10
22.8009439
20
84.9591719
40
0.3289892
50
149.4208441
51
163.628295
0
ARC
8
DEFAULT_255_1_388
10
23.0361668
20
84.8874345
40
0.5749004
50
163.3764549
51
172.141138
0
ARC
8
DEFAULT_255_1_388
10
23.407439
20
84.8342582
40
0.9499585
50
172.0258462
51
178.0705453
0
ARC
8
DEFAULT_255_1_388
10
23.7495943
20
84.8180682
40
1.2924734
50
177.8639301
51
179.5036263
0
ARC
8
DEFAULT_255_1_388
10
23.6276961
20
84.5577151
40
1.170534
50
179.7995545
51
185.246089
0
ARC
8
DEFAULT_255_1_388
10
23.1728554
20
84.5146404
40
0.7136613
50
185.1411911
51
193.0082205
0
ARC
8
DEFAULT_255_1_388
10
22.8754815
20
84.4443441
40
0.4080987
50
192.7897338
51
205.2507384
0
ARC
8
DEFAULT_255_1_388
10
22.7577025
20
84.3917538
40
0.2791522
50
205.8001921
51
211.2545876
0
ARC
8
DEFAULT_255_1_388
10
22.6988564
20
84.3523132
40
0.2084074
50
210.3789935
51
238.4007996
0
ARC
8
DEFAULT_255_1_388
10
22.696665
20
84.3575786
40
0.2117943
50
239.6521916
51
265.9793852
0
ARC
8
DEFAULT_255_1_388
10
22.7062499
20
84.4332358
40
0.2879689
50
265.1324455
51
270.0603288
0
ARC
8
DEFAULT_255_1_388
10
22.7094876
20
84.3967418
40
0.2514919
50
269.3314378
51
287.2180039
0
ARC
8
DEFAULT_255_1_388
10
22.7249958
20
84.3401291
40
0.1928357
50
287.7957942
51
329.0808983
0
ARC
8
DEFAULT_255_1_388
10
22.6172715
20
84.4073651
40
0.319808
50
328.6635261
51
343.3325043
0
ARC
8
DEFAULT_255_1_388
10
22.3728174
20
84.4835195
40
0.5758408
50
343.0498092
51
351.9392499
0
ARC
8
DEFAULT_255_1_388
10
21.9827496
20
84.5410205
40
0.9701202
50
351.8071632
51
357.7957897
0
ARC
8
DEFAULT_255_1_388
10
21.6192973
20
84.5598724
40
1.3340376
50
357.5870923
51
359.2682493
0
LINE
8
DEFAULT_255_1_388
10
23.4393439
20
85.3424898
11
23.8134196
21
84.2573089
0
LINE
8
DEFAULT_255_1_388
10
23.8134196
20
84.2573089
11
24.1893024
21
85.3424898
0
LINE
8
DEFAULT_255_1_388
10
24.1893024
20
85.3424898
11
24.3790509
21
85.3424898
0
LINE
8
DEFAULT_255_1_388
10
24.3790509
20
85.3424898
11
23.8911261
21
84.0269
0
LINE
8
DEFAULT_255_1_388
10
23.8911261
20
84.0269
11
23.7375202
21
84.0269
0
LINE
8
DEFAULT_255_1_388
10
23.7375202
20
84.0269
11
23.2504989
21
85.3424898
0
LINE
8
DEFAULT_255_1_388
10
23.2504989
20
85.3424898
11
23.4393439
21
85.3424898
0
LINE
8
DEFAULT_255_1_388
10
21.2162903
20
13.9049898
11
21.2162903
21
12.7312596
0
LINE
8
DEFAULT_255_1_388
10
21.2162903
20
12.7312596
11
21.8397498
21
12.7312596
0
LINE
8
DEFAULT_255_1_388
10
21.8397498
20
12.7312596
11
21.8397498
21
12.5894
0
LINE
8
DEFAULT_255_1_388
10
21.8397498
20
12.5894
11
21.0419024
21
12.5894
0
LINE
8
DEFAULT_255_1_388
10
21.0419024
20
12.5894
11
21.0419024
21
13.9049898
0
LINE
8
DEFAULT_255_1_388
10
21.0419024
20
13.9049898
11
21.2162903
21
13.9049898
0
LINE
8
DEFAULT_255_1_388
10
22.5436265
20
13.9113148
11
22.5436265
21
12.5894
0
LINE
8
DEFAULT_255_1_388
10
22.5436265
20
12.5894
11
22.3755635
21
12.5894
0
LINE
8
DEFAULT_255_1_388
10
22.3755635
20
12.5894
11
22.3755635
21
13.703495
0
LINE
8
DEFAULT_255_1_388
10
22.3755635
20
13.703495
11
22.038534
21
13.5797066
0
LINE
8
DEFAULT_255_1_388
10
22.038534
20
13.5797066
11
22.038534
21
13.7315055
0
LINE
8
DEFAULT_255_1_388
10
22.038534
20
13.7315055
11
22.5174231
21
13.9113148
0
LINE
8
DEFAULT_255_1_388
10
22.5174231
20
13.9113148
11
22.5436265
21
13.9113148
0
LINE
8
DEFAULT_255_1_388
10
23.3983985
20
13.2164737
11
23.3983985
21
13.0800355
0
LINE
8
DEFAULT_255_1_388
10
23.3983985
20
13.0800355
11
22.957459
21
13.0800355
0
LINE
8
DEFAULT_255_1_388
10
22.957459
20
13.0800355
11
22.957459
21
13.2164737
0
LINE
8
DEFAULT_255_1_388
10
22.957459
20
13.2164737
11
23.3983985
21
13.2164737
0
LINE
8
DEFAULT_255_1_388
10
24.0932396
20
13.9113148
11
24.0932396
21
12.5894
0
LINE
8
DEFAULT_255_1_388
10
24.0932396
20
12.5894
11
23.9251766
21
12.5894
0
LINE
8
DEFAULT_255_1_388
10
23.9251766
20
12.5894
11
23.9251766
21
13.703495
0
LINE
8
DEFAULT_255_1_388
10
23.9251766
20
13.703495
11
23.588147
21
13.5797066
0
LINE
8
DEFAULT_255_1_388
10
23.588147
20
13.5797066
11
23.588147
21
13.7315055
0
LINE
8
DEFAULT_255_1_388
10
23.588147
20
13.7315055
11
24.0670362
21
13.9113148
0
LINE
8
DEFAULT_255_1_388
10
24.0670362
20
13.9113148
11
24.0932396
21
13.9113148
0
LINE
8
DEFAULT_255_1_388
10
22.2539903
20
21.8424898
11
22.2539903
21
20.6687596
0
LINE
8
DEFAULT_255_1_388
10
22.2539903
20
20.6687596
11
22.8774498
21
20.6687596
0
LINE
8
DEFAULT_255_1_388
10
22.8774498
20
20.6687596
11
22.8774498
21
20.5269
0
LINE
8
DEFAULT_255_1_388
10
22.8774498
20
20.5269
11
22.0796024
21
20.5269
0
LINE
8
DEFAULT_255_1_388
10
22.0796024
20
20.5269
11
22.0796024
21
21.8424898
0
LINE
8
DEFAULT_255_1_388
10
22.0796024
20
21.8424898
11
22.2539903
21
21.8424898
0
LINE
8
DEFAULT_255_1_388
10
23.3969994
20
21.1539737
11
23.3969994
21
21.0175355
0
LINE
8
DEFAULT_255_1_388
10
23.3969994
20
21.0175355
11
22.9560599
21
21.0175355
0
LINE
8
DEFAULT_255_1_388
10
22.9560599
20
21.0175355
11
22.9560599
21
21.1539737
0
LINE
8
DEFAULT_255_1_388
10
22.9560599
20
21.1539737
11
23.3969994
21
21.1539737
0
LINE
8
DEFAULT_255_1_388
10
24.0918404
20
21.8488148
11
24.0918404
21
20.5269
0
LINE
8
DEFAULT_255_1_388
10
24.0918404
20
20.5269
11
23.9237774
21
20.5269
0
LINE
8
DEFAULT_255_1_388
10
23.9237774
20
20.5269
11
23.9237774
21
21.640995
0
LINE
8
DEFAULT_255_1_388
10
23.9237774
20
21.640995
11
23.5867479
21
21.5172066
0
LINE
8
DEFAULT_255_1_388
10
23.5867479
20
21.5172066
11
23.5867479
21
21.6690055
0
LINE
8
DEFAULT_255_1_388
10
23.5867479
20
21.6690055
11
24.0656371
21
21.8488148
0
LINE
8
DEFAULT_255_1_388
10
24.0656371
20
21.8488148
11
24.0918404
21
21.8488148
0
LINE
8
DEFAULT_255_1_388
10
21.2162903
20
29.7799898
11
21.2162903
21
28.6062596
0
LINE
8
DEFAULT_255_1_388
10
21.2162903
20
28.6062596
11
21.8397498
21
28.6062596
0
LINE
8
DEFAULT_255_1_388
10
21.8397498
20
28.6062596
11
21.8397498
21
28.4644
0
LINE
8
DEFAULT_255_1_388
10
21.8397498
20
28.4644
11
21.0419024
21
28.4644
0
LINE
8
DEFAULT_255_1_388
10
21.0419024
20
28.4644
11
21.0419024
21
29.7799898
0
LINE
8
DEFAULT_255_1_388
10
21.0419024
20
29.7799898
11
21.2162903
21
29.7799898
0
LINE
8
DEFAULT_255_1_388
10
22.5436265
20
29.7863148
11
22.5436265
21
28.4644
0
LINE
8
DEFAULT_255_1_388
10
22.5436265
20
28.4644
11
22.3755635
21
28.4644
0
LINE
8
DEFAULT_255_1_388
10
22.3755635
20
28.4644
11
22.3755635
21
29.578495
0
LINE
8
DEFAULT_255_1_388
10
22.3755635
20
29.578495
11
22.038534
21
29.4547066
0
LINE
8
DEFAULT_255_1_388
10
22.038534
20
29.4547066
11
22.038534
21
29.6065055
0
LINE
8
DEFAULT_255_1_388
10
22.038534
20
29.6065055
11
22.5174231
21
29.7863148
0
LINE
8
DEFAULT_255_1_388
10
22.5174231
20
29.7863148
11
22.5436265
21
29.7863148
0
LINE
8
DEFAULT_255_1_388
10
23.3983985
20
29.0914737
11
23.3983985
21
28.9550355
0
LINE
8
DEFAULT_255_1_388
10
23.3983985
20
28.9550355
11
22.957459
21
28.9550355
0
LINE
8
DEFAULT_255_1_388
10
22.957459
20
28.9550355
11
22.957459
21
29.0914737
0
LINE
8
DEFAULT_255_1_388
10
22.957459
20
29.0914737
11
23.3983985
21
29.0914737
0
LINE
8
DEFAULT_255_1_388
10
24.0932396
20
29.7863148
11
24.0932396
21
28.4644
0
LINE
8
DEFAULT_255_1_388
10
24.0932396
20
28.4644
11
23.9251766
21
28.4644
0
LINE
8
DEFAULT_255_1_388
10
23.9251766
20
28.4644
11
23.9251766
21
29.578495
0
LINE
8
DEFAULT_255_1_388
10
23.9251766
20
29.578495
11
23.588147
21
29.4547066
0
LINE
8
DEFAULT_255_1_388
10
23.588147
20
29.4547066
11
23.588147
21
29.6065055
0
LINE
8
DEFAULT_255_1_388
10
23.588147
20
29.6065055
11
24.0670362
21
29.7863148
0
LINE
8
DEFAULT_255_1_388
10
24.0670362
20
29.7863148
11
24.0932396
21
29.7863148
0
LINE
8
DEFAULT_255_1_388
10
21.2162903
20
37.7174898
11
21.2162903
21
36.5437596
0
LINE
8
DEFAULT_255_1_388
10
21.2162903
20
36.5437596
11
21.8397498
21
36.5437596
0
LINE
8
DEFAULT_255_1_388
10
21.8397498
20
36.5437596
11
21.8397498
21
36.4019
0
LINE
8
DEFAULT_255_1_388
10
21.8397498
20
36.4019
11
21.0419024
21
36.4019
0
LINE
8
DEFAULT_255_1_388
10
21.0419024
20
36.4019
11
21.0419024
21
37.7174898
0
LINE
8
DEFAULT_255_1_388
10
21.0419024
20
37.7174898
11
21.2162903
21
37.7174898
0
LINE
8
DEFAULT_255_1_388
10
22.5436265
20
37.7238148
11
22.5436265
21
36.4019
0
LINE
8
DEFAULT_255_1_388
10
22.5436265
20
36.4019
11
22.3755635
21
36.4019
0
LINE
8
DEFAULT_255_1_388
10
22.3755635
20
36.4019
11
22.3755635
21
37.515995
0
LINE
8
DEFAULT_255_1_388
10
22.3755635
20
37.515995
11
22.038534
21
37.3922066
0
LINE
8
DEFAULT_255_1_388
10
22.038534
20
37.3922066
11
22.038534
21
37.5440055
0
LINE
8
DEFAULT_255_1_388
10
22.038534
20
37.5440055
11
22.5174231
21
37.7238148
0
LINE
8
DEFAULT_255_1_388
10
22.5174231
20
37.7238148
11
22.5436265
21
37.7238148
0
LINE
8
DEFAULT_255_1_388
10
23.3983985
20
37.0289737
11
23.3983985
21
36.8925355
0
LINE
8
DEFAULT_255_1_388
10
23.3983985
20
36.8925355
11
22.957459
21
36.8925355
0
LINE
8
DEFAULT_255_1_388
10
22.957459
20
36.8925355
11
22.957459
21
37.0289737
0
LINE
8
DEFAULT_255_1_388
10
22.957459
20
37.0289737
11
23.3983985
21
37.0289737
0
LINE
8
DEFAULT_255_1_388
10
24.0932396
20
37.7238148
11
24.0932396
21
36.4019
0
LINE
8
DEFAULT_255_1_388
10
24.0932396
20
36.4019
11
23.9251766
21
36.4019
0
LINE
8
DEFAULT_255_1_388
10
23.9251766
20
36.4019
11
23.9251766
21
37.515995
0
LINE
8
DEFAULT_255_1_388
10
23.9251766
20
37.515995
11
23.588147
21
37.3922066
0
LINE
8
DEFAULT_255_1_388
10
23.588147
20
37.3922066
11
23.588147
21
37.5440055
0
LINE
8
DEFAULT_255_1_388
10
23.588147
20
37.5440055
11
24.0670362
21
37.7238148
0
LINE
8
DEFAULT_255_1_388
10
24.0670362
20
37.7238148
11
24.0932396
21
37.7238148
0
LINE
8
DEFAULT_255_1_388
10
21.2162903
20
45.6549898
11
21.2162903
21
44.4812596
0
LINE
8
DEFAULT_255_1_388
10
21.2162903
20
44.4812596
11
21.8397498
21
44.4812596
0
LINE
8
DEFAULT_255_1_388
10
21.8397498
20
44.4812596
11
21.8397498
21
44.3394
0
LINE
8
DEFAULT_255_1_388
10
21.8397498
20
44.3394
11
21.0419024
21
44.3394
0
LINE
8
DEFAULT_255_1_388
10
21.0419024
20
44.3394
11
21.0419024
21
45.6549898
0
LINE
8
DEFAULT_255_1_388
10
21.0419024
20
45.6549898
11
21.2162903
21
45.6549898
0
LINE
8
DEFAULT_255_1_388
10
22.5436265
20
45.6613148
11
22.5436265
21
44.3394
0
LINE
8
DEFAULT_255_1_388
10
22.5436265
20
44.3394
11
22.3755635
21
44.3394
0
LINE
8
DEFAULT_255_1_388
10
22.3755635
20
44.3394
11
22.3755635
21
45.453495
0
LINE
8
DEFAULT_255_1_388
10
22.3755635
20
45.453495
11
22.038534
21
45.3297066
0
LINE
8
DEFAULT_255_1_388
10
22.038534
20
45.3297066
11
22.038534
21
45.4815055
0
LINE
8
DEFAULT_255_1_388
10
22.038534
20
45.4815055
11
22.5174231
21
45.6613148
0
LINE
8
DEFAULT_255_1_388
10
22.5174231
20
45.6613148
11
22.5436265
21
45.6613148
0
LINE
8
DEFAULT_255_1_388
10
23.3983985
20
44.9664737
11
23.3983985
21
44.8300355
0
LINE
8
DEFAULT_255_1_388
10
23.3983985
20
44.8300355
11
22.957459
21
44.8300355
0
LINE
8
DEFAULT_255_1_388
10
22.957459
20
44.8300355
11
22.957459
21
44.9664737
0
LINE
8
DEFAULT_255_1_388
10
22.957459
20
44.9664737
11
23.3983985
21
44.9664737
0
LINE
8
DEFAULT_255_1_388
10
24.0932396
20
45.6613148
11
24.0932396
21
44.3394
0
LINE
8
DEFAULT_255_1_388
10
24.0932396
20
44.3394
11
23.9251766
21
44.3394
0
LINE
8
DEFAULT_255_1_388
10
23.9251766
20
44.3394
11
23.9251766
21
45.453495
0
LINE
8
DEFAULT_255_1_388
10
23.9251766
20
45.453495
11
23.588147
21
45.3297066
0
LINE
8
DEFAULT_255_1_388
10
23.588147
20
45.3297066
11
23.588147
21
45.4815055
0
LINE
8
DEFAULT_255_1_388
10
23.588147
20
45.4815055
11
24.0670362
21
45.6613148
0
LINE
8
DEFAULT_255_1_388
10
24.0670362
20
45.6613148
11
24.0932396
21
45.6613148
0
LINE
8
DEFAULT_255_1_388
10
21.2075903
20
53.5924898
11
21.2075903
21
52.4187596
0
LINE
8
DEFAULT_255_1_388
10
21.2075903
20
52.4187596
11
21.8310498
21
52.4187596
0
LINE
8
DEFAULT_255_1_388
10
21.8310498
20
52.4187596
11
21.8310498
21
52.2769
0
LINE
8
DEFAULT_255_1_388
10
21.8310498
20
52.2769
11
21.0332024
21
52.2769
0
LINE
8
DEFAULT_255_1_388
10
21.0332024
20
52.2769
11
21.0332024
21
53.5924898
0
LINE
8
DEFAULT_255_1_388
10
21.0332024
20
53.5924898
11
21.2075903
21
53.5924898
0
LINE
8
DEFAULT_255_1_388
10
22.5349265
20
53.5988148
11
22.5349265
21
52.2769
0
LINE
8
DEFAULT_255_1_388
10
22.5349265
20
52.2769
11
22.3668635
21
52.2769
0
LINE
8
DEFAULT_255_1_388
10
22.3668635
20
52.2769
11
22.3668635
21
53.390995
0
LINE
8
DEFAULT_255_1_388
10
22.3668635
20
53.390995
11
22.029834
21
53.2672066
0
LINE
8
DEFAULT_255_1_388
10
22.029834
20
53.2672066
11
22.029834
21
53.4190055
0
LINE
8
DEFAULT_255_1_388
10
22.029834
20
53.4190055
11
22.5087231
21
53.5988148
0
LINE
8
DEFAULT_255_1_388
10
22.5087231
20
53.5988148
11
22.5349265
21
53.5988148
0
LINE
8
DEFAULT_255_1_388
10
23.3896985
20
52.9039737
11
23.3896985
21
52.7675355
0
LINE
8
DEFAULT_255_1_388
10
23.3896985
20
52.7675355
11
22.948759
21
52.7675355
0
LINE
8
DEFAULT_255_1_388
10
22.948759
20
52.7675355
11
22.948759
21
52.9039737
0
LINE
8
DEFAULT_255_1_388
10
22.948759
20
52.9039737
11
23.3896985
21
52.9039737
0
LINE
8
DEFAULT_255_1_388
10
24.3601267
20
53.054869
11
24.3601267
21
52.8380135
0
LINE
8
DEFAULT_255_1_388
10
23.529751
20
52.8154244
11
23.529751
21
53.0386048
0
LINE
8
DEFAULT_255_1_388
10
24.1929673
20
52.7928353
11
24.1929673
21
53.0666153
0
LINE
8
DEFAULT_255_1_388
10
23.6969104
20
53.0792652
11
23.6969104
21
52.8118102
0
ARC
8
DEFAULT_255_1_388
10
22.9823601
20
52.8325118
40
1.3777776
50
353.8440855
51
0.2287917
0
ARC
8
DEFAULT_255_1_388
10
23.5042618
20
52.7742414
40
0.852639
50
344.4934746
51
353.9763743
0
ARC
8
DEFAULT_255_1_388
10
23.8409426
20
52.6785191
40
0.5026273
50
329.2803599
51
344.7473406
0
ARC
8
DEFAULT_255_1_388
10
23.9524921
20
52.6173038
40
0.3754848
50
324.9361395
51
328.6153007
0
ARC
8
DEFAULT_255_1_388
10
23.9950571
20
52.5875586
40
0.3235566
50
280.5801797
51
324.9173226
0
ARC
8
DEFAULT_255_1_388
10
23.94992
20
52.7755236
40
0.5167077
50
269.5979457
51
281.6732777
0
ARC
8
DEFAULT_255_1_388
10
23.9418103
20
52.7620113
40
0.5032026
50
256.6228565
51
270.5105488
0
ARC
8
DEFAULT_255_1_388
10
23.8965846
20
52.5878345
40
0.3233092
50
215.8618351
51
257.2787793
0
ARC
8
DEFAULT_255_1_388
10
24.0114553
20
52.6649106
40
0.4615831
50
197.9695203
51
215.2622745
0
ARC
8
DEFAULT_255_1_388
10
24.2910229
20
52.7592641
40
0.7566307
50
187.8816486
51
198.2346584
0
ARC
8
DEFAULT_255_1_388
10
24.7363467
20
52.8235453
40
1.2065653
50
180.8977266
51
188.0054894
0
ARC
8
DEFAULT_255_1_388
10
25.0413681
20
52.83504
40
1.5117443
50
180.7434591
51
181.152202
0
ARC
8
DEFAULT_255_1_388
10
24.8738677
20
53.0440371
40
1.3441277
50
173.7674302
51
180.2315596
0
ARC
8
DEFAULT_255_1_388
10
24.3656545
20
53.1014779
40
0.8326847
50
164.3058537
51
173.9000553
0
ARC
8
DEFAULT_255_1_388
10
24.0380546
20
53.1958652
40
0.4917711
50
148.7922028
51
164.5682288
0
ARC
8
DEFAULT_255_1_388
10
23.9311283
20
53.2555457
40
0.3694204
50
144.5883979
51
148.1161588
0
ARC
8
DEFAULT_255_1_388
10
23.8924028
20
53.2825667
40
0.322202
50
101.6440149
51
144.5142619
0
ARC
8
DEFAULT_255_1_388
10
23.940222
20
53.0925337
40
0.5180451
50
89.528284
51
102.5820197
0
ARC
8
DEFAULT_255_1_388
10
23.9491212
20
53.0881376
40
0.5224441
50
77.0437914
51
90.508231
0
ARC
8
DEFAULT_255_1_388
10
23.9943466
20
53.2729272
40
0.3322297
50
48.2777708
51
77.4996087
0
ARC
8
DEFAULT_255_1_388
10
24.0025206
20
53.2874557
40
0.315966
50
36.3141586
51
47.6307332
0
ARC
8
DEFAULT_255_1_388
10
23.9047928
20
53.2216159
40
0.4337313
50
18.2931065
51
35.6770203
0
ARC
8
DEFAULT_255_1_388
10
23.6186769
20
53.1234107
40
0.7362203
50
8.0246996
51
18.5605636
0
ARC
8
DEFAULT_255_1_388
10
23.1503125
20
53.0542432
40
1.2096583
50
1.127539
51
8.1718423
0
ARC
8
DEFAULT_255_1_388
10
22.7854258
20
53.0399374
40
1.5747719
50
0.5432713
51
1.38669
0
ARC
8
DEFAULT_255_1_388
10
22.9911637
20
53.0706163
40
1.2018103
50
359.8092569
51
4.9408001
0
ARC
8
DEFAULT_255_1_388
10
23.4648218
20
53.11289
40
0.7262727
50
4.8364937
51
12.2906017
0
ARC
8
DEFAULT_255_1_388
10
23.7747683
20
53.1819485
40
0.4087324
50
12.0806994
51
23.8171225
0
ARC
8
DEFAULT_255_1_388
10
23.9068079
20
53.2378508
40
0.2653719
50
24.2874621
51
31.3934353
0
ARC
8
DEFAULT_255_1_388
10
23.9658515
20
53.2764822
40
0.1948607
50
30.7407708
51
82.4658033
0
ARC
8
DEFAULT_255_1_388
10
23.9456175
20
53.1771017
40
0.2961198
50
81.1057101
51
90.2187368
0
ARC
8
DEFAULT_255_1_388
10
23.9415987
20
53.2061421
40
0.2670929
50
89.380395
51
105.6763916
0
ARC
8
DEFAULT_255_1_388
10
23.9209709
20
53.281132
40
0.1893189
50
105.7980655
51
149.7387869
0
ARC
8
DEFAULT_255_1_388
10
24.0406849
20
53.2091719
40
0.3289892
50
149.4208441
51
163.628295
0
ARC
8
DEFAULT_255_1_388
10
24.2759079
20
53.1374345
40
0.5749004
50
163.3764549
51
172.141138
0
ARC
8
DEFAULT_255_1_388
10
24.64718
20
53.0842582
40
0.9499585
50
172.0258462
51
178.0705453
0
ARC
8
DEFAULT_255_1_388
10
24.9893353
20
53.0680682
40
1.2924734
50
177.8639301
51
179.5036263
0
ARC
8
DEFAULT_255_1_388
10
24.8674372
20
52.8077151
40
1.170534
50
179.7995545
51
185.246089
0
ARC
8
DEFAULT_255_1_388
10
24.4125965
20
52.7646404
40
0.7136613
50
185.1411911
51
193.0082205
0
ARC
8
DEFAULT_255_1_388
10
24.1152226
20
52.6943441
40
0.4080987
50
192.7897338
51
205.2507384
0
ARC
8
DEFAULT_255_1_388
10
23.9974436
20
52.6417538
40
0.2791522
50
205.8001921
51
211.2545876
0
ARC
8
DEFAULT_255_1_388
10
23.9385975
20
52.6023132
40
0.2084074
50
210.3789935
51
238.4007996
0
ARC
8
DEFAULT_255_1_388
10
23.9364061
20
52.6075786
40
0.2117943
50
239.6521916
51
265.9793852
0
ARC
8
DEFAULT_255_1_388
10
23.945991
20
52.6832358
40
0.2879689
50
265.1324455
51
270.0603288
0
ARC
8
DEFAULT_255_1_388
10
23.9492287
20
52.6467418
40
0.2514919
50
269.3314378
51
287.2180039
0
ARC
8
DEFAULT_255_1_388
10
23.9647369
20
52.5901291
40
0.1928357
50
287.7957942
51
329.0808983
0
ARC
8
DEFAULT_255_1_388
10
23.8570126
20
52.6573651
40
0.319808
50
328.6635261
51
343.3325043
0
ARC
8
DEFAULT_255_1_388
10
23.6125585
20
52.7335195
40
0.5758408
50
343.0498092
51
351.9392499
0
ARC
8
DEFAULT_255_1_388
10
23.2224906
20
52.7910205
40
0.9701202
50
351.8071632
51
357.7957897
0
ARC
8
DEFAULT_255_1_388
10
22.8590383
20
52.8098724
40
1.3340376
50
357.5870923
51
359.2682493
0
LINE
8
DEFAULT_255_1_388
10
21.2075903
20
61.5299898
11
21.2075903
21
60.3562596
0
LINE
8
DEFAULT_255_1_388
10
21.2075903
20
60.3562596
11
21.8310498
21
60.3562596
0
LINE
8
DEFAULT_255_1_388
10
21.8310498
20
60.3562596
11
21.8310498
21
60.2144
0
LINE
8
DEFAULT_255_1_388
10
21.8310498
20
60.2144
11
21.0332024
21
60.2144
0
LINE
8
DEFAULT_255_1_388
10
21.0332024
20
60.2144
11
21.0332024
21
61.5299898
0
LINE
8
DEFAULT_255_1_388
10
21.0332024
20
61.5299898
11
21.2075903
21
61.5299898
0
LINE
8
DEFAULT_255_1_388
10
22.5349265
20
61.5363148
11
22.5349265
21
60.2144
0
LINE
8
DEFAULT_255_1_388
10
22.5349265
20
60.2144
11
22.3668635
21
60.2144
0
LINE
8
DEFAULT_255_1_388
10
22.3668635
20
60.2144
11
22.3668635
21
61.328495
0
LINE
8
DEFAULT_255_1_388
10
22.3668635
20
61.328495
11
22.029834
21
61.2047066
0
LINE
8
DEFAULT_255_1_388
10
22.029834
20
61.2047066
11
22.029834
21
61.3565055
0
LINE
8
DEFAULT_255_1_388
10
22.029834
20
61.3565055
11
22.5087231
21
61.5363148
0
LINE
8
DEFAULT_255_1_388
10
22.5087231
20
61.5363148
11
22.5349265
21
61.5363148
0
LINE
8
DEFAULT_255_1_388
10
23.3896985
20
60.8414737
11
23.3896985
21
60.7050355
0
LINE
8
DEFAULT_255_1_388
10
23.3896985
20
60.7050355
11
22.948759
21
60.7050355
0
LINE
8
DEFAULT_255_1_388
10
22.948759
20
60.7050355
11
22.948759
21
60.8414737
0
LINE
8
DEFAULT_255_1_388
10
22.948759
20
60.8414737
11
23.3896985
21
60.8414737
0
LINE
8
DEFAULT_255_1_388
10
24.3601267
20
60.992369
11
24.3601267
21
60.7755135
0
LINE
8
DEFAULT_255_1_388
10
23.529751
20
60.7529244
11
23.529751
21
60.9761048
0
LINE
8
DEFAULT_255_1_388
10
24.1929673
20
60.7303353
11
24.1929673
21
61.0041153
0
LINE
8
DEFAULT_255_1_388
10
23.6969104
20
61.0167652
11
23.6969104
21
60.7493102
0
ARC
8
DEFAULT_255_1_388
10
22.9823601
20
60.7700118
40
1.3777776
50
353.8440855
51
0.2287917
0
ARC
8
DEFAULT_255_1_388
10
23.5042618
20
60.7117414
40
0.852639
50
344.4934746
51
353.9763743
0
ARC
8
DEFAULT_255_1_388
10
23.8409426
20
60.6160191
40
0.5026273
50
329.2803599
51
344.7473406
0
ARC
8
DEFAULT_255_1_388
10
23.9524921
20
60.5548038
40
0.3754848
50
324.9361395
51
328.6153007
0
ARC
8
DEFAULT_255_1_388
10
23.9950571
20
60.5250586
40
0.3235566
50
280.5801797
51
324.9173226
0
ARC
8
DEFAULT_255_1_388
10
23.94992
20
60.7130236
40
0.5167077
50
269.5979457
51
281.6732777
0
ARC
8
DEFAULT_255_1_388
10
23.9418103
20
60.6995113
40
0.5032026
50
256.6228565
51
270.5105488
0
ARC
8
DEFAULT_255_1_388
10
23.8965846
20
60.5253345
40
0.3233092
50
215.8618351
51
257.2787793
0
ARC
8
DEFAULT_255_1_388
10
24.0114553
20
60.6024106
40
0.4615831
50
197.9695203
51
215.2622745
0
ARC
8
DEFAULT_255_1_388
10
24.2910229
20
60.6967641
40
0.7566307
50
187.8816486
51
198.2346584
0
ARC
8
DEFAULT_255_1_388
10
24.7363467
20
60.7610453
40
1.2065653
50
180.8977266
51
188.0054894
0
ARC
8
DEFAULT_255_1_388
10
25.0413681
20
60.77254
40
1.5117443
50
180.7434591
51
181.152202
0
ARC
8
DEFAULT_255_1_388
10
24.8738677
20
60.9815371
40
1.3441277
50
173.7674302
51
180.2315596
0
ARC
8
DEFAULT_255_1_388
10
24.3656545
20
61.0389779
40
0.8326847
50
164.3058537
51
173.9000553
0
ARC
8
DEFAULT_255_1_388
10
24.0380546
20
61.1333652
40
0.4917711
50
148.7922028
51
164.5682288
0
ARC
8
DEFAULT_255_1_388
10
23.9311283
20
61.1930457
40
0.3694204
50
144.5883979
51
148.1161588
0
ARC
8
DEFAULT_255_1_388
10
23.8924028
20
61.2200667
40
0.322202
50
101.6440149
51
144.5142619
0
ARC
8
DEFAULT_255_1_388
10
23.940222
20
61.0300337
40
0.5180451
50
89.528284
51
102.5820197
0
ARC
8
DEFAULT_255_1_388
10
23.9491212
20
61.0256376
40
0.5224441
50
77.0437914
51
90.508231
0
ARC
8
DEFAULT_255_1_388
10
23.9943466
20
61.2104272
40
0.3322297
50
48.2777708
51
77.4996087
0
ARC
8
DEFAULT_255_1_388
10
24.0025206
20
61.2249557
40
0.315966
50
36.3141586
51
47.6307332
0
ARC
8
DEFAULT_255_1_388
10
23.9047928
20
61.1591159
40
0.4337313
50
18.2931065
51
35.6770203
0
ARC
8
DEFAULT_255_1_388
10
23.6186769
20
61.0609107
40
0.7362203
50
8.0246996
51
18.5605636
0
ARC
8
DEFAULT_255_1_388
10
23.1503125
20
60.9917432
40
1.2096583
50
1.127539
51
8.1718423
0
ARC
8
DEFAULT_255_1_388
10
22.7854258
20
60.9774374
40
1.5747719
50
0.5432713
51
1.38669
0
ARC
8
DEFAULT_255_1_388
10
22.9911637
20
61.0081163
40
1.2018103
50
359.8092569
51
4.9408001
0
ARC
8
DEFAULT_255_1_388
10
23.4648218
20
61.05039
40
0.7262727
50
4.8364937
51
12.2906017
0
ARC
8
DEFAULT_255_1_388
10
23.7747683
20
61.1194485
40
0.4087324
50
12.0806994
51
23.8171225
0
ARC
8
DEFAULT_255_1_388
10
23.9068079
20
61.1753508
40
0.2653719
50
24.2874621
51
31.3934353
0
ARC
8
DEFAULT_255_1_388
10
23.9658515
20
61.2139822
40
0.1948607
50
30.7407708
51
82.4658033
0
ARC
8
DEFAULT_255_1_388
10
23.9456175
20
61.1146017
40
0.2961198
50
81.1057101
51
90.2187368
0
ARC
8
DEFAULT_255_1_388
10
23.9415987
20
61.1436421
40
0.2670929
50
89.380395
51
105.6763916
0
ARC
8
DEFAULT_255_1_388
10
23.9209709
20
61.218632
40
0.1893189
50
105.7980655
51
149.7387869
0
ARC
8
DEFAULT_255_1_388
10
24.0406849
20
61.1466719
40
0.3289892
50
149.4208441
51
163.628295
0
ARC
8
DEFAULT_255_1_388
10
24.2759079
20
61.0749345
40
0.5749004
50
163.3764549
51
172.141138
0
ARC
8
DEFAULT_255_1_388
10
24.64718
20
61.0217582
40
0.9499585
50
172.0258462
51
178.0705453
0
ARC
8
DEFAULT_255_1_388
10
24.9893353
20
61.0055682
40
1.2924734
50
177.8639301
51
179.5036263
0
ARC
8
DEFAULT_255_1_388
10
24.8674372
20
60.7452151
40
1.170534
50
179.7995545
51
185.246089
0
ARC
8
DEFAULT_255_1_388
10
24.4125965
20
60.7021404
40
0.7136613
50
185.1411911
51
193.0082205
0
ARC
8
DEFAULT_255_1_388
10
24.1152226
20
60.6318441
40
0.4080987
50
192.7897338
51
205.2507384
0
ARC
8
DEFAULT_255_1_388
10
23.9974436
20
60.5792538
40
0.2791522
50
205.8001921
51
211.2545876
0
ARC
8
DEFAULT_255_1_388
10
23.9385975
20
60.5398132
40
0.2084074
50
210.3789935
51
238.4007996
0
ARC
8
DEFAULT_255_1_388
10
23.9364061
20
60.5450786
40
0.2117943
50
239.6521916
51
265.9793852
0
ARC
8
DEFAULT_255_1_388
10
23.945991
20
60.6207358
40
0.2879689
50
265.1324455
51
270.0603288
0
ARC
8
DEFAULT_255_1_388
10
23.9492287
20
60.5842418
40
0.2514919
50
269.3314378
51
287.2180039
0
ARC
8
DEFAULT_255_1_388
10
23.9647369
20
60.5276291
40
0.1928357
50
287.7957942
51
329.0808983
0
ARC
8
DEFAULT_255_1_388
10
23.8570126
20
60.5948651
40
0.319808
50
328.6635261
51
343.3325043
0
ARC
8
DEFAULT_255_1_388
10
23.6125585
20
60.6710195
40
0.5758408
50
343.0498092
51
351.9392499
0
ARC
8
DEFAULT_255_1_388
10
23.2224906
20
60.7285205
40
0.9701202
50
351.8071632
51
357.7957897
0
ARC
8
DEFAULT_255_1_388
10
22.8590383
20
60.7473724
40
1.3340376
50
357.5870923
51
359.2682493
0
LINE
8
DEFAULT_255_1_388
10
21.2075903
20
69.4674898
11
21.2075903
21
68.2937596
0
LINE
8
DEFAULT_255_1_388
10
21.2075903
20
68.2937596
11
21.8310498
21
68.2937596
0
LINE
8
DEFAULT_255_1_388
10
21.8310498
20
68.2937596
11
21.8310498
21
68.1519
0
LINE
8
DEFAULT_255_1_388
10
21.8310498
20
68.1519
11
21.0332024
21
68.1519
0
LINE
8
DEFAULT_255_1_388
10
21.0332024
20
68.1519
11
21.0332024
21
69.4674898
0
LINE
8
DEFAULT_255_1_388
10
21.0332024
20
69.4674898
11
21.2075903
21
69.4674898
0
LINE
8
DEFAULT_255_1_388
10
22.5349265
20
69.4738148
11
22.5349265
21
68.1519
0
LINE
8
DEFAULT_255_1_388
10
22.5349265
20
68.1519
11
22.3668635
21
68.1519
0
LINE
8
DEFAULT_255_1_388
10
22.3668635
20
68.1519
11
22.3668635
21
69.265995
0
LINE
8
DEFAULT_255_1_388
10
22.3668635
20
69.265995
11
22.029834
21
69.1422066
0
LINE
8
DEFAULT_255_1_388
10
22.029834
20
69.1422066
11
22.029834
21
69.2940055
0
LINE
8
DEFAULT_255_1_388
10
22.029834
20
69.2940055
11
22.5087231
21
69.4738148
0
LINE
8
DEFAULT_255_1_388
10
22.5087231
20
69.4738148
11
22.5349265
21
69.4738148
0
LINE
8
DEFAULT_255_1_388
10
23.3896985
20
68.7789737
11
23.3896985
21
68.6425355
0
LINE
8
DEFAULT_255_1_388
10
23.3896985
20
68.6425355
11
22.948759
21
68.6425355
0
LINE
8
DEFAULT_255_1_388
10
22.948759
20
68.6425355
11
22.948759
21
68.7789737
0
LINE
8
DEFAULT_255_1_388
10
22.948759
20
68.7789737
11
23.3896985
21
68.7789737
0
LINE
8
DEFAULT_255_1_388
10
24.3601267
20
68.929869
11
24.3601267
21
68.7130135
0
LINE
8
DEFAULT_255_1_388
10
23.529751
20
68.6904244
11
23.529751
21
68.9136048
0
LINE
8
DEFAULT_255_1_388
10
24.1929673
20
68.6678353
11
24.1929673
21
68.9416153
0
LINE
8
DEFAULT_255_1_388
10
23.6969104
20
68.9542652
11
23.6969104
21
68.6868102
0
ARC
8
DEFAULT_255_1_388
10
22.9823601
20
68.7075118
40
1.3777776
50
353.8440855
51
0.2287917
0
ARC
8
DEFAULT_255_1_388
10
23.5042618
20
68.6492414
40
0.852639
50
344.4934746
51
353.9763743
0
ARC
8
DEFAULT_255_1_388
10
23.8409426
20
68.5535191
40
0.5026273
50
329.2803599
51
344.7473406
0
ARC
8
DEFAULT_255_1_388
10
23.9524921
20
68.4923038
40
0.3754848
50
324.9361395
51
328.6153007
0
ARC
8
DEFAULT_255_1_388
10
23.9950571
20
68.4625586
40
0.3235566
50
280.5801797
51
324.9173226
0
ARC
8
DEFAULT_255_1_388
10
23.94992
20
68.6505236
40
0.5167077
50
269.5979457
51
281.6732777
0
ARC
8
DEFAULT_255_1_388
10
23.9418103
20
68.6370113
40
0.5032026
50
256.6228565
51
270.5105488
0
ARC
8
DEFAULT_255_1_388
10
23.8965846
20
68.4628345
40
0.3233092
50
215.8618351
51
257.2787793
0
ARC
8
DEFAULT_255_1_388
10
24.0114553
20
68.5399106
40
0.4615831
50
197.9695203
51
215.2622745
0
ARC
8
DEFAULT_255_1_388
10
24.2910229
20
68.6342641
40
0.7566307
50
187.8816486
51
198.2346584
0
ARC
8
DEFAULT_255_1_388
10
24.7363467
20
68.6985453
40
1.2065653
50
180.8977266
51
188.0054894
0
ARC
8
DEFAULT_255_1_388
10
25.0413681
20
68.71004
40
1.5117443
50
180.7434591
51
181.152202
0
ARC
8
DEFAULT_255_1_388
10
24.8738677
20
68.9190371
40
1.3441277
50
173.7674302
51
180.2315596
0
ARC
8
DEFAULT_255_1_388
10
24.3656545
20
68.9764779
40
0.8326847
50
164.3058537
51
173.9000553
0
ARC
8
DEFAULT_255_1_388
10
24.0380546
20
69.0708652
40
0.4917711
50
148.7922028
51
164.5682288
0
ARC
8
DEFAULT_255_1_388
10
23.9311283
20
69.1305457
40
0.3694204
50
144.5883979
51
148.1161588
0
ARC
8
DEFAULT_255_1_388
10
23.8924028
20
69.1575667
40
0.322202
50
101.6440149
51
144.5142619
0
ARC
8
DEFAULT_255_1_388
10
23.940222
20
68.9675337
40
0.5180451
50
89.528284
51
102.5820197
0
ARC
8
DEFAULT_255_1_388
10
23.9491212
20
68.9631376
40
0.5224441
50
77.0437914
51
90.508231
0
ARC
8
DEFAULT_255_1_388
10
23.9943466
20
69.1479272
40
0.3322297
50
48.2777708
51
77.4996087
0
ARC
8
DEFAULT_255_1_388
10
24.0025206
20
69.1624557
40
0.315966
50
36.3141586
51
47.6307332
0
ARC
8
DEFAULT_255_1_388
10
23.9047928
20
69.0966159
40
0.4337313
50
18.2931065
51
35.6770203
0
ARC
8
DEFAULT_255_1_388
10
23.6186769
20
68.9984107
40
0.7362203
50
8.0246996
51
18.5605636
0
ARC
8
DEFAULT_255_1_388
10
23.1503125
20
68.9292432
40
1.2096583
50
1.127539
51
8.1718423
0
ARC
8
DEFAULT_255_1_388
10
22.7854258
20
68.9149374
40
1.5747719
50
0.5432713
51
1.38669
0
ARC
8
DEFAULT_255_1_388
10
22.9911637
20
68.9456163
40
1.2018103
50
359.8092569
51
4.9408001
0
ARC
8
DEFAULT_255_1_388
10
23.4648218
20
68.98789
40
0.7262727
50
4.8364937
51
12.2906017
0
ARC
8
DEFAULT_255_1_388
10
23.7747683
20
69.0569485
40
0.4087324
50
12.0806994
51
23.8171225
0
ARC
8
DEFAULT_255_1_388
10
23.9068079
20
69.1128508
40
0.2653719
50
24.2874621
51
31.3934353
0
ARC
8
DEFAULT_255_1_388
10
23.9658515
20
69.1514822
40
0.1948607
50
30.7407708
51
82.4658033
0
ARC
8
DEFAULT_255_1_388
10
23.9456175
20
69.0521017
40
0.2961198
50
81.1057101
51
90.2187368
0
ARC
8
DEFAULT_255_1_388
10
23.9415987
20
69.0811421
40
0.2670929
50
89.380395
51
105.6763916
0
ARC
8
DEFAULT_255_1_388
10
23.9209709
20
69.156132
40
0.1893189
50
105.7980655
51
149.7387869
0
ARC
8
DEFAULT_255_1_388
10
24.0406849
20
69.0841719
40
0.3289892
50
149.4208441
51
163.628295
0
ARC
8
DEFAULT_255_1_388
10
24.2759079
20
69.0124345
40
0.5749004
50
163.3764549
51
172.141138
0
ARC
8
DEFAULT_255_1_388
10
24.64718
20
68.9592582
40
0.9499585
50
172.0258462
51
178.0705453
0
ARC
8
DEFAULT_255_1_388
10
24.9893353
20
68.9430682
40
1.2924734
50
177.8639301
51
179.5036263
0
ARC
8
DEFAULT_255_1_388
10
24.8674372
20
68.6827151
40
1.170534
50
179.7995545
51
185.246089
0
ARC
8
DEFAULT_255_1_388
10
24.4125965
20
68.6396404
40
0.7136613
50
185.1411911
51
193.0082205
0
ARC
8
DEFAULT_255_1_388
10
24.1152226
20
68.5693441
40
0.4080987
50
192.7897338
51
205.2507384
0
ARC
8
DEFAULT_255_1_388
10
23.9974436
20
68.5167538
40
0.2791522
50
205.8001921
51
211.2545876
0
ARC
8
DEFAULT_255_1_388
10
23.9385975
20
68.4773132
40
0.2084074
50
210.3789935
51
238.4007996
0
ARC
8
DEFAULT_255_1_388
10
23.9364061
20
68.4825786
40
0.2117943
50
239.6521916
51
265.9793852
0
ARC
8
DEFAULT_255_1_388
10
23.945991
20
68.5582358
40
0.2879689
50
265.1324455
51
270.0603288
0
ARC
8
DEFAULT_255_1_388
10
23.9492287
20
68.5217418
40
0.2514919
50
269.3314378
51
287.2180039
0
ARC
8
DEFAULT_255_1_388
10
23.9647369
20
68.4651291
40
0.1928357
50
287.7957942
51
329.0808983
0
ARC
8
DEFAULT_255_1_388
10
23.8570126
20
68.5323651
40
0.319808
50
328.6635261
51
343.3325043
0
ARC
8
DEFAULT_255_1_388
10
23.6125585
20
68.6085195
40
0.5758408
50
343.0498092
51
351.9392499
0
ARC
8
DEFAULT_255_1_388
10
23.2224906
20
68.6660205
40
0.9701202
50
351.8071632
51
357.7957897
0
ARC
8
DEFAULT_255_1_388
10
22.8590383
20
68.6848724
40
1.3340376
50
357.5870923
51
359.2682493
0
LINE
8
DEFAULT_255_1_388
10
21.2075903
20
77.4049898
11
21.2075903
21
76.2312596
0
LINE
8
DEFAULT_255_1_388
10
21.2075903
20
76.2312596
11
21.8310498
21
76.2312596
0
LINE
8
DEFAULT_255_1_388
10
21.8310498
20
76.2312596
11
21.8310498
21
76.0894
0
LINE
8
DEFAULT_255_1_388
10
21.8310498
20
76.0894
11
21.0332024
21
76.0894
0
LINE
8
DEFAULT_255_1_388
10
21.0332024
20
76.0894
11
21.0332024
21
77.4049898
0
LINE
8
DEFAULT_255_1_388
10
21.0332024
20
77.4049898
11
21.2075903
21
77.4049898
0
LINE
8
DEFAULT_255_1_388
10
22.5349265
20
77.4113148
11
22.5349265
21
76.0894
0
LINE
8
DEFAULT_255_1_388
10
22.5349265
20
76.0894
11
22.3668635
21
76.0894
0
LINE
8
DEFAULT_255_1_388
10
22.3668635
20
76.0894
11
22.3668635
21
77.203495
0
LINE
8
DEFAULT_255_1_388
10
22.3668635
20
77.203495
11
22.029834
21
77.0797066
0
LINE
8
DEFAULT_255_1_388
10
22.029834
20
77.0797066
11
22.029834
21
77.2315055
0
LINE
8
DEFAULT_255_1_388
10
22.029834
20
77.2315055
11
22.5087231
21
77.4113148
0
LINE
8
DEFAULT_255_1_388
10
22.5087231
20
77.4113148
11
22.5349265
21
77.4113148
0
LINE
8
DEFAULT_255_1_388
10
23.3896985
20
76.7164737
11
23.3896985
21
76.5800355
0
LINE
8
DEFAULT_255_1_388
10
23.3896985
20
76.5800355
11
22.948759
21
76.5800355
0
LINE
8
DEFAULT_255_1_388
10
22.948759
20
76.5800355
11
22.948759
21
76.7164737
0
LINE
8
DEFAULT_255_1_388
10
22.948759
20
76.7164737
11
23.3896985
21
76.7164737
0
LINE
8
DEFAULT_255_1_388
10
24.3601267
20
76.867369
11
24.3601267
21
76.6505135
0
LINE
8
DEFAULT_255_1_388
10
23.529751
20
76.6279244
11
23.529751
21
76.8511048
0
LINE
8
DEFAULT_255_1_388
10
24.1929673
20
76.6053353
11
24.1929673
21
76.8791153
0
LINE
8
DEFAULT_255_1_388
10
23.6969104
20
76.8917652
11
23.6969104
21
76.6243102
0
ARC
8
DEFAULT_255_1_388
10
22.9823601
20
76.6450118
40
1.3777776
50
353.8440855
51
0.2287917
0
ARC
8
DEFAULT_255_1_388
10
23.5042618
20
76.5867414
40
0.852639
50
344.4934746
51
353.9763743
0
ARC
8
DEFAULT_255_1_388
10
23.8409426
20
76.4910191
40
0.5026273
50
329.2803599
51
344.7473406
0
ARC
8
DEFAULT_255_1_388
10
23.9524921
20
76.4298038
40
0.3754848
50
324.9361395
51
328.6153007
0
ARC
8
DEFAULT_255_1_388
10
23.9950571
20
76.4000586
40
0.3235566
50
280.5801797
51
324.9173226
0
ARC
8
DEFAULT_255_1_388
10
23.94992
20
76.5880236
40
0.5167077
50
269.5979457
51
281.6732777
0
ARC
8
DEFAULT_255_1_388
10
23.9418103
20
76.5745113
40
0.5032026
50
256.6228565
51
270.5105488
0
ARC
8
DEFAULT_255_1_388
10
23.8965846
20
76.4003345
40
0.3233092
50
215.8618351
51
257.2787793
0
ARC
8
DEFAULT_255_1_388
10
24.0114553
20
76.4774106
40
0.4615831
50
197.9695203
51
215.2622745
0
ARC
8
DEFAULT_255_1_388
10
24.2910229
20
76.5717641
40
0.7566307
50
187.8816486
51
198.2346584
0
ARC
8
DEFAULT_255_1_388
10
24.7363467
20
76.6360453
40
1.2065653
50
180.8977266
51
188.0054894
0
ARC
8
DEFAULT_255_1_388
10
25.0413681
20
76.64754
40
1.5117443
50
180.7434591
51
181.152202
0
ARC
8
DEFAULT_255_1_388
10
24.8738677
20
76.8565371
40
1.3441277
50
173.7674302
51
180.2315596
0
ARC
8
DEFAULT_255_1_388
10
24.3656545
20
76.9139779
40
0.8326847
50
164.3058537
51
173.9000553
0
ARC
8
DEFAULT_255_1_388
10
24.0380546
20
77.0083652
40
0.4917711
50
148.7922028
51
164.5682288
0
ARC
8
DEFAULT_255_1_388
10
23.9311283
20
77.0680457
40
0.3694204
50
144.5883979
51
148.1161588
0
ARC
8
DEFAULT_255_1_388
10
23.8924028
20
77.0950667
40
0.322202
50
101.6440149
51
144.5142619
0
ARC
8
DEFAULT_255_1_388
10
23.940222
20
76.9050337
40
0.5180451
50
89.528284
51
102.5820197
0
ARC
8
DEFAULT_255_1_388
10
23.9491212
20
76.9006376
40
0.5224441
50
77.0437914
51
90.508231
0
ARC
8
DEFAULT_255_1_388
10
23.9943466
20
77.0854272
40
0.3322297
50
48.2777708
51
77.4996087
0
ARC
8
DEFAULT_255_1_388
10
24.0025206
20
77.0999557
40
0.315966
50
36.3141586
51
47.6307332
0
ARC
8
DEFAULT_255_1_388
10
23.9047928
20
77.0341159
40
0.4337313
50
18.2931065
51
35.6770203
0
ARC
8
DEFAULT_255_1_388
10
23.6186769
20
76.9359107
40
0.7362203
50
8.0246996
51
18.5605636
0
ARC
8
DEFAULT_255_1_388
10
23.1503125
20
76.8667432
40
1.2096583
50
1.127539
51
8.1718423
0
ARC
8
DEFAULT_255_1_388
10
22.7854258
20
76.8524374
40
1.5747719
50
0.5432713
51
1.38669
0
ARC
8
DEFAULT_255_1_388
10
22.9911637
20
76.8831163
40
1.2018103
50
359.8092569
51
4.9408001
0
ARC
8
DEFAULT_255_1_388
10
23.4648218
20
76.92539
40
0.7262727
50
4.8364937
51
12.2906017
0
ARC
8
DEFAULT_255_1_388
10
23.7747683
20
76.9944485
40
0.4087324
50
12.0806994
51
23.8171225
0
ARC
8
DEFAULT_255_1_388
10
23.9068079
20
77.0503508
40
0.2653719
50
24.2874621
51
31.3934353
0
ARC
8
DEFAULT_255_1_388
10
23.9658515
20
77.0889822
40
0.1948607
50
30.7407708
51
82.4658033
0
ARC
8
DEFAULT_255_1_388
10
23.9456175
20
76.9896017
40
0.2961198
50
81.1057101
51
90.2187368
0
ARC
8
DEFAULT_255_1_388
10
23.9415987
20
77.0186421
40
0.2670929
50
89.380395
51
105.6763916
0
ARC
8
DEFAULT_255_1_388
10
23.9209709
20
77.093632
40
0.1893189
50
105.7980655
51
149.7387869
0
ARC
8
DEFAULT_255_1_388
10
24.0406849
20
77.0216719
40
0.3289892
50
149.4208441
51
163.628295
0
ARC
8
DEFAULT_255_1_388
10
24.2759079
20
76.9499345
40
0.5749004
50
163.3764549
51
172.141138
0
ARC
8
DEFAULT_255_1_388
10
24.64718
20
76.8967582
40
0.9499585
50
172.0258462
51
178.0705453
0
ARC
8
DEFAULT_255_1_388
10
24.9893353
20
76.8805682
40
1.2924734
50
177.8639301
51
179.5036263
0
ARC
8
DEFAULT_255_1_388
10
24.8674372
20
76.6202151
40
1.170534
50
179.7995545
51
185.246089
0
ARC
8
DEFAULT_255_1_388
10
24.4125965
20
76.5771404
40
0.7136613
50
185.1411911
51
193.0082205
0
ARC
8
DEFAULT_255_1_388
10
24.1152226
20
76.5068441
40
0.4080987
50
192.7897338
51
205.2507384
0
ARC
8
DEFAULT_255_1_388
10
23.9974436
20
76.4542538
40
0.2791522
50
205.8001921
51
211.2545876
0
ARC
8
DEFAULT_255_1_388
10
23.9385975
20
76.4148132
40
0.2084074
50
210.3789935
51
238.4007996
0
ARC
8
DEFAULT_255_1_388
10
23.9364061
20
76.4200786
40
0.2117943
50
239.6521916
51
265.9793852
0
ARC
8
DEFAULT_255_1_388
10
23.945991
20
76.4957358
40
0.2879689
50
265.1324455
51
270.0603288
0
ARC
8
DEFAULT_255_1_388
10
23.9492287
20
76.4592418
40
0.2514919
50
269.3314378
51
287.2180039
0
ARC
8
DEFAULT_255_1_388
10
23.9647369
20
76.4026291
40
0.1928357
50
287.7957942
51
329.0808983
0
ARC
8
DEFAULT_255_1_388
10
23.8570126
20
76.4698651
40
0.319808
50
328.6635261
51
343.3325043
0
ARC
8
DEFAULT_255_1_388
10
23.6125585
20
76.5460195
40
0.5758408
50
343.0498092
51
351.9392499
0
ARC
8
DEFAULT_255_1_388
10
23.2224906
20
76.6035205
40
0.9701202
50
351.8071632
51
357.7957897
0
ARC
8
DEFAULT_255_1_388
10
22.8590383
20
76.6223724
40
1.3340376
50
357.5870923
51
359.2682493
0
ENDSEC
0
EOF