0
SECTION
2
HEADER
9
$MEASUREMENT
70
1
0
ENDSEC
0
SECTION
2
TABLES
0
TABLE
2
LTYPE
0
LTYPE
72
65
70
64
2
CONTINUOUS
3
______
73
0
40
0
0
ENDTAB
0
TABLE
2
LAYER
0
LAYER
2
DEFAULT_255_2_778
70
0
62
255
6
CONTINUOUS
0
LAYER
2
DEFAULT_255_1_388
70
0
62
255
6
CONTINUOUS
0
ENDTAB
0
ENDSEC
0
SECTION
2
ENTITIES
0
ARC
8
DEFAULT_255_2_778
10
3.5700693
20
139.3052021
40
0.7914215
50
129.1312896
51
180.1450914
0
ARC
8
DEFAULT_255_2_778
10
3.5703345
20
139.3056893
40
0.7912112
50
89.854026
51
129.1684493
0
ARC
8
DEFAULT_255_2_778
10
25.7993937
20
139.3053758
40
0.7915249
50
39.4792447
51
90.147911
0
ARC
8
DEFAULT_255_2_778
10
25.7999935
20
139.3052224
40
0.7911595
50
359.8533901
51
39.5154338
0
ARC
8
DEFAULT_255_2_778
10
25.7996693
20
-1.9863501
40
0.7914836
50
309.4761667
51
0.1482649
0
ARC
8
DEFAULT_255_2_778
10
25.799398
20
-1.9867812
40
0.7913235
50
269.8517415
51
309.511178
0
ARC
8
DEFAULT_255_2_778
10
3.570342
20
-1.986723
40
0.7913815
50
219.1282118
51
270.1454017
0
ARC
8
DEFAULT_255_2_778
10
3.5700247
20
-1.9863406
40
0.7913769
50
179.8524075
51
219.1641908
0
LINE
8
DEFAULT_255_2_778
10
3.5723503
20
140.096898
11
25.7973503
21
140.096898
0
LINE
8
DEFAULT_255_2_778
10
26.5911503
20
139.303198
11
26.5911503
21
-1.984302
0
LINE
8
DEFAULT_255_2_778
10
25.7973503
20
-2.778102
11
3.5723503
21
-2.778102
0
LINE
8
DEFAULT_255_2_778
10
2.7786503
20
-1.984302
11
2.7786503
21
139.303198
0
LINE
8
DEFAULT_255_1_388
10
10.1359985
20
0.6821148
11
10.1359985
21
-0.6398
0
LINE
8
DEFAULT_255_1_388
10
10.1359985
20
-0.6398
11
9.9679355
21
-0.6398
0
LINE
8
DEFAULT_255_1_388
10
9.9679355
20
-0.6398
11
9.9679355
21
0.474295
0
LINE
8
DEFAULT_255_1_388
10
9.9679355
20
0.474295
11
9.630906
21
0.3505066
0
LINE
8
DEFAULT_255_1_388
10
9.630906
20
0.3505066
11
9.630906
21
0.5023055
0
LINE
8
DEFAULT_255_1_388
10
9.630906
20
0.5023055
11
10.1097951
21
0.6821148
0
LINE
8
DEFAULT_255_1_388
10
10.1097951
20
0.6821148
11
10.1359985
21
0.6821148
0
LINE
8
DEFAULT_255_1_388
10
11.475081
20
0.6757898
11
11.475081
21
0.5818191
0
LINE
8
DEFAULT_255_1_388
10
11.475081
20
0.5818191
11
10.9302316
21
-0.6398
0
LINE
8
DEFAULT_255_1_388
10
10.9302316
20
-0.6398
11
10.7549401
21
-0.6398
0
LINE
8
DEFAULT_255_1_388
10
10.7549401
20
-0.6398
11
11.2979824
21
0.538448
0
LINE
8
DEFAULT_255_1_388
10
11.2979824
20
0.538448
11
10.5859736
21
0.538448
0
LINE
8
DEFAULT_255_1_388
10
10.5859736
20
0.538448
11
10.5859736
21
0.6757898
0
LINE
8
DEFAULT_255_1_388
10
10.5859736
20
0.6757898
11
11.475081
21
0.6757898
0
LINE
8
DEFAULT_255_1_388
10
11.8753601
20
-0.0145334
11
11.7416325
21
0.0198021
0
LINE
8
DEFAULT_255_1_388
10
11.7416325
20
0.0198021
11
11.8084963
21
0.6757898
0
LINE
8
DEFAULT_255_1_388
10
11.8084963
20
0.6757898
11
12.4825554
21
0.6757898
0
LINE
8
DEFAULT_255_1_388
10
12.4825554
20
0.6757898
11
12.4825554
21
0.5212803
0
LINE
8
DEFAULT_255_1_388
10
12.4825554
20
0.5212803
11
11.9503559
21
0.5212803
0
LINE
8
DEFAULT_255_1_388
10
11.9503559
20
0.5212803
11
11.9105991
21
0.1625652
0
LINE
8
DEFAULT_255_1_388
10
11.6946472
20
-0.2937348
11
11.8527709
21
-0.2937348
0
LINE
8
DEFAULT_255_1_388
10
11.9196347
20
0.0216092
11
11.8753601
21
-0.0145334
0
ARC
8
DEFAULT_255_1_388
10
12.1192604
20
-0.1951759
40
0.4141476
50
93.7181681
51
120.253934
0
ARC
8
DEFAULT_255_1_388
10
12.1298656
20
-0.2860716
40
0.5055616
50
89.9660471
51
94.2495185
0
ARC
8
DEFAULT_255_1_388
10
12.1344478
20
-0.2197846
40
0.4392953
50
73.8045384
51
90.5585736
0
ARC
8
DEFAULT_255_1_388
10
12.1608736
20
-0.123248
40
0.3392225
50
41.3071072
51
73.543002
0
ARC
8
DEFAULT_255_1_388
10
12.1140556
20
-0.1635539
40
0.4009977
50
13.5075837
51
41.2174839
0
ARC
8
DEFAULT_255_1_388
10
11.9293653
20
-0.2119093
40
0.5918864
50
1.1330171
51
13.8830737
0
ARC
8
DEFAULT_255_1_388
10
11.7697299
20
-0.2204478
40
0.7516787
50
359.9925091
51
1.5431298
0
ARC
8
DEFAULT_255_1_388
10
11.9141914
20
-0.2250973
40
0.6072343
50
347.8572712
51
0.4294349
0
ARC
8
DEFAULT_255_1_388
10
12.1111049
20
-0.2697102
40
0.4053482
50
323.6727442
51
348.1674594
0
ARC
8
DEFAULT_255_1_388
10
12.1442013
20
-0.2898825
40
0.3667495
50
316.8171818
51
323.1486802
0
ARC
8
DEFAULT_255_1_388
10
12.1511137
20
-0.2940388
40
0.358869
50
281.839603
51
316.5458142
0
ARC
8
DEFAULT_255_1_388
10
12.1088425
20
-0.1190637
40
0.5388223
50
269.5770964
51
282.4214641
0
ARC
8
DEFAULT_255_1_388
10
12.1008345
20
-0.143107
40
0.5147801
50
256.2425863
51
270.4486481
0
ARC
8
DEFAULT_255_1_388
10
12.0671873
20
-0.2780876
40
0.3756708
50
228.9024379
51
256.33135
0
ARC
8
DEFAULT_255_1_388
10
12.0588853
20
-0.2911946
40
0.360344
50
193.7536029
51
228.5272638
0
ARC
8
DEFAULT_255_1_388
10
12.1981418
20
-0.2503537
40
0.5053599
50
184.9244437
51
194.4976052
0
ARC
8
DEFAULT_255_1_388
10
12.219806
20
-0.2463278
40
0.3700839
50
187.3596909
51
198.6733728
0
ARC
8
DEFAULT_255_1_388
10
12.1017303
20
-0.2872627
40
0.2451195
50
198.4453795
51
217.7945479
0
ARC
8
DEFAULT_255_1_388
10
12.0684476
20
-0.3108437
40
0.2043754
50
218.2887146
51
228.5613203
0
ARC
8
DEFAULT_255_1_388
10
12.0794482
20
-0.2960098
40
0.2227819
50
228.9652423
51
258.1237049
0
ARC
8
DEFAULT_255_1_388
10
12.102592
20
-0.1969036
40
0.3245374
50
257.7260585
51
270.4013717
0
ARC
8
DEFAULT_255_1_388
10
12.1076418
20
-0.2469745
40
0.2744726
50
269.4204315
51
286.420998
0
ARC
8
DEFAULT_255_1_388
10
12.1243474
20
-0.3076295
40
0.2115721
50
286.7250065
51
320.6004665
0
ARC
8
DEFAULT_255_1_388
10
12.0812389
20
-0.2726473
40
0.2670878
50
320.6712228
51
344.5440474
0
ARC
8
DEFAULT_255_1_388
10
11.9511103
20
-0.2344606
40
0.4026927
50
344.241448
51
356.735803
0
ARC
8
DEFAULT_255_1_388
10
11.810741
20
-0.2228344
40
0.5435085
50
356.3547471
51
0.0507222
0
ARC
8
DEFAULT_255_1_388
10
11.9609675
20
-0.2193188
40
0.3932934
50
359.5579289
51
12.9534322
0
ARC
8
DEFAULT_255_1_388
10
12.0796515
20
-0.1905414
40
0.2711827
50
12.6489751
51
41.608121
0
ARC
8
DEFAULT_255_1_388
10
12.1055675
20
-0.1685054
40
0.2371737
50
41.7851122
51
85.9892156
0
ARC
8
DEFAULT_255_1_388
10
12.0916985
20
-0.2600262
40
0.3295244
50
84.6965848
51
90.0672125
0
ARC
8
DEFAULT_255_1_388
10
12.0890553
20
-0.3351882
40
0.4046926
50
89.6804991
51
99.161352
0
ARC
8
DEFAULT_255_1_388
10
12.0659562
20
-0.1971152
40
0.2647044
50
98.9836248
51
113.8905702
0
ARC
8
DEFAULT_255_1_388
10
12.0401237
20
-0.1361882
40
0.1985386
50
114.195234
51
127.3641866
0
LINE
8
DEFAULT_255_1_388
10
13.3300988
20
0.6766934
11
13.3599165
21
0.6766934
0
LINE
8
DEFAULT_255_1_388
10
13.3599165
20
0.6766934
11
13.3599165
21
0.5348338
0
LINE
8
DEFAULT_255_1_388
10
13.3599165
20
0.5348338
11
13.3291953
21
0.5348338
0
LINE
8
DEFAULT_255_1_388
10
12.7138679
20
-0.1392253
11
12.7138679
21
-0.0750722
0
LINE
8
DEFAULT_255_1_388
10
12.8819309
20
-0.0967578
11
12.8819309
21
-0.1582001
0
ARC
8
DEFAULT_255_1_388
10
13.3350844
20
-0.0274174
40
0.562282
50
90.6001079
51
104.5146616
0
ARC
8
DEFAULT_255_1_388
10
13.2913804
20
0.13511
40
0.3939917
50
104.2855758
51
133.8630124
0
ARC
8
DEFAULT_255_1_388
10
13.3098056
20
0.1229243
40
0.4155734
50
134.5304124
51
161.6210222
0
ARC
8
DEFAULT_255_1_388
10
13.4957989
20
0.0573421
40
0.6127682
50
161.2850533
51
174.2074364
0
ARC
8
DEFAULT_255_1_388
10
13.6547555
20
0.0354437
40
0.7731446
50
173.7817938
51
174.9251711
0
ARC
8
DEFAULT_255_1_388
10
13.1421749
20
-0.120073
40
0.3412588
50
95.8332067
51
138.995412
0
ARC
8
DEFAULT_255_1_388
10
13.1673029
20
-0.2639305
40
0.4870358
50
89.8755506
51
97.0540979
0
ARC
8
DEFAULT_255_1_388
10
13.1726418
20
-0.1699159
40
0.3930432
50
71.6407016
51
90.6240821
0
ARC
8
DEFAULT_255_1_388
10
13.1895812
20
-0.1075567
40
0.3285421
50
39.6368051
51
71.0190743
0
ARC
8
DEFAULT_255_1_388
10
13.1179719
20
-0.1694414
40
0.4231706
50
10.6588054
51
39.9044509
0
ARC
8
DEFAULT_255_1_388
10
12.9438265
20
-0.2072777
40
0.60133
50
359.6827842
51
11.1326896
0
ARC
8
DEFAULT_255_1_388
10
12.9393601
20
-0.2152285
40
0.6058047
50
347.2485908
51
0.4371098
0
ARC
8
DEFAULT_255_1_388
10
13.1269386
20
-0.2603621
40
0.4128987
50
318.1408565
51
347.6118497
0
ARC
8
DEFAULT_255_1_388
10
13.1634983
20
-0.2904097
40
0.3656244
50
275.6342406
51
317.824739
0
ARC
8
DEFAULT_255_1_388
10
13.1386504
20
-0.1442173
40
0.513655
50
269.8872513
51
276.7916069
0
ARC
8
DEFAULT_255_1_388
10
13.1324697
20
-0.2595819
40
0.398323
50
246.9139443
51
270.7436787
0
ARC
8
DEFAULT_255_1_388
10
13.1331893
20
-0.2755956
40
0.3839368
50
218.1665534
51
245.8780431
0
ARC
8
DEFAULT_255_1_388
10
13.2321265
20
-0.1928097
40
0.5128958
50
191.4115343
51
218.6077624
0
ARC
8
DEFAULT_255_1_388
10
13.4501581
20
-0.1439223
40
0.7363054
50
179.6344971
51
191.7836758
0
ARC
8
DEFAULT_255_1_388
10
14.0781455
20
-0.0675505
40
1.3642984
50
171.4523743
51
180.3158856
0
ARC
8
DEFAULT_255_1_388
10
13.5837182
20
0.0093895
40
0.8639311
50
157.9802296
51
171.6246761
0
ARC
8
DEFAULT_255_1_388
10
13.3346533
20
0.1087038
40
0.5958004
50
141.4299236
51
157.8541251
0
ARC
8
DEFAULT_255_1_388
10
13.2624616
20
0.1597746
40
0.5075416
50
102.871586
51
140.8564533
0
ARC
8
DEFAULT_255_1_388
10
13.3353169
20
-0.1147057
40
0.7914163
50
90.377773
51
103.5868422
0
ARC
8
DEFAULT_255_1_388
10
13.139769
20
-0.1827457
40
0.2667015
50
89.8751238
51
126.2072139
0
ARC
8
DEFAULT_255_1_388
10
13.1449161
20
-0.2001153
40
0.2838229
50
124.9742447
51
144.8960197
0
ARC
8
DEFAULT_255_1_388
10
13.1251406
20
-0.1840019
40
0.2583845
50
145.2974778
51
160.2660922
0
ARC
8
DEFAULT_255_1_388
10
13.4707895
20
-0.1617849
40
0.5888695
50
179.6512124
51
190.285571
0
ARC
8
DEFAULT_255_1_388
10
13.2802374
20
-0.1977032
40
0.3949683
50
190.0944895
51
207.5099647
0
ARC
8
DEFAULT_255_1_388
10
13.2165956
20
-0.2279823
40
0.3245464
50
207.9585471
51
216.325377
0
ARC
8
DEFAULT_255_1_388
10
13.1783593
20
-0.2594288
40
0.2751259
50
215.7661336
51
232.5457193
0
ARC
8
DEFAULT_255_1_388
10
13.1352709
20
-0.3141727
40
0.2054668
50
232.8005815
51
270.6605497
0
ARC
8
DEFAULT_255_1_388
10
13.1404133
20
-0.2732147
40
0.2464268
50
269.3550767
51
288.474612
0
ARC
8
DEFAULT_255_1_388
10
13.150864
20
-0.3125279
40
0.2058436
50
289.1831976
51
322.9685307
0
ARC
8
DEFAULT_255_1_388
10
13.0820742
20
-0.2582721
40
0.2934408
50
322.6007085
51
346.5183319
0
ARC
8
DEFAULT_255_1_388
10
12.9518498
20
-0.2250566
40
0.4278249
50
346.2584622
51
358.7739592
0
ARC
8
DEFAULT_255_1_388
10
12.8367073
20
-0.2188171
40
0.5430876
50
358.3757628
51
0.0082477
0
ARC
8
DEFAULT_255_1_388
10
12.9223892
20
-0.2157144
40
0.4574157
50
359.6211417
51
11.28403
0
ARC
8
DEFAULT_255_1_388
10
13.0660498
20
-0.1857465
40
0.3106708
50
11.0483152
51
31.8145585
0
ARC
8
DEFAULT_255_1_388
10
13.1008203
20
-0.1668955
40
0.2711963
50
32.3028554
51
38.0820598
0
ARC
8
DEFAULT_255_1_388
10
13.1481436
20
-0.1240283
40
0.2075566
50
36.8249851
51
85.741667
0
ARC
8
DEFAULT_255_1_388
10
13.1405849
20
-0.1803935
40
0.2643487
50
85.0150021
51
90.050843
0
LINE
8
DEFAULT_255_1_388
10
14.1080678
20
-0.0127263
11
14.1080678
21
-0.1491645
0
LINE
8
DEFAULT_255_1_388
10
14.1080678
20
-0.1491645
11
13.6671284
21
-0.1491645
0
LINE
8
DEFAULT_255_1_388
10
13.6671284
20
-0.1491645
11
13.6671284
21
-0.0127263
0
LINE
8
DEFAULT_255_1_388
10
13.6671284
20
-0.0127263
11
14.1080678
21
-0.0127263
0
LINE
8
DEFAULT_255_1_388
10
14.4830471
20
0.6757898
11
14.4830471
21
-0.6398
0
LINE
8
DEFAULT_255_1_388
10
14.4830471
20
-0.6398
11
14.3095627
21
-0.6398
0
LINE
8
DEFAULT_255_1_388
10
14.3095627
20
-0.6398
11
14.3095627
21
0.6757898
0
LINE
8
DEFAULT_255_1_388
10
14.3095627
20
0.6757898
11
14.4830471
21
0.6757898
0
LINE
8
DEFAULT_255_1_388
10
14.8001982
20
0.6757898
11
15.0242822
21
0.6757898
0
LINE
8
DEFAULT_255_1_388
10
15.0242822
20
0.6757898
11
15.4543789
21
-0.3976447
0
LINE
8
DEFAULT_255_1_388
10
15.4543789
20
-0.3976447
11
15.8844755
21
0.6757898
0
LINE
8
DEFAULT_255_1_388
10
15.8844755
20
0.6757898
11
16.1094631
21
0.6757898
0
LINE
8
DEFAULT_255_1_388
10
16.1094631
20
0.6757898
11
16.1094631
21
-0.6398
0
LINE
8
DEFAULT_255_1_388
10
16.1094631
20
-0.6398
11
15.9359787
21
-0.6398
0
LINE
8
DEFAULT_255_1_388
10
15.9359787
20
-0.6398
11
15.9359787
21
-0.127479
0
LINE
8
DEFAULT_255_1_388
10
15.9359787
20
-0.127479
11
15.9522429
21
0.4255025
0
LINE
8
DEFAULT_255_1_388
10
15.9522429
20
0.4255025
11
15.5203391
21
-0.6398
0
LINE
8
DEFAULT_255_1_388
10
15.5203391
20
-0.6398
11
15.3875151
21
-0.6398
0
LINE
8
DEFAULT_255_1_388
10
15.3875151
20
-0.6398
11
14.9565148
21
0.4227918
0
LINE
8
DEFAULT_255_1_388
10
14.9565148
20
0.4227918
11
14.9736826
21
-0.127479
0
LINE
8
DEFAULT_255_1_388
10
14.9736826
20
-0.127479
11
14.9736826
21
-0.6398
0
LINE
8
DEFAULT_255_1_388
10
14.9736826
20
-0.6398
11
14.8001982
21
-0.6398
0
LINE
8
DEFAULT_255_1_388
10
14.8001982
20
-0.6398
11
14.8001982
21
0.6757898
0
LINE
8
DEFAULT_255_1_388
10
16.9217675
20
0.6821148
11
16.9217675
21
-0.6398
0
LINE
8
DEFAULT_255_1_388
10
16.9217675
20
-0.6398
11
16.7537045
21
-0.6398
0
LINE
8
DEFAULT_255_1_388
10
16.7537045
20
-0.6398
11
16.7537045
21
0.474295
0
LINE
8
DEFAULT_255_1_388
10
16.7537045
20
0.474295
11
16.416675
21
0.3505066
0
LINE
8
DEFAULT_255_1_388
10
16.416675
20
0.3505066
11
16.416675
21
0.5023055
0
LINE
8
DEFAULT_255_1_388
10
16.416675
20
0.5023055
11
16.8955642
21
0.6821148
0
LINE
8
DEFAULT_255_1_388
10
16.8955642
20
0.6821148
11
16.9217675
21
0.6821148
0
LINE
8
DEFAULT_255_1_388
10
18.0376696
20
0.6766934
11
18.0674873
21
0.6766934
0
LINE
8
DEFAULT_255_1_388
10
18.0674873
20
0.6766934
11
18.0674873
21
0.5348338
0
LINE
8
DEFAULT_255_1_388
10
18.0674873
20
0.5348338
11
18.0367661
21
0.5348338
0
LINE
8
DEFAULT_255_1_388
10
17.4214387
20
-0.1392253
11
17.4214387
21
-0.0750722
0
LINE
8
DEFAULT_255_1_388
10
17.5895017
20
-0.0967578
11
17.5895017
21
-0.1582001
0
ARC
8
DEFAULT_255_1_388
10
18.0426552
20
-0.0274174
40
0.562282
50
90.6001079
51
104.5146616
0
ARC
8
DEFAULT_255_1_388
10
17.9989512
20
0.13511
40
0.3939917
50
104.2855758
51
133.8630124
0
ARC
8
DEFAULT_255_1_388
10
18.0173764
20
0.1229243
40
0.4155734
50
134.5304124
51
161.6210222
0
ARC
8
DEFAULT_255_1_388
10
18.2033697
20
0.0573421
40
0.6127682
50
161.2850533
51
174.2074364
0
ARC
8
DEFAULT_255_1_388
10
18.3623263
20
0.0354437
40
0.7731446
50
173.7817938
51
174.9251711
0
ARC
8
DEFAULT_255_1_388
10
17.8497457
20
-0.120073
40
0.3412588
50
95.8332067
51
138.995412
0
ARC
8
DEFAULT_255_1_388
10
17.8748737
20
-0.2639305
40
0.4870358
50
89.8755506
51
97.0540979
0
ARC
8
DEFAULT_255_1_388
10
17.8802126
20
-0.1699159
40
0.3930432
50
71.6407016
51
90.6240821
0
ARC
8
DEFAULT_255_1_388
10
17.897152
20
-0.1075567
40
0.3285421
50
39.6368051
51
71.0190743
0
ARC
8
DEFAULT_255_1_388
10
17.8255427
20
-0.1694414
40
0.4231706
50
10.6588054
51
39.9044509
0
ARC
8
DEFAULT_255_1_388
10
17.6513973
20
-0.2072777
40
0.60133
50
359.6827842
51
11.1326896
0
ARC
8
DEFAULT_255_1_388
10
17.6469309
20
-0.2152285
40
0.6058047
50
347.2485908
51
0.4371098
0
ARC
8
DEFAULT_255_1_388
10
17.8345094
20
-0.2603621
40
0.4128987
50
318.1408565
51
347.6118497
0
ARC
8
DEFAULT_255_1_388
10
17.8710691
20
-0.2904097
40
0.3656244
50
275.6342406
51
317.824739
0
ARC
8
DEFAULT_255_1_388
10
17.8462212
20
-0.1442173
40
0.513655
50
269.8872513
51
276.7916069
0
ARC
8
DEFAULT_255_1_388
10
17.8400405
20
-0.2595819
40
0.398323
50
246.9139443
51
270.7436787
0
ARC
8
DEFAULT_255_1_388
10
17.8407601
20
-0.2755956
40
0.3839368
50
218.1665534
51
245.8780431
0
ARC
8
DEFAULT_255_1_388
10
17.9396973
20
-0.1928097
40
0.5128958
50
191.4115343
51
218.6077624
0
ARC
8
DEFAULT_255_1_388
10
18.1577289
20
-0.1439223
40
0.7363054
50
179.6344971
51
191.7836758
0
ARC
8
DEFAULT_255_1_388
10
18.7857163
20
-0.0675505
40
1.3642984
50
171.4523743
51
180.3158856
0
ARC
8
DEFAULT_255_1_388
10
18.291289
20
0.0093895
40
0.8639311
50
157.9802296
51
171.6246761
0
ARC
8
DEFAULT_255_1_388
10
18.0422241
20
0.1087038
40
0.5958004
50
141.4299236
51
157.8541251
0
ARC
8
DEFAULT_255_1_388
10
17.9700324
20
0.1597746
40
0.5075416
50
102.871586
51
140.8564533
0
ARC
8
DEFAULT_255_1_388
10
18.0428877
20
-0.1147057
40
0.7914163
50
90.377773
51
103.5868422
0
ARC
8
DEFAULT_255_1_388
10
17.8473398
20
-0.1827457
40
0.2667015
50
89.8751238
51
126.2072139
0
ARC
8
DEFAULT_255_1_388
10
17.8524869
20
-0.2001153
40
0.2838229
50
124.9742447
51
144.8960197
0
ARC
8
DEFAULT_255_1_388
10
17.8327114
20
-0.1840019
40
0.2583845
50
145.2974778
51
160.2660922
0
ARC
8
DEFAULT_255_1_388
10
18.1783603
20
-0.1617849
40
0.5888695
50
179.6512124
51
190.285571
0
ARC
8
DEFAULT_255_1_388
10
17.9878082
20
-0.1977032
40
0.3949683
50
190.0944895
51
207.5099647
0
ARC
8
DEFAULT_255_1_388
10
17.9241664
20
-0.2279823
40
0.3245464
50
207.9585471
51
216.325377
0
ARC
8
DEFAULT_255_1_388
10
17.8859301
20
-0.2594288
40
0.2751259
50
215.7661336
51
232.5457193
0
ARC
8
DEFAULT_255_1_388
10
17.8428417
20
-0.3141727
40
0.2054668
50
232.8005815
51
270.6605497
0
ARC
8
DEFAULT_255_1_388
10
17.8479841
20
-0.2732147
40
0.2464268
50
269.3550767
51
288.474612
0
ARC
8
DEFAULT_255_1_388
10
17.8584348
20
-0.3125279
40
0.2058436
50
289.1831976
51
322.9685307
0
ARC
8
DEFAULT_255_1_388
10
17.789645
20
-0.2582721
40
0.2934408
50
322.6007085
51
346.5183319
0
ARC
8
DEFAULT_255_1_388
10
17.6594206
20
-0.2250566
40
0.4278249
50
346.2584622
51
358.7739592
0
ARC
8
DEFAULT_255_1_388
10
17.5442781
20
-0.2188171
40
0.5430876
50
358.3757628
51
0.0082477
0
ARC
8
DEFAULT_255_1_388
10
17.62996
20
-0.2157144
40
0.4574157
50
359.6211417
51
11.28403
0
ARC
8
DEFAULT_255_1_388
10
17.7736206
20
-0.1857465
40
0.3106708
50
11.0483152
51
31.8145585
0
ARC
8
DEFAULT_255_1_388
10
17.8083911
20
-0.1668955
40
0.2711963
50
32.3028554
51
38.0820598
0
ARC
8
DEFAULT_255_1_388
10
17.8557144
20
-0.1240283
40
0.2075566
50
36.8249851
51
85.741667
0
ARC
8
DEFAULT_255_1_388
10
17.8481557
20
-0.1803935
40
0.2643487
50
85.0150021
51
90.050843
0
LINE
8
DEFAULT_255_1_388
10
18.680104
20
0.6757898
11
18.680104
21
-0.6398
0
LINE
8
DEFAULT_255_1_388
10
18.680104
20
-0.6398
11
18.5066196
21
-0.6398
0
LINE
8
DEFAULT_255_1_388
10
18.5066196
20
-0.6398
11
18.5066196
21
0.6757898
0
LINE
8
DEFAULT_255_1_388
10
18.5066196
20
0.6757898
11
18.680104
21
0.6757898
0
LINE
8
DEFAULT_255_2_778
10
11.0359937
20
136.3056535
11
10.9838937
21
136.6429535
0
LINE
8
DEFAULT_255_2_778
10
10.9838937
20
136.6429535
11
10.4068937
21
136.6429535
0
LINE
8
DEFAULT_255_2_778
10
10.4068937
20
136.6429535
11
10.2364937
21
136.3056535
0
LINE
8
DEFAULT_255_2_778
10
10.2364937
20
136.3056535
11
9.8694937
21
136.3056535
0
LINE
8
DEFAULT_255_2_778
10
9.8694937
20
136.3056535
11
10.7531937
21
137.9431535
0
LINE
8
DEFAULT_255_2_778
10
10.7531937
20
137.9431535
11
11.0608937
21
137.9431535
0
LINE
8
DEFAULT_255_2_778
10
11.0608937
20
137.9431535
11
11.3754937
21
136.3056535
0
LINE
8
DEFAULT_255_2_778
10
11.3754937
20
136.3056535
11
11.0357937
21
136.3056535
0
LINE
8
DEFAULT_255_2_778
10
11.0357937
20
136.3056535
11
11.0359937
21
136.3056535
0
LINE
8
DEFAULT_255_2_778
10
10.8486937
20
137.5259535
11
10.5430937
21
136.9163535
0
LINE
8
DEFAULT_255_2_778
10
10.5430937
20
136.9163535
11
10.9418937
21
136.9163535
0
LINE
8
DEFAULT_255_2_778
10
10.9418937
20
136.9163535
11
10.8486937
21
137.5259535
0
LINE
8
DEFAULT_255_2_778
10
10.8486937
20
137.5259535
11
10.8486937
21
137.5259535
0
LINE
8
DEFAULT_255_2_778
10
12.1615563
20
138.0331644
11
11.8593563
21
136.3054644
0
LINE
8
DEFAULT_255_2_778
10
11.8593563
20
136.3054644
11
11.5368563
21
136.3054644
0
LINE
8
DEFAULT_255_2_778
10
11.5368563
20
136.3054644
11
11.8400563
21
138.0331644
0
LINE
8
DEFAULT_255_2_778
10
11.8400563
20
138.0331644
11
12.1615563
21
138.0331644
0
LINE
8
DEFAULT_255_2_778
10
12.1615563
20
138.0331644
11
12.1615563
21
138.0331644
0
LINE
8
DEFAULT_255_2_778
10
12.7717604
20
138.0331644
11
12.4695604
21
136.3054644
0
LINE
8
DEFAULT_255_2_778
10
12.4695604
20
136.3054644
11
12.1470604
21
136.3054644
0
LINE
8
DEFAULT_255_2_778
10
12.1470604
20
136.3054644
11
12.4502604
21
138.0331644
0
LINE
8
DEFAULT_255_2_778
10
12.4502604
20
138.0331644
11
12.7717604
21
138.0331644
0
LINE
8
DEFAULT_255_2_778
10
12.7717604
20
138.0331644
11
12.7717604
21
138.0331644
0
ARC
8
DEFAULT_255_2_778
10
13.3179366
20
136.8207557
40
0.5378315
50
238.7482666
51
270.7109536
0
ARC
8
DEFAULT_255_2_778
10
13.286767
20
136.7659526
40
0.4748131
50
204.061185
51
238.5328679
0
ARC
8
DEFAULT_255_2_778
10
13.3692148
20
136.8054989
40
0.5662261
50
179.4927176
51
204.3136716
0
ARC
8
DEFAULT_255_2_778
10
13.4925723
20
136.8100081
40
0.6895616
50
175.1202382
51
179.9581224
0
ARC
8
DEFAULT_255_2_778
10
13.5850524
20
136.8450158
40
0.7790728
50
149.5392097
51
174.9446897
0
ARC
8
DEFAULT_255_2_778
10
13.4591885
20
136.9285218
40
0.628301
50
120.7003982
51
150.2846053
0
ARC
8
DEFAULT_255_2_778
10
13.4196896
20
136.988203
40
0.556829
50
89.4236852
51
120.3409826
0
ARC
8
DEFAULT_255_2_778
10
13.4252397
20
136.8894677
40
0.6555361
50
88.4553682
51
89.9955718
0
ARC
8
DEFAULT_255_2_778
10
13.4483886
20
137.0751672
40
0.4696303
50
58.00918
51
90.668398
0
ARC
8
DEFAULT_255_2_778
10
13.4737532
20
137.1362657
40
0.4045188
50
35.6383534
51
56.4712999
0
ARC
8
DEFAULT_255_2_778
10
13.3641928
20
137.0632064
40
0.5361477
50
0.6851965
51
35.1616077
0
ARC
8
DEFAULT_255_2_778
10
13.1616358
20
137.0428235
40
0.7391521
50
359.9888194
51
2.0774415
0
ARC
8
DEFAULT_255_2_778
10
13.048007
20
137.0445254
40
0.852783
50
353.383538
51
359.8759623
0
ARC
8
DEFAULT_255_2_778
10
13.5342255
20
136.7921125
40
0.4107176
50
177.8018731
51
179.9839782
0
ARC
8
DEFAULT_255_2_778
10
13.3756263
20
136.7806245
40
0.2523852
50
177.3650374
51
219.8309448
0
ARC
8
DEFAULT_255_2_778
10
13.3462113
20
136.7673407
40
0.2214564
50
222.0668323
51
271.55222
0
ARC
8
DEFAULT_255_2_778
10
13.3632047
20
136.9721295
40
0.4263057
50
268.5221572
51
269.9980687
0
ARC
8
DEFAULT_255_2_778
10
13.3616046
20
136.9425223
40
0.3967017
50
270.2290309
51
318.5203973
0
ARC
8
DEFAULT_255_2_778
10
13.4309183
20
136.7593042
40
0.4555793
50
292.5203086
51
325.2867508
0
ARC
8
DEFAULT_255_2_778
10
13.3411537
20
136.93853
40
0.6556743
50
269.6199197
51
293.7677355
0
ARC
8
DEFAULT_255_2_778
10
13.3368073
20
137.0247435
40
0.7418734
50
269.0811318
51
269.9997688
0
ARC
8
DEFAULT_255_2_778
10
13.4205293
20
137.017693
40
0.2651471
50
88.6426469
51
89.9972013
0
ARC
8
DEFAULT_255_2_778
10
13.4187438
20
137.0526027
40
0.2302444
50
89.5524386
51
130.4678957
0
ARC
8
DEFAULT_255_2_778
10
13.5177956
20
136.9527558
40
0.3706419
50
132.099436
51
154.4479603
0
ARC
8
DEFAULT_255_2_778
10
13.9202814
20
136.7346955
40
0.8281414
50
152.8476017
51
159.2006434
0
ARC
8
DEFAULT_255_2_778
10
13.2837195
20
137.1062274
40
0.3137404
50
351.1327381
51
359.8552777
0
ARC
8
DEFAULT_255_2_778
10
13.3301789
20
137.105828
40
0.2672803
50
359.9157472
51
8.073482
0
ARC
8
DEFAULT_255_2_778
10
13.4328771
20
137.1211282
40
0.1634528
50
7.8192239
51
49.4174523
0
ARC
8
DEFAULT_255_2_778
10
13.4309381
20
137.1079383
40
0.174876
50
51.746929
51
91.3525911
0
LINE
8
DEFAULT_255_2_778
10
12.8055101
20
136.8686656
11
12.8090101
21
136.9136656
0
LINE
8
DEFAULT_255_2_778
10
13.8951101
20
136.9462656
11
13.8768101
21
136.8078656
0
LINE
8
DEFAULT_255_2_778
10
13.8768101
20
136.8078656
11
13.1238101
21
136.8078656
0
LINE
8
DEFAULT_255_2_778
10
13.6588101
20
136.6797656
11
13.8054101
21
136.4998656
0
LINE
8
DEFAULT_255_2_778
10
13.3249101
20
136.2829656
11
13.3246101
21
136.2829656
0
LINE
8
DEFAULT_255_2_778
10
13.1461101
20
137.0287656
11
13.5868101
21
137.0287656
0
LINE
8
DEFAULT_255_2_778
10
13.5868101
20
137.0287656
11
13.5937101
21
137.0578656
0
LINE
8
DEFAULT_255_2_778
10
13.4268101
20
137.2827656
11
13.4268101
21
137.2827656
0
ARC
8
DEFAULT_255_2_778
10
14.7973639
20
137.1013777
40
0.4439397
50
89.8554796
51
141.1589213
0
ARC
8
DEFAULT_255_2_778
10
14.7984623
20
137.0404424
40
0.5048737
50
88.7717605
51
89.9975792
0
ARC
8
DEFAULT_255_2_778
10
14.8177986
20
137.2293063
40
0.3160085
50
50.4886222
51
91.5439082
0
ARC
8
DEFAULT_255_2_778
10
14.8336497
20
137.2633324
40
0.279831
50
33.8736836
51
48.5596173
0
ARC
8
DEFAULT_255_2_778
10
14.7319901
20
137.2048281
40
0.3969262
50
4.3932888
51
32.7062485
0
ARC
8
DEFAULT_255_2_778
10
14.4819116
20
137.1694295
40
0.6491822
50
359.8769204
51
5.8177478
0
ARC
8
DEFAULT_255_2_778
10
14.2701855
20
137.1703875
40
0.8609097
50
353.9399056
51
359.8434284
0
ARC
8
DEFAULT_255_2_778
10
14.4164098
20
137.1360961
40
0.3954956
50
352.2407688
51
359.7520116
0
ARC
8
DEFAULT_255_2_778
10
14.5202048
20
137.1349035
40
0.2916973
50
359.8980094
51
5.448398
0
ARC
8
DEFAULT_255_2_778
10
14.6814587
20
137.1520859
40
0.129553
50
4.6550554
51
97.2610773
0
ARC
8
DEFAULT_255_2_778
10
14.6560011
20
137.0263525
40
0.2544097
50
87.9539208
51
89.9945997
0
ARC
8
DEFAULT_255_2_778
10
14.6629498
20
137.0107662
40
0.2700847
50
91.4691634
51
141.078713
0
ARC
8
DEFAULT_255_2_778
10
14.7966427
20
136.8689295
40
0.4639576
50
137.8219849
51
140.394746
0
ARC
8
DEFAULT_255_2_778
10
16.9661212
20
136.9157104
40
1.026426
50
77.5141066
51
90.4821212
0
ARC
8
DEFAULT_255_2_778
10
17.0845849
20
137.4249605
40
0.5036389
50
52.814306
51
78.1469212
0
ARC
8
DEFAULT_255_2_778
10
17.1732296
20
137.5532432
40
0.3479303
50
357.5432245
51
51.6759047
0
ARC
8
DEFAULT_255_2_778
10
16.9814664
20
137.5386932
40
0.5393738
50
356.248244
51
359.9613012
0
ARC
8
DEFAULT_255_2_778
10
17.1280971
20
137.5260876
40
0.3922439
50
295.0867564
51
356.6841236
0
ARC
8
DEFAULT_255_2_778
10
16.9599205
20
137.7888273
40
0.7026958
50
292.6018649
51
298.4245718
0
ARC
8
DEFAULT_255_2_778
10
17.1412886
20
136.8761744
40
0.2784307
50
29.5992916
51
71.4243751
0
ARC
8
DEFAULT_255_2_778
10
17.068627
20
136.8339722
40
0.3624559
50
358.8250622
51
29.7265593
0
ARC
8
DEFAULT_255_2_778
10
16.9320761
20
136.8268256
40
0.4989307
50
356.3312443
51
359.9671937
0
ARC
8
DEFAULT_255_2_778
10
16.9581976
20
136.8080381
40
0.4719696
50
307.6792206
51
358.4048608
0
ARC
8
DEFAULT_255_2_778
10
16.8807091
20
136.9289022
40
0.6151191
50
279.1036857
51
306.5102495
0
ARC
8
DEFAULT_255_2_778
10
16.7960556
20
137.3515064
40
1.0459276
50
269.6345468
51
280.0197549
0
ARC
8
DEFAULT_255_2_778
10
16.8094263
20
136.9160302
40
0.3407431
50
267.9747348
51
304.6141501
0
ARC
8
DEFAULT_255_2_778
10
16.8659337
20
136.8300866
40
0.2379242
50
305.1715522
51
352.2494421
0
ARC
8
DEFAULT_255_2_778
10
16.7753078
20
136.8505754
40
0.3305841
50
350.8489355
51
359.6877324
0
ARC
8
DEFAULT_255_2_778
10
16.9353204
20
136.8562556
40
0.1707306
50
357.4883473
51
35.7479989
0
ARC
8
DEFAULT_255_2_778
10
16.9423523
20
136.8421957
40
0.1739313
50
40.8670445
51
88.9145542
0
ARC
8
DEFAULT_255_2_778
10
16.9113408
20
136.6569786
40
0.360752
50
84.5431107
51
87.5464559
0
ARC
8
DEFAULT_255_2_778
10
16.8864574
20
137.6290682
40
0.3741259
50
268.9933192
51
299.9063201
0
ARC
8
DEFAULT_255_2_778
10
16.9296486
20
137.5362432
40
0.2722705
50
301.7671328
51
305.0688299
0
ARC
8
DEFAULT_255_2_778
10
16.9572454
20
137.5001457
40
0.2268776
50
304.6024496
51
352.3134516
0
ARC
8
DEFAULT_255_2_778
10
16.9035259
20
137.5108316
40
0.2815642
50
351.6205962
51
359.745937
0
ARC
8
DEFAULT_255_2_778
10
17.0391826
20
137.5169078
40
0.1460884
50
357.1260689
51
87.9509322
0
ARC
8
DEFAULT_255_2_778
10
16.9733217
20
137.2375672
40
0.4312349
50
80.5121161
51
90.1776895
0
ARC
8
DEFAULT_255_2_778
10
18.3042143
20
136.5642998
40
0.664871
50
79.3415907
51
88.7012121
0
ARC
8
DEFAULT_255_2_778
10
18.3079734
20
136.7991833
40
0.4299655
50
88.4925657
51
89.9946723
0
ARC
8
DEFAULT_255_2_778
10
18.2982489
20
136.9192602
40
0.3100425
50
88.1952228
51
143.885382
0
ARC
8
DEFAULT_255_2_778
10
18.4077856
20
137.1642123
40
0.3980768
50
117.0828142
51
147.9763761
0
ARC
8
DEFAULT_255_2_778
10
18.3544798
20
137.2475289
40
0.2997784
50
89.5977622
51
115.2613452
0
ARC
8
DEFAULT_255_2_778
10
18.3464672
20
137.0753476
40
0.4720608
50
75.0830674
51
88.7719532
0
ARC
8
DEFAULT_255_2_778
10
19.3903609
20
136.3931136
40
0.3055376
50
178.9459886
51
196.683202
0
ARC
8
DEFAULT_255_2_778
10
19.5598443
20
136.3985581
40
0.4749693
50
177.9317115
51
179.9787783
0
ARC
8
DEFAULT_255_2_778
10
18.7787767
20
136.7022749
40
0.4195364
50
270.5424502
51
316.9155886
0
ARC
8
DEFAULT_255_2_778
10
18.7827754
20
136.7129303
40
0.4301731
50
268.5225954
51
269.9964357
0
ARC
8
DEFAULT_255_2_778
10
18.7647268
20
136.6610246
40
0.3781887
50
226.455184
51
271.0541416
0
ARC
8
DEFAULT_255_2_778
10
18.7161212
20
136.6156863
40
0.311866
50
179.0506747
51
227.1894377
0
ARC
8
DEFAULT_255_2_778
10
18.7977057
20
136.6207677
40
0.3934079
50
177.4603384
51
179.9875271
0
ARC
8
DEFAULT_255_2_778
10
18.7677273
20
136.6367887
40
0.3630457
50
122.3464314
51
179.7772632
0
ARC
8
DEFAULT_255_2_778
10
18.9127985
20
136.4096944
40
0.6325207
50
98.6998081
51
122.4421258
0
ARC
8
DEFAULT_255_2_778
10
18.9976189
20
135.9553288
40
1.0945926
50
89.6406316
51
99.4911935
0
ARC
8
DEFAULT_255_2_778
10
18.9114251
20
137.1699554
40
0.2635833
50
349.2520325
51
359.7979352
0
ARC
8
DEFAULT_255_2_778
10
18.9485947
20
137.169183
40
0.2264121
50
359.9602232
51
5.7075699
0
ARC
8
DEFAULT_255_2_778
10
19.0522609
20
137.1835903
40
0.1218935
50
3.8147671
51
48.088014
0
ARC
8
DEFAULT_255_2_778
10
19.046106
20
137.1659023
40
0.1393558
50
51.0640414
51
91.6537281
0
ARC
8
DEFAULT_255_2_778
10
19.0343915
20
137.031785
40
0.2735232
50
88.3883484
51
89.9950272
0
ARC
8
DEFAULT_255_2_778
10
19.0289523
20
137.109699
40
0.1956856
50
88.4002709
51
125.6558116
0
ARC
8
DEFAULT_255_2_778
10
19.0229528
20
137.1279861
40
0.1774238
50
127.5242925
51
170.6536699
0
ARC
8
DEFAULT_255_2_778
10
18.8791361
20
137.1415339
40
0.3530361
50
122.7052892
51
177.7003103
0
ARC
8
DEFAULT_255_2_778
10
19.0302031
20
136.9367038
40
0.6072396
50
91.7146868
51
124.2570002
0
ARC
8
DEFAULT_255_2_778
10
19.0589351
20
136.6798059
40
0.865138
50
89.9735854
51
93.1077226
0
ARC
8
DEFAULT_255_2_778
10
19.0592989
20
136.6232554
40
0.9216883
50
89.4414218
51
89.9978259
0
ARC
8
DEFAULT_255_2_778
10
19.0704765
20
137.0247063
40
0.5201984
50
63.6868659
51
90.2414521
0
ARC
8
DEFAULT_255_2_778
10
19.1244722
20
137.1526244
40
0.3816898
50
44.805062
51
62.4405121
0
ARC
8
DEFAULT_255_2_778
10
19.1511985
20
137.1768951
40
0.3456276
50
358.4368244
51
45.0725574
0
ARC
8
DEFAULT_255_2_778
10
18.9988502
20
137.1682086
40
0.4978477
50
354.0151208
51
359.9146153
0
ARC
8
DEFAULT_255_2_778
10
19.9163891
20
136.4459
40
0.5223437
50
178.2666392
51
179.9853875
0
ARC
8
DEFAULT_255_2_778
10
19.7189775
20
136.4380629
40
0.3250299
50
178.5948625
51
200.018038
0
ARC
8
DEFAULT_255_2_778
10
18.86078
20
136.8269829
40
0.2979407
50
268.1351457
51
269.9967975
0
ARC
8
DEFAULT_255_2_778
10
18.8555194
20
136.8244803
40
0.2954847
50
271.0168715
51
323.4470831
0
ARC
8
DEFAULT_255_2_778
10
19.0184895
20
136.4648375
40
0.3950717
50
89.6091673
51
115.9612033
0
ARC
8
DEFAULT_255_2_778
10
18.9565919
20
136.6063987
40
0.2407817
50
117.464938
51
142.4931944
0
ARC
8
DEFAULT_255_2_778
10
18.9147945
20
136.6429757
40
0.1853888
50
143.595728
51
174.110017
0
ARC
8
DEFAULT_255_2_778
10
18.8922762
20
136.6374239
40
0.1637466
50
171.368069
51
179.7835889
0
ARC
8
DEFAULT_255_2_778
10
18.8267258
20
136.6343082
40
0.098266
50
177.8221965
51
224.0379617
0
ARC
8
DEFAULT_255_2_778
10
18.8464627
20
136.6593511
40
0.1299333
50
225.9269812
51
272.0384171
0
ARC
8
DEFAULT_255_2_778
10
20.2168963
20
137.1943016
40
0.3516987
50
37.8288211
51
89.9204906
0
ARC
8
DEFAULT_255_2_778
10
20.03468
20
136.7042412
40
0.4267183
50
285.291584
51
321.0175046
0
ARC
8
DEFAULT_255_2_778
10
20.057072
20
136.6580219
40
0.3763475
50
269.8450062
51
283.8588709
0
ARC
8
DEFAULT_255_2_778
10
20.0560638
20
136.690728
40
0.4090522
50
268.5880369
51
269.9986183
0
ARC
8
DEFAULT_255_2_778
10
20.0420356
20
136.6375481
40
0.3557701
50
236.3475668
51
270.6359501
0
ARC
8
DEFAULT_255_2_778
10
20.0598192
20
136.6490315
40
0.3752788
50
201.8435891
51
235.058908
0
ARC
8
DEFAULT_255_2_778
10
20.3322262
20
136.7680866
40
0.6724873
50
181.1917384
51
202.6233367
0
ARC
8
DEFAULT_255_2_778
10
20.6256166
20
136.8006747
40
0.9668546
50
180.0152485
51
182.7610867
0
ARC
8
DEFAULT_255_2_778
10
20.5386208
20
136.8013246
40
0.8798592
50
174.1240635
51
180.0590752
0
ARC
8
DEFAULT_255_2_778
10
20.6346089
20
136.8146463
40
0.9727968
50
152.6606942
51
172.4775279
0
ARC
8
DEFAULT_255_2_778
10
20.4685426
20
136.8891263
40
0.7911386
50
151.1967159
51
151.9287309
0
ARC
8
DEFAULT_255_2_778
10
20.2724467
20
137.0131651
40
0.559722
50
125.8155177
51
152.6517649
0
ARC
8
DEFAULT_255_2_778
10
20.1926915
20
137.1076783
40
0.4365104
50
121.2895022
51
124.5859333
0
ARC
8
DEFAULT_255_2_778
10
20.2005225
20
137.0933249
40
0.4528439
50
89.3885498
51
121.1930117
0
ARC
8
DEFAULT_255_2_778
10
20.2053201
20
137.0115487
40
0.5345942
50
88.6747242
51
89.9962477
0
ARC
8
DEFAULT_255_2_778
10
21.0391911
20
136.773565
40
1.0611693
50
173.6245819
51
179.5659998
0
ARC
8
DEFAULT_255_2_778
10
20.5670945
20
136.7806401
40
0.5890432
50
179.9063318
51
183.2252116
0
ARC
8
DEFAULT_255_2_778
10
20.2705391
20
136.7521485
40
0.2915917
50
180.9134286
51
207.6247443
0
ARC
8
DEFAULT_255_2_778
10
20.1350101
20
136.6877876
40
0.1417894
50
209.9763709
51
272.172214
0
ARC
8
DEFAULT_255_2_778
10
20.1512133
20
136.8115377
40
0.2656585
50
267.6638236
51
269.9934853
0
ARC
8
DEFAULT_255_2_778
10
20.145272
20
136.8153956
40
0.2695812
50
271.2564257
51
323.4819236
0
ARC
8
DEFAULT_255_2_778
10
20.0042494
20
136.9542419
40
0.4663623
50
320.0808185
51
322.7722781
0
ARC
8
DEFAULT_255_2_778
10
20.2906006
20
137.1005932
40
0.1811681
50
17.7085133
51
91.4917236
0
ARC
8
DEFAULT_255_2_778
10
20.2776517
20
136.9998296
40
0.2819906
50
88.3270304
51
89.9962875
0
ARC
8
DEFAULT_255_2_778
10
20.275189
20
137.047988
40
0.2338453
50
89.3920923
51
141.8934507
0
ARC
8
DEFAULT_255_2_778
10
20.4150423
20
136.9383718
40
0.411538
50
141.9009784
51
164.0634131
0
ARC
8
DEFAULT_255_2_778
10
20.9401665
20
136.7706379
40
0.9626867
50
163.0454941
51
172.7936709
0
LINE
8
DEFAULT_255_2_778
10
14.1790844
20
137.5227
11
14.4788844
21
137.5238
0
LINE
8
DEFAULT_255_2_778
10
14.4788844
20
137.5238
11
14.4515844
21
137.3798
0
LINE
8
DEFAULT_255_2_778
10
15.1262844
20
137.0795
11
14.9968844
21
136.3056
0
LINE
8
DEFAULT_255_2_778
10
14.9968844
20
136.3056
11
14.6764844
21
136.3056
0
LINE
8
DEFAULT_255_2_778
10
14.6764844
20
136.3056
11
14.8082844
21
137.0827
0
LINE
8
DEFAULT_255_2_778
10
14.4391844
20
137.1647
11
14.2856844
21
136.3054
0
LINE
8
DEFAULT_255_2_778
10
14.2856844
20
136.3054
11
13.9652844
21
136.3054
0
LINE
8
DEFAULT_255_2_778
10
13.9652844
20
136.3054
11
14.1787844
21
137.5225
0
LINE
8
DEFAULT_255_2_778
10
14.1787844
20
137.5225
11
14.1790844
21
137.5227
0
LINE
8
DEFAULT_255_2_778
10
16.0157844
20
137.1378
11
15.9691844
21
136.8758
0
LINE
8
DEFAULT_255_2_778
10
15.9691844
20
136.8758
11
15.3466844
21
136.8758
0
LINE
8
DEFAULT_255_2_778
10
15.3466844
20
136.8758
11
15.3921844
21
137.1378
0
LINE
8
DEFAULT_255_2_778
10
15.3921844
20
137.1378
11
16.0157844
21
137.1378
0
LINE
8
DEFAULT_255_2_778
10
16.0157844
20
137.1378
11
16.0157844
21
137.1378
0
LINE
8
DEFAULT_255_2_778
10
16.7893844
20
136.3056
11
16.1544844
21
136.3056
0
LINE
8
DEFAULT_255_2_778
10
16.1544844
20
136.3056
11
16.4417844
21
137.9431
0
LINE
8
DEFAULT_255_2_778
10
16.4417844
20
137.9431
11
16.9574844
21
137.9421
0
LINE
8
DEFAULT_255_2_778
10
16.7893844
20
136.3056
11
16.7893844
21
136.3056
0
LINE
8
DEFAULT_255_2_778
10
16.9267844
20
137.0176
11
16.6131844
21
137.0187
0
LINE
8
DEFAULT_255_2_778
10
16.6131844
20
137.0187
11
16.5348844
21
136.5766
0
LINE
8
DEFAULT_255_2_778
10
16.5348844
20
136.5766
11
16.7973844
21
136.5755
0
LINE
8
DEFAULT_255_2_778
10
16.9267844
20
137.0174
11
16.9267844
21
137.0176
0
LINE
8
DEFAULT_255_2_778
10
16.7266844
20
137.6701
11
16.6539844
21
137.2573
0
LINE
8
DEFAULT_255_2_778
10
16.6539844
20
137.2573
11
16.8798844
21
137.255
0
LINE
8
DEFAULT_255_2_778
10
16.9719844
20
137.6688
11
16.7266844
21
137.6698
0
LINE
8
DEFAULT_255_2_778
10
16.7266844
20
137.6698
11
16.7266844
21
137.6701
0
LINE
8
DEFAULT_255_2_778
10
18.4681844
20
137.5315
11
18.4271844
21
137.2177
0
LINE
8
DEFAULT_255_2_778
10
18.0477844
20
137.102
11
17.9056844
21
136.3056
0
LINE
8
DEFAULT_255_2_778
10
17.9056844
20
136.3056
11
17.5852844
21
136.3056
0
LINE
8
DEFAULT_255_2_778
10
17.5852844
20
136.3056
11
17.7987844
21
137.5227
0
LINE
8
DEFAULT_255_2_778
10
17.7987844
20
137.5227
11
18.0998844
21
137.5238
0
LINE
8
DEFAULT_255_2_778
10
18.0998844
20
137.5238
11
18.0702844
21
137.3753
0
LINE
8
DEFAULT_255_2_778
10
18.4679844
20
137.5315
11
18.4681844
21
137.5315
0
LINE
8
DEFAULT_255_2_778
10
19.4122844
20
136.3054
11
19.0976844
21
136.3054
0
LINE
8
DEFAULT_255_2_778
10
19.0044844
20
137.0499
11
19.1545844
21
137.0478
0
LINE
8
DEFAULT_255_2_778
10
19.1545844
20
137.0478
11
19.1703844
21
137.1208
0
LINE
8
DEFAULT_255_2_778
10
18.8478844
20
137.1568
11
18.5263844
21
137.1557
0
LINE
8
DEFAULT_255_2_778
10
19.4939844
20
137.1163
11
19.3997844
21
136.5337
0
LINE
8
DEFAULT_255_2_778
10
19.3997844
20
136.5337
11
19.3942844
21
136.4617
0
LINE
8
DEFAULT_255_2_778
10
19.4135844
20
136.3268
11
19.4124844
21
136.3054
0
LINE
8
DEFAULT_255_2_778
10
19.4124844
20
136.3054
11
19.4122844
21
136.3054
0
LINE
8
DEFAULT_255_2_778
10
19.0928844
20
136.6485
11
19.1325844
21
136.8589
0
LINE
8
DEFAULT_255_2_778
10
19.1325844
20
136.8589
11
19.0211844
21
136.8599
0
LINE
8
DEFAULT_255_2_778
10
18.8510844
20
136.5295
11
18.8510844
21
136.5292
0
LINE
8
DEFAULT_255_2_778
10
20.4946844
20
137.41
11
20.6150844
21
138.0331
0
LINE
8
DEFAULT_255_2_778
10
20.6150844
20
138.0331
11
20.9364844
21
138.0331
0
LINE
8
DEFAULT_255_2_778
10
20.9364844
20
138.0331
11
20.6343844
21
136.3054
0
LINE
8
DEFAULT_255_2_778
10
20.6343844
20
136.3054
11
20.3480844
21
136.3054
0
LINE
8
DEFAULT_255_2_778
10
20.3480844
20
136.3054
11
20.3663844
21
136.4358
0
LINE
8
DEFAULT_255_2_778
10
19.6633844
20
136.8914
11
19.6701844
21
136.942
0
LINE
8
DEFAULT_255_2_778
10
20.2176844
20
137.546
11
20.2173844
21
137.546
0
LINE
8
DEFAULT_255_2_778
10
20.3755844
20
136.6721
11
20.4631844
21
137.1557
0
LINE
8
DEFAULT_255_2_778
10
19.9850844
20
136.8914
11
19.9845844
21
136.8914
0
LINE
8
DEFAULT_255_2_778
10
21.5304644
20
138.0331644
11
21.2282644
21
136.3054644
0
LINE
8
DEFAULT_255_2_778
10
21.2282644
20
136.3054644
11
20.9057644
21
136.3054644
0
LINE
8
DEFAULT_255_2_778
10
20.9057644
20
136.3054644
11
21.2089644
21
138.0331644
0
LINE
8
DEFAULT_255_2_778
10
21.2089644
20
138.0331644
11
21.5304644
21
138.0331644
0
LINE
8
DEFAULT_255_2_778
10
21.5304644
20
138.0331644
11
21.5304644
21
138.0331644
0
ARC
8
DEFAULT_255_2_778
10
22.0767366
20
136.8207557
40
0.5378315
50
238.7482666
51
270.7109536
0
ARC
8
DEFAULT_255_2_778
10
22.045567
20
136.7659526
40
0.4748131
50
204.061185
51
238.5328679
0
ARC
8
DEFAULT_255_2_778
10
22.1280148
20
136.8054989
40
0.5662261
50
179.4927176
51
204.3136716
0
ARC
8
DEFAULT_255_2_778
10
22.2513723
20
136.8100081
40
0.6895616
50
175.1202382
51
179.9581224
0
ARC
8
DEFAULT_255_2_778
10
22.3438524
20
136.8450158
40
0.7790728
50
149.5392097
51
174.9446897
0
ARC
8
DEFAULT_255_2_778
10
22.2179885
20
136.9285218
40
0.628301
50
120.7003982
51
150.2846053
0
ARC
8
DEFAULT_255_2_778
10
22.1784896
20
136.988203
40
0.556829
50
89.4236852
51
120.3409826
0
ARC
8
DEFAULT_255_2_778
10
22.1840397
20
136.8894677
40
0.6555361
50
88.4553682
51
89.9955718
0
ARC
8
DEFAULT_255_2_778
10
22.2071886
20
137.0751672
40
0.4696303
50
58.00918
51
90.668398
0
ARC
8
DEFAULT_255_2_778
10
22.2325532
20
137.1362657
40
0.4045188
50
35.6383534
51
56.4712999
0
ARC
8
DEFAULT_255_2_778
10
22.1229928
20
137.0632064
40
0.5361477
50
0.6851965
51
35.1616077
0
ARC
8
DEFAULT_255_2_778
10
21.9204358
20
137.0428235
40
0.7391521
50
359.9888194
51
2.0774415
0
ARC
8
DEFAULT_255_2_778
10
21.806807
20
137.0445254
40
0.852783
50
353.383538
51
359.8759623
0
ARC
8
DEFAULT_255_2_778
10
22.2930255
20
136.7921125
40
0.4107176
50
177.8018731
51
179.9839782
0
ARC
8
DEFAULT_255_2_778
10
22.1344263
20
136.7806245
40
0.2523852
50
177.3650374
51
219.8309448
0
ARC
8
DEFAULT_255_2_778
10
22.1050113
20
136.7673407
40
0.2214564
50
222.0668323
51
271.55222
0
ARC
8
DEFAULT_255_2_778
10
22.1220047
20
136.9721295
40
0.4263057
50
268.5221572
51
269.9980687
0
ARC
8
DEFAULT_255_2_778
10
22.1204046
20
136.9425223
40
0.3967017
50
270.2290309
51
318.5203973
0
ARC
8
DEFAULT_255_2_778
10
22.1897183
20
136.7593042
40
0.4555793
50
292.5203086
51
325.2867508
0
ARC
8
DEFAULT_255_2_778
10
22.0999537
20
136.93853
40
0.6556743
50
269.6199197
51
293.7677355
0
ARC
8
DEFAULT_255_2_778
10
22.0956073
20
137.0247435
40
0.7418734
50
269.0811318
51
269.9997688
0
ARC
8
DEFAULT_255_2_778
10
22.1793293
20
137.017693
40
0.2651471
50
88.6426469
51
89.9972013
0
ARC
8
DEFAULT_255_2_778
10
22.1775438
20
137.0526027
40
0.2302444
50
89.5524386
51
130.4678957
0
ARC
8
DEFAULT_255_2_778
10
22.2765956
20
136.9527558
40
0.3706419
50
132.099436
51
154.4479603
0
ARC
8
DEFAULT_255_2_778
10
22.6790814
20
136.7346955
40
0.8281414
50
152.8476017
51
159.2006434
0
ARC
8
DEFAULT_255_2_778
10
22.0425195
20
137.1062274
40
0.3137404
50
351.1327381
51
359.8552777
0
ARC
8
DEFAULT_255_2_778
10
22.0889789
20
137.105828
40
0.2672803
50
359.9157472
51
8.073482
0
ARC
8
DEFAULT_255_2_778
10
22.1916771
20
137.1211282
40
0.1634528
50
7.8192239
51
49.4174523
0
ARC
8
DEFAULT_255_2_778
10
22.1897381
20
137.1079383
40
0.174876
50
51.746929
51
91.3525911
0
LINE
8
DEFAULT_255_2_778
10
21.5643101
20
136.8686656
11
21.5678101
21
136.9136656
0
LINE
8
DEFAULT_255_2_778
10
22.6539101
20
136.9462656
11
22.6356101
21
136.8078656
0
LINE
8
DEFAULT_255_2_778
10
22.6356101
20
136.8078656
11
21.8826101
21
136.8078656
0
LINE
8
DEFAULT_255_2_778
10
22.4176101
20
136.6797656
11
22.5642101
21
136.4998656
0
LINE
8
DEFAULT_255_2_778
10
22.0837101
20
136.2829656
11
22.0834101
21
136.2829656
0
LINE
8
DEFAULT_255_2_778
10
21.9049101
20
137.0287656
11
22.3456101
21
137.0287656
0
LINE
8
DEFAULT_255_2_778
10
22.3456101
20
137.0287656
11
22.3525101
21
137.0578656
0
LINE
8
DEFAULT_255_2_778
10
22.1856101
20
137.2827656
11
22.1856101
21
137.2827656
0
ARC
8
DEFAULT_255_2_778
10
22.5732275
20
136.4218859
40
0.7187609
50
318.1171527
51
335.3457065
0
ARC
8
DEFAULT_255_2_778
10
22.7861362
20
136.2397597
40
0.4387075
50
306.2044829
51
317.2623563
0
ARC
8
DEFAULT_255_2_778
10
22.8118611
20
136.2090074
40
0.3987066
50
269.0092455
51
305.8318035
0
ARC
8
DEFAULT_255_2_778
10
22.8209727
20
136.3736265
40
0.5634934
50
257.9736769
51
268.3723286
0
ARC
8
DEFAULT_255_2_778
10
22.9764694
20
137.2278284
40
1.431581
50
256.8370098
51
259.0102636
0
ARC
8
DEFAULT_255_2_778
10
22.7299242
20
136.4758821
40
0.396887
50
268.3457775
51
269.9906226
0
ARC
8
DEFAULT_255_2_778
10
22.7446904
20
136.316449
40
0.2379166
50
266.425992
51
328.6474802
0
LINE
8
DEFAULT_255_2_778
10
23.149167
20
137.5224604
11
23.237867
21
136.7689604
0
LINE
8
DEFAULT_255_2_778
10
23.237867
20
136.7689604
11
23.588967
21
137.5224604
0
LINE
8
DEFAULT_255_2_778
10
23.588967
20
137.5224604
11
23.945367
21
137.5224604
0
LINE
8
DEFAULT_255_2_778
10
23.945367
20
137.5224604
11
23.226467
21
136.1220604
0
LINE
8
DEFAULT_255_2_778
10
22.650467
20
135.8338604
11
22.674267
21
136.0812604
0
LINE
8
DEFAULT_255_2_778
10
22.674267
20
136.0812604
11
22.718467
21
136.0791604
0
LINE
8
DEFAULT_255_2_778
10
22.947867
20
136.1926604
11
23.018267
21
136.3220604
0
LINE
8
DEFAULT_255_2_778
10
23.018267
20
136.3220604
11
22.817167
21
137.5221604
0
LINE
8
DEFAULT_255_2_778
10
22.817167
20
137.5221604
11
23.148967
21
137.5221604
0
LINE
8
DEFAULT_255_2_778
10
23.148967
20
137.5221604
11
23.149167
21
137.5224604
0
LINE
8
DEFAULT_255_2_778
10
5.4244545
20
137.9219662
11
5.4244545
21
136.7366662
0
LINE
8
DEFAULT_255_2_778
10
5.4244545
20
136.7366662
11
8.3507545
21
136.6996662
0
LINE
8
DEFAULT_255_2_778
10
8.3507545
20
136.6996662
11
8.3507545
21
137.9219662
0
LINE
8
DEFAULT_255_2_778
10
8.3507545
20
137.9219662
11
7.4246545
21
138.7739662
0
LINE
8
DEFAULT_255_2_778
10
7.4246545
20
138.7739662
11
6.2764545
21
138.7739662
0
LINE
8
DEFAULT_255_2_778
10
6.2764545
20
138.7739662
11
5.4244545
21
137.9219662
0
LINE
8
DEFAULT_255_2_778
10
5.5726545
20
136.5144662
11
8.2025545
21
136.5144662
0
LINE
8
DEFAULT_255_2_778
10
8.2025545
20
136.5144662
11
7.4617545
21
135.8106662
0
LINE
8
DEFAULT_255_2_778
10
7.4617545
20
135.8106662
11
6.3504545
21
135.8106662
0
LINE
8
DEFAULT_255_2_778
10
6.3504545
20
135.8106662
11
5.5726545
21
136.5144662
0
ARC
8
DEFAULT_255_2_778
10
7.8458236
20
137.0635772
40
0.1423419
50
264.5115721
51
318.4176283
0
ARC
8
DEFAULT_255_2_778
10
7.8189888
20
137.0606228
40
0.1616977
50
325.5297452
51
3.3557414
0
ARC
8
DEFAULT_255_2_778
10
7.8389804
20
137.4171161
40
0.142084
50
354.4959081
51
48.5537602
0
ARC
8
DEFAULT_255_2_778
10
7.8416454
20
137.3899072
40
0.1619557
50
55.6500697
51
93.3401169
0
ARC
8
DEFAULT_255_2_778
10
7.8414718
20
137.6164253
40
0.0654958
50
261.8698976
51
8.1301024
0
ARC
8
DEFAULT_255_2_778
10
7.7988681
20
137.9991458
40
0.1074847
50
358.3696885
51
95.9524071
0
ARC
8
DEFAULT_255_2_778
10
7.7588849
20
137.770792
40
0.3364968
50
85.0838783
51
90.1320543
0
LINE
8
DEFAULT_255_2_778
10
5.6838093
20
136.9218878
11
6.1283093
21
138.1442878
0
LINE
8
DEFAULT_255_2_778
10
6.1283093
20
138.1442878
11
6.3876093
21
138.1442878
0
LINE
8
DEFAULT_255_2_778
10
6.3876093
20
138.1442878
11
6.8691093
21
136.9589878
0
LINE
8
DEFAULT_255_2_778
10
6.8691093
20
136.9589878
11
6.5358093
21
136.9589878
0
LINE
8
DEFAULT_255_2_778
10
6.5358093
20
136.9589878
11
6.4246093
21
137.2182878
0
LINE
8
DEFAULT_255_2_778
10
6.4246093
20
137.2182878
11
6.0913093
21
137.2182878
0
LINE
8
DEFAULT_255_2_778
10
6.0913093
20
137.2182878
11
6.0913093
21
137.3663878
0
LINE
8
DEFAULT_255_2_778
10
6.0913093
20
137.3663878
11
6.3876093
21
137.3663878
0
LINE
8
DEFAULT_255_2_778
10
6.3876093
20
137.3663878
11
6.2024093
21
137.8108878
0
LINE
8
DEFAULT_255_2_778
10
6.2024093
20
137.8108878
11
5.8690093
21
136.9218878
0
LINE
8
DEFAULT_255_2_778
10
5.8690093
20
136.9218878
11
5.6838093
21
136.9218878
0
LINE
8
DEFAULT_255_2_778
10
5.6838093
20
136.9218878
11
5.6838093
21
136.9218878
0
LINE
8
DEFAULT_255_2_778
10
6.7580093
20
137.5886878
11
6.9062093
21
137.5886878
0
LINE
8
DEFAULT_255_2_778
10
6.9062093
20
137.5886878
11
6.9062093
21
137.4404878
0
LINE
8
DEFAULT_255_2_778
10
6.9062093
20
137.4404878
11
6.7580093
21
137.4404878
0
LINE
8
DEFAULT_255_2_778
10
6.7580093
20
137.4404878
11
6.7580093
21
137.5886878
0
LINE
8
DEFAULT_255_2_778
10
7.2766093
20
137.9219878
11
7.6100093
21
137.9219878
0
LINE
8
DEFAULT_255_2_778
10
7.6100093
20
137.9219878
11
7.6100093
21
137.5515878
0
LINE
8
DEFAULT_255_2_778
10
7.6100093
20
137.5515878
11
7.3507093
21
137.5515878
0
LINE
8
DEFAULT_255_2_778
10
7.3507093
20
137.5515878
11
7.3507093
21
137.4034878
0
LINE
8
DEFAULT_255_2_778
10
7.3507093
20
137.4034878
11
7.6840093
21
137.4034878
0
LINE
8
DEFAULT_255_2_778
10
7.6840093
20
137.4034878
11
7.6840093
21
137.0700878
0
LINE
8
DEFAULT_255_2_778
10
7.6840093
20
137.0700878
11
7.2766093
21
137.0700878
0
LINE
8
DEFAULT_255_2_778
10
7.2766093
20
137.0700878
11
7.2766093
21
137.9219878
0
LINE
8
DEFAULT_255_2_778
10
7.2766093
20
137.9219878
11
7.2766093
21
137.9219878
0
LINE
8
DEFAULT_255_2_778
10
6.9803093
20
138.1072878
11
6.9803093
21
136.9218878
0
LINE
8
DEFAULT_255_2_778
10
6.9803093
20
136.9218878
11
7.8322093
21
136.9218878
0
LINE
8
DEFAULT_255_2_778
10
7.9804093
20
137.0700878
11
7.9804093
21
137.4034878
0
LINE
8
DEFAULT_255_2_778
10
7.9063093
20
137.6256878
11
7.9063093
21
137.9960878
0
LINE
8
DEFAULT_255_2_778
10
7.7581093
20
138.1072878
11
6.9803093
21
138.1072878
0
LINE
8
DEFAULT_255_2_778
10
6.9803093
20
138.1072878
11
6.9803093
21
138.1072878
0
LINE
8
DEFAULT_255_2_778
10
6.3394426
20
136.13152
11
6.3367426
21
136.13152
0
ARC
8
DEFAULT_255_2_778
10
6.3340483
20
136.2565856
40
0.1250946
50
247.1356448
51
271.2341787
0
ARC
8
DEFAULT_255_2_778
10
6.3160915
20
136.2142166
40
0.0790776
50
215.0349981
51
247.1960091
0
ARC
8
DEFAULT_255_2_778
10
6.3109463
20
136.2088967
40
0.0718243
50
178.625123
51
213.9163394
0
ARC
8
DEFAULT_255_2_778
10
6.3131692
20
136.3259394
40
0.0740421
50
147.0420611
51
181.175799
0
ARC
8
DEFAULT_255_2_778
10
6.3147919
20
136.322063
40
0.0775487
50
112.4780918
51
145.2909011
0
ARC
8
DEFAULT_255_2_778
10
6.3339169
20
136.2776536
40
0.1258981
50
88.7138988
51
112.7934617
0
ARC
8
DEFAULT_255_2_778
10
6.3394809
20
136.278188
40
0.1253619
50
67.159311
51
91.2516049
0
ARC
8
DEFAULT_255_2_778
10
6.3569793
20
136.3201854
40
0.0798654
50
35.1978461
51
67.0331611
0
ARC
8
DEFAULT_255_2_778
10
6.362639
20
136.3261433
40
0.0718243
50
358.625123
51
33.9163394
0
ARC
8
DEFAULT_255_2_778
10
6.3604161
20
136.2091006
40
0.0740421
50
327.0420611
51
1.175799
0
ARC
8
DEFAULT_255_2_778
10
6.361381
20
136.2103221
40
0.0739133
50
291.6436853
51
325.8406333
0
ARC
8
DEFAULT_255_2_778
10
6.3401809
20
136.2193742
40
0.0482768
50
265.9160158
51
308.3617549
0
ARC
8
DEFAULT_255_2_778
10
6.3451719
20
136.2083209
40
0.036631
50
312.9754563
51
3.2850623
0
ARC
8
DEFAULT_255_2_778
10
6.3448152
20
136.3260022
40
0.0369754
50
357.082104
51
47.4006092
0
ARC
8
DEFAULT_255_2_778
10
6.339634
20
136.3158688
40
0.0480383
50
51.0349629
51
93.4505724
0
ARC
8
DEFAULT_255_2_778
10
6.3340454
20
136.3155492
40
0.0483461
50
86.8017862
51
128.8135095
0
ARC
8
DEFAULT_255_2_778
10
6.3287701
20
136.3260022
40
0.0369754
50
132.5993908
51
182.917896
0
ARC
8
DEFAULT_255_2_778
10
6.3284134
20
136.2083209
40
0.036631
50
176.7149377
51
227.0245437
0
ARC
8
DEFAULT_255_2_778
10
6.3334907
20
136.2196862
40
0.0485752
50
231.7867693
51
273.8385805
0
ARC
8
DEFAULT_255_2_778
10
6.5570033
20
136.2080569
40
0.0766655
50
226.2029837
51
273.3195937
0
ARC
8
DEFAULT_255_2_778
10
6.5622798
20
136.2060748
40
0.0790566
50
176.8492311
51
222.4458356
0
ARC
8
DEFAULT_255_2_778
10
6.5699928
20
136.2079649
40
0.043631
50
176.5112098
51
217.639275
0
ARC
8
DEFAULT_255_2_778
10
6.5593878
20
136.2028666
40
0.0322122
50
221.9818643
51
273.6574471
0
ARC
8
DEFAULT_255_2_778
10
6.5632216
20
136.2033153
40
0.0326438
50
266.8760675
51
317.6392064
0
ARC
8
DEFAULT_255_2_778
10
6.5527925
20
136.2079649
40
0.043631
50
322.360725
51
3.4887902
0
ARC
8
DEFAULT_255_2_778
10
6.5605055
20
136.2060748
40
0.0790566
50
317.5541644
51
3.1507689
0
ARC
8
DEFAULT_255_2_778
10
6.5656687
20
136.2083225
40
0.0769357
50
266.6274163
51
313.7210327
0
LINE
8
DEFAULT_255_2_778
10
6.4394426
20
136.06992
11
6.3828426
21
136.06992
0
LINE
8
DEFAULT_255_2_778
10
6.3828426
20
136.06992
11
6.3394426
21
136.13152
0
LINE
8
DEFAULT_255_2_778
10
6.2391426
20
136.21062
11
6.2391426
21
136.32442
0
LINE
8
DEFAULT_255_2_778
10
6.4344426
20
136.32442
11
6.4344426
21
136.21062
0
LINE
8
DEFAULT_255_2_778
10
6.3886426
20
136.14162
11
6.4394426
21
136.07012
0
LINE
8
DEFAULT_255_2_778
10
6.4394426
20
136.07012
11
6.4394426
21
136.06992
0
LINE
8
DEFAULT_255_2_778
10
6.3817426
20
136.21042
11
6.3817426
21
136.32412
0
LINE
8
DEFAULT_255_2_778
10
6.2918426
20
136.32412
11
6.2918426
21
136.21042
0
LINE
8
DEFAULT_255_2_778
10
6.3367426
20
136.17122
11
6.3367426
21
136.17122
0
LINE
8
DEFAULT_255_2_778
10
6.4833426
20
136.21042
11
6.4833426
21
136.39952
0
LINE
8
DEFAULT_255_2_778
10
6.4833426
20
136.39952
11
6.5264426
21
136.39952
0
LINE
8
DEFAULT_255_2_778
10
6.5264426
20
136.39952
11
6.5264426
21
136.21062
0
LINE
8
DEFAULT_255_2_778
10
6.5963426
20
136.21062
11
6.5963426
21
136.39952
0
LINE
8
DEFAULT_255_2_778
10
6.5963426
20
136.39952
11
6.6394426
21
136.39952
0
LINE
8
DEFAULT_255_2_778
10
6.6394426
20
136.39952
11
6.6394426
21
136.21042
0
LINE
8
DEFAULT_255_2_778
10
6.5611426
20
136.13152
11
6.5614426
21
136.13152
0
ARC
8
DEFAULT_255_2_778
10
12.1641534
20
137.4346635
40
5.5033955
50
191.4837585
51
191.8239227
0
ARC
8
DEFAULT_255_2_778
10
8.3589226
20
136.6308972
40
1.6145995
50
189.6626565
51
190.4158531
0
ARC
8
DEFAULT_255_2_778
10
6.119743
20
136.4637409
40
0.6557616
50
349.0334606
51
350.8880298
0
ARC
8
DEFAULT_255_2_778
10
6.0674163
20
136.4673866
40
0.7078549
50
346.9283592
51
349.5494987
0
ARC
8
DEFAULT_255_2_778
10
7.295875
20
136.2365243
40
0.1856762
50
15.5793022
51
22.5708948
0
ARC
8
DEFAULT_255_2_778
10
7.3101534
20
136.2344769
40
0.1725699
50
11.8762786
51
17.5076424
0
ARC
8
DEFAULT_255_2_778
10
7.8590306
20
136.1814121
40
0.3901889
50
164.3923637
51
166.8784714
0
ARC
8
DEFAULT_255_2_778
10
7.6620837
20
136.2365243
40
0.1856762
50
157.4291052
51
164.4206978
0
LINE
8
DEFAULT_255_2_778
10
6.7201293
20
136.1349917
11
6.6762293
21
136.1349917
0
LINE
8
DEFAULT_255_2_778
10
6.6762293
20
136.1349917
11
6.7392293
21
136.3995917
0
LINE
8
DEFAULT_255_2_778
10
6.7392293
20
136.3995917
11
6.7942293
21
136.3995917
0
LINE
8
DEFAULT_255_2_778
10
6.7942293
20
136.3995917
11
6.8577293
21
136.1349917
0
LINE
8
DEFAULT_255_2_778
10
6.8577293
20
136.1349917
11
6.8138293
21
136.1349917
0
LINE
8
DEFAULT_255_2_778
10
6.8138293
20
136.1349917
11
6.8000293
21
136.1989917
0
LINE
8
DEFAULT_255_2_778
10
6.8000293
20
136.1989917
11
6.7336293
21
136.1989917
0
LINE
8
DEFAULT_255_2_778
10
6.7336293
20
136.1989917
11
6.7199293
21
136.1349917
0
LINE
8
DEFAULT_255_2_778
10
6.7199293
20
136.1349917
11
6.7201293
21
136.1349917
0
LINE
8
DEFAULT_255_2_778
10
6.7569293
20
136.3074917
11
6.7418293
21
136.2360917
0
LINE
8
DEFAULT_255_2_778
10
6.7418293
20
136.2360917
11
6.7926293
21
136.2360917
0
LINE
8
DEFAULT_255_2_778
10
6.7926293
20
136.2360917
11
6.7775293
21
136.3069917
0
LINE
8
DEFAULT_255_2_778
10
6.7569293
20
136.3072917
11
6.7569293
21
136.3074917
0
LINE
8
DEFAULT_255_2_778
10
7.0231293
20
136.1349917
11
6.8741293
21
136.1349917
0
LINE
8
DEFAULT_255_2_778
10
6.8741293
20
136.1349917
11
6.8741293
21
136.3995917
0
LINE
8
DEFAULT_255_2_778
10
6.8741293
20
136.3995917
11
6.9170293
21
136.3995917
0
LINE
8
DEFAULT_255_2_778
10
6.9170293
20
136.3995917
11
6.9170293
21
136.1759917
0
LINE
8
DEFAULT_255_2_778
10
6.9170293
20
136.1759917
11
7.0231293
21
136.1759917
0
LINE
8
DEFAULT_255_2_778
10
7.0231293
20
136.1759917
11
7.0231293
21
136.1349917
0
LINE
8
DEFAULT_255_2_778
10
7.0231293
20
136.1349917
11
7.0231293
21
136.1349917
0
LINE
8
DEFAULT_255_2_778
10
7.1760293
20
136.1349917
11
7.0321293
21
136.1349917
0
LINE
8
DEFAULT_255_2_778
10
7.0321293
20
136.1349917
11
7.0321293
21
136.1759917
0
LINE
8
DEFAULT_255_2_778
10
7.0321293
20
136.1759917
11
7.0823293
21
136.1759917
0
LINE
8
DEFAULT_255_2_778
10
7.0823293
20
136.1759917
11
7.0823293
21
136.3585917
0
LINE
8
DEFAULT_255_2_778
10
7.0823293
20
136.3585917
11
7.0321293
21
136.3585917
0
LINE
8
DEFAULT_255_2_778
10
7.0321293
20
136.3585917
11
7.0321293
21
136.3995917
0
LINE
8
DEFAULT_255_2_778
10
7.0321293
20
136.3995917
11
7.1760293
21
136.3995917
0
LINE
8
DEFAULT_255_2_778
10
7.1760293
20
136.3995917
11
7.1760293
21
136.3585917
0
LINE
8
DEFAULT_255_2_778
10
7.1760293
20
136.3585917
11
7.1257293
21
136.3585917
0
LINE
8
DEFAULT_255_2_778
10
7.1257293
20
136.3585917
11
7.1257293
21
136.1759917
0
LINE
8
DEFAULT_255_2_778
10
7.1257293
20
136.1759917
11
7.1760293
21
136.1759917
0
LINE
8
DEFAULT_255_2_778
10
7.1760293
20
136.1759917
11
7.1760293
21
136.1349917
0
LINE
8
DEFAULT_255_2_778
10
7.1760293
20
136.1349917
11
7.1760293
21
136.1349917
0
LINE
8
DEFAULT_255_2_778
10
7.2940293
20
136.1349917
11
7.2509293
21
136.1349917
0
LINE
8
DEFAULT_255_2_778
10
7.2509293
20
136.1349917
11
7.2509293
21
136.3585917
0
LINE
8
DEFAULT_255_2_778
10
7.2509293
20
136.3585917
11
7.1855293
21
136.3585917
0
LINE
8
DEFAULT_255_2_778
10
7.1855293
20
136.3585917
11
7.1855293
21
136.3995917
0
LINE
8
DEFAULT_255_2_778
10
7.1855293
20
136.3995917
11
7.3596293
21
136.3995917
0
LINE
8
DEFAULT_255_2_778
10
7.3596293
20
136.3995917
11
7.3596293
21
136.3585917
0
LINE
8
DEFAULT_255_2_778
10
7.3596293
20
136.3585917
11
7.2943293
21
136.3585917
0
LINE
8
DEFAULT_255_2_778
10
7.2943293
20
136.3585917
11
7.2943293
21
136.1349917
0
LINE
8
DEFAULT_255_2_778
10
7.2943293
20
136.1349917
11
7.2940293
21
136.1349917
0
LINE
8
DEFAULT_255_2_778
10
7.4996293
20
136.1349917
11
7.4565293
21
136.1349917
0
LINE
8
DEFAULT_255_2_778
10
7.4565293
20
136.1349917
11
7.4565293
21
136.2310917
0
LINE
8
DEFAULT_255_2_778
10
7.4565293
20
136.2310917
11
7.3832293
21
136.3995917
0
LINE
8
DEFAULT_255_2_778
10
7.3832293
20
136.3995917
11
7.4281293
21
136.3995917
0
LINE
8
DEFAULT_255_2_778
10
7.4281293
20
136.3995917
11
7.4673293
21
136.3077917
0
LINE
8
DEFAULT_255_2_778
10
7.4906293
20
136.3077917
11
7.5287293
21
136.3995917
0
LINE
8
DEFAULT_255_2_778
10
7.5287293
20
136.3995917
11
7.5731293
21
136.3995917
0
LINE
8
DEFAULT_255_2_778
10
7.5731293
20
136.3995917
11
7.4998293
21
136.2310917
0
LINE
8
DEFAULT_255_2_778
10
7.4998293
20
136.2310917
11
7.4998293
21
136.1349917
0
LINE
8
DEFAULT_255_2_778
10
7.4998293
20
136.1349917
11
7.4996293
21
136.1349917
0
LINE
8
DEFAULT_255_1_388
10
7.2902985
20
134.9582148
11
7.2902985
21
133.6363
0
LINE
8
DEFAULT_255_1_388
10
7.2902985
20
133.6363
11
7.1222355
21
133.6363
0
LINE
8
DEFAULT_255_1_388
10
7.1222355
20
133.6363
11
7.1222355
21
134.750395
0
LINE
8
DEFAULT_255_1_388
10
7.1222355
20
134.750395
11
6.785206
21
134.6266066
0
LINE
8
DEFAULT_255_1_388
10
6.785206
20
134.6266066
11
6.785206
21
134.7784055
0
LINE
8
DEFAULT_255_1_388
10
6.785206
20
134.7784055
11
7.2640951
21
134.9582148
0
LINE
8
DEFAULT_255_1_388
10
7.2640951
20
134.9582148
11
7.2902985
21
134.9582148
0
LINE
8
DEFAULT_255_1_388
10
8.629381
20
134.9518898
11
8.629381
21
134.8579191
0
LINE
8
DEFAULT_255_1_388
10
8.629381
20
134.8579191
11
8.0845316
21
133.6363
0
LINE
8
DEFAULT_255_1_388
10
8.0845316
20
133.6363
11
7.9092401
21
133.6363
0
LINE
8
DEFAULT_255_1_388
10
7.9092401
20
133.6363
11
8.4522824
21
134.814548
0
LINE
8
DEFAULT_255_1_388
10
8.4522824
20
134.814548
11
7.7402736
21
134.814548
0
LINE
8
DEFAULT_255_1_388
10
7.7402736
20
134.814548
11
7.7402736
21
134.9518898
0
LINE
8
DEFAULT_255_1_388
10
7.7402736
20
134.9518898
11
8.629381
21
134.9518898
0
LINE
8
DEFAULT_255_1_388
10
9.0296601
20
134.2615666
11
8.8959325
21
134.2959021
0
LINE
8
DEFAULT_255_1_388
10
8.8959325
20
134.2959021
11
8.9627963
21
134.9518898
0
LINE
8
DEFAULT_255_1_388
10
8.9627963
20
134.9518898
11
9.6368554
21
134.9518898
0
LINE
8
DEFAULT_255_1_388
10
9.6368554
20
134.9518898
11
9.6368554
21
134.7973803
0
LINE
8
DEFAULT_255_1_388
10
9.6368554
20
134.7973803
11
9.1046559
21
134.7973803
0
LINE
8
DEFAULT_255_1_388
10
9.1046559
20
134.7973803
11
9.0648991
21
134.4386652
0
LINE
8
DEFAULT_255_1_388
10
8.8489472
20
133.9823652
11
9.0070709
21
133.9823652
0
LINE
8
DEFAULT_255_1_388
10
9.0739347
20
134.2977092
11
9.0296601
21
134.2615666
0
ARC
8
DEFAULT_255_1_388
10
9.2735604
20
134.0809241
40
0.4141476
50
93.7181681
51
120.253934
0
ARC
8
DEFAULT_255_1_388
10
9.2841656
20
133.9900284
40
0.5055616
50
89.9660471
51
94.2495185
0
ARC
8
DEFAULT_255_1_388
10
9.2887478
20
134.0563154
40
0.4392953
50
73.8045384
51
90.5585736
0
ARC
8
DEFAULT_255_1_388
10
9.3151736
20
134.152852
40
0.3392225
50
41.3071072
51
73.543002
0
ARC
8
DEFAULT_255_1_388
10
9.2683556
20
134.1125461
40
0.4009977
50
13.5075837
51
41.2174839
0
ARC
8
DEFAULT_255_1_388
10
9.0836653
20
134.0641907
40
0.5918864
50
1.1330171
51
13.8830737
0
ARC
8
DEFAULT_255_1_388
10
8.9240299
20
134.0556522
40
0.7516787
50
359.9925091
51
1.5431298
0
ARC
8
DEFAULT_255_1_388
10
9.0684914
20
134.0510027
40
0.6072343
50
347.8572712
51
0.4294349
0
ARC
8
DEFAULT_255_1_388
10
9.2654049
20
134.0063898
40
0.4053482
50
323.6727442
51
348.1674594
0
ARC
8
DEFAULT_255_1_388
10
9.2985013
20
133.9862175
40
0.3667495
50
316.8171818
51
323.1486802
0
ARC
8
DEFAULT_255_1_388
10
9.3054137
20
133.9820612
40
0.358869
50
281.839603
51
316.5458142
0
ARC
8
DEFAULT_255_1_388
10
9.2631425
20
134.1570363
40
0.5388223
50
269.5770964
51
282.4214641
0
ARC
8
DEFAULT_255_1_388
10
9.2551345
20
134.132993
40
0.5147801
50
256.2425863
51
270.4486481
0
ARC
8
DEFAULT_255_1_388
10
9.2214873
20
133.9980124
40
0.3756708
50
228.9024379
51
256.33135
0
ARC
8
DEFAULT_255_1_388
10
9.2131853
20
133.9849054
40
0.360344
50
193.7536029
51
228.5272638
0
ARC
8
DEFAULT_255_1_388
10
9.3524418
20
134.0257463
40
0.5053599
50
184.9244437
51
194.4976052
0
ARC
8
DEFAULT_255_1_388
10
9.374106
20
134.0297722
40
0.3700839
50
187.3596909
51
198.6733728
0
ARC
8
DEFAULT_255_1_388
10
9.2560303
20
133.9888373
40
0.2451195
50
198.4453795
51
217.7945479
0
ARC
8
DEFAULT_255_1_388
10
9.2227476
20
133.9652563
40
0.2043754
50
218.2887146
51
228.5613203
0
ARC
8
DEFAULT_255_1_388
10
9.2337482
20
133.9800902
40
0.2227819
50
228.9652423
51
258.1237049
0
ARC
8
DEFAULT_255_1_388
10
9.256892
20
134.0791964
40
0.3245374
50
257.7260585
51
270.4013717
0
ARC
8
DEFAULT_255_1_388
10
9.2619418
20
134.0291255
40
0.2744726
50
269.4204315
51
286.420998
0
ARC
8
DEFAULT_255_1_388
10
9.2786474
20
133.9684705
40
0.2115721
50
286.7250065
51
320.6004665
0
ARC
8
DEFAULT_255_1_388
10
9.2355389
20
134.0034527
40
0.2670878
50
320.6712228
51
344.5440474
0
ARC
8
DEFAULT_255_1_388
10
9.1054103
20
134.0416394
40
0.4026927
50
344.241448
51
356.735803
0
ARC
8
DEFAULT_255_1_388
10
8.965041
20
134.0532656
40
0.5435085
50
356.3547471
51
0.0507222
0
ARC
8
DEFAULT_255_1_388
10
9.1152675
20
134.0567812
40
0.3932934
50
359.5579289
51
12.9534322
0
ARC
8
DEFAULT_255_1_388
10
9.2339515
20
134.0855586
40
0.2711827
50
12.6489751
51
41.608121
0
ARC
8
DEFAULT_255_1_388
10
9.2598675
20
134.1075946
40
0.2371737
50
41.7851122
51
85.9892156
0
ARC
8
DEFAULT_255_1_388
10
9.2459985
20
134.0160738
40
0.3295244
50
84.6965848
51
90.0672125
0
ARC
8
DEFAULT_255_1_388
10
9.2433553
20
133.9409118
40
0.4046926
50
89.6804991
51
99.161352
0
ARC
8
DEFAULT_255_1_388
10
9.2202562
20
134.0789848
40
0.2647044
50
98.9836248
51
113.8905702
0
ARC
8
DEFAULT_255_1_388
10
9.1944237
20
134.1399118
40
0.1985386
50
114.195234
51
127.3641866
0
LINE
8
DEFAULT_255_1_388
10
10.4843988
20
134.9527934
11
10.5142165
21
134.9527934
0
LINE
8
DEFAULT_255_1_388
10
10.5142165
20
134.9527934
11
10.5142165
21
134.8109338
0
LINE
8
DEFAULT_255_1_388
10
10.5142165
20
134.8109338
11
10.4834953
21
134.8109338
0
LINE
8
DEFAULT_255_1_388
10
9.8681679
20
134.1368747
11
9.8681679
21
134.2010278
0
LINE
8
DEFAULT_255_1_388
10
10.0362309
20
134.1793422
11
10.0362309
21
134.1178999
0
ARC
8
DEFAULT_255_1_388
10
10.4893844
20
134.2486826
40
0.562282
50
90.6001079
51
104.5146616
0
ARC
8
DEFAULT_255_1_388
10
10.4456804
20
134.41121
40
0.3939917
50
104.2855758
51
133.8630124
0
ARC
8
DEFAULT_255_1_388
10
10.4641056
20
134.3990243
40
0.4155734
50
134.5304124
51
161.6210222
0
ARC
8
DEFAULT_255_1_388
10
10.6500989
20
134.3334421
40
0.6127682
50
161.2850533
51
174.2074364
0
ARC
8
DEFAULT_255_1_388
10
10.8090555
20
134.3115437
40
0.7731446
50
173.7817938
51
174.9251711
0
ARC
8
DEFAULT_255_1_388
10
10.2964749
20
134.156027
40
0.3412588
50
95.8332067
51
138.995412
0
ARC
8
DEFAULT_255_1_388
10
10.3216029
20
134.0121695
40
0.4870358
50
89.8755506
51
97.0540979
0
ARC
8
DEFAULT_255_1_388
10
10.3269418
20
134.1061841
40
0.3930432
50
71.6407016
51
90.6240821
0
ARC
8
DEFAULT_255_1_388
10
10.3438812
20
134.1685433
40
0.3285421
50
39.6368051
51
71.0190743
0
ARC
8
DEFAULT_255_1_388
10
10.2722719
20
134.1066586
40
0.4231706
50
10.6588054
51
39.9044509
0
ARC
8
DEFAULT_255_1_388
10
10.0981265
20
134.0688223
40
0.60133
50
359.6827842
51
11.1326896
0
ARC
8
DEFAULT_255_1_388
10
10.0936601
20
134.0608715
40
0.6058047
50
347.2485908
51
0.4371098
0
ARC
8
DEFAULT_255_1_388
10
10.2812386
20
134.0157379
40
0.4128987
50
318.1408565
51
347.6118497
0
ARC
8
DEFAULT_255_1_388
10
10.3177983
20
133.9856903
40
0.3656244
50
275.6342406
51
317.824739
0
ARC
8
DEFAULT_255_1_388
10
10.2929504
20
134.1318827
40
0.513655
50
269.8872513
51
276.7916069
0
ARC
8
DEFAULT_255_1_388
10
10.2867697
20
134.0165181
40
0.398323
50
246.9139443
51
270.7436787
0
ARC
8
DEFAULT_255_1_388
10
10.2874893
20
134.0005044
40
0.3839368
50
218.1665534
51
245.8780431
0
ARC
8
DEFAULT_255_1_388
10
10.3864265
20
134.0832903
40
0.5128958
50
191.4115343
51
218.6077624
0
ARC
8
DEFAULT_255_1_388
10
10.6044581
20
134.1321777
40
0.7363054
50
179.6344971
51
191.7836758
0
ARC
8
DEFAULT_255_1_388
10
11.2324455
20
134.2085495
40
1.3642984
50
171.4523743
51
180.3158856
0
ARC
8
DEFAULT_255_1_388
10
10.7380182
20
134.2854895
40
0.8639311
50
157.9802296
51
171.6246761
0
ARC
8
DEFAULT_255_1_388
10
10.4889533
20
134.3848038
40
0.5958004
50
141.4299236
51
157.8541251
0
ARC
8
DEFAULT_255_1_388
10
10.4167616
20
134.4358746
40
0.5075416
50
102.871586
51
140.8564533
0
ARC
8
DEFAULT_255_1_388
10
10.4896169
20
134.1613943
40
0.7914163
50
90.377773
51
103.5868422
0
ARC
8
DEFAULT_255_1_388
10
10.294069
20
134.0933543
40
0.2667015
50
89.8751238
51
126.2072139
0
ARC
8
DEFAULT_255_1_388
10
10.2992161
20
134.0759847
40
0.2838229
50
124.9742447
51
144.8960197
0
ARC
8
DEFAULT_255_1_388
10
10.2794406
20
134.0920981
40
0.2583845
50
145.2974778
51
160.2660922
0
ARC
8
DEFAULT_255_1_388
10
10.6250895
20
134.1143151
40
0.5888695
50
179.6512124
51
190.285571
0
ARC
8
DEFAULT_255_1_388
10
10.4345374
20
134.0783968
40
0.3949683
50
190.0944895
51
207.5099647
0
ARC
8
DEFAULT_255_1_388
10
10.3708956
20
134.0481177
40
0.3245464
50
207.9585471
51
216.325377
0
ARC
8
DEFAULT_255_1_388
10
10.3326593
20
134.0166712
40
0.2751259
50
215.7661336
51
232.5457193
0
ARC
8
DEFAULT_255_1_388
10
10.2895709
20
133.9619273
40
0.2054668
50
232.8005815
51
270.6605497
0
ARC
8
DEFAULT_255_1_388
10
10.2947133
20
134.0028853
40
0.2464268
50
269.3550767
51
288.474612
0
ARC
8
DEFAULT_255_1_388
10
10.305164
20
133.9635721
40
0.2058436
50
289.1831976
51
322.9685307
0
ARC
8
DEFAULT_255_1_388
10
10.2363742
20
134.0178279
40
0.2934408
50
322.6007085
51
346.5183319
0
ARC
8
DEFAULT_255_1_388
10
10.1061498
20
134.0510434
40
0.4278249
50
346.2584622
51
358.7739592
0
ARC
8
DEFAULT_255_1_388
10
9.9910073
20
134.0572829
40
0.5430876
50
358.3757628
51
0.0082477
0
ARC
8
DEFAULT_255_1_388
10
10.0766892
20
134.0603856
40
0.4574157
50
359.6211417
51
11.28403
0
ARC
8
DEFAULT_255_1_388
10
10.2203498
20
134.0903535
40
0.3106708
50
11.0483152
51
31.8145585
0
ARC
8
DEFAULT_255_1_388
10
10.2551203
20
134.1092045
40
0.2711963
50
32.3028554
51
38.0820598
0
ARC
8
DEFAULT_255_1_388
10
10.3024436
20
134.1520717
40
0.2075566
50
36.8249851
51
85.741667
0
ARC
8
DEFAULT_255_1_388
10
10.2948849
20
134.0957065
40
0.2643487
50
85.0150021
51
90.050843
0
LINE
8
DEFAULT_255_1_388
10
12.1921356
20
134.0537468
11
12.3665236
21
134.0537468
0
LINE
8
DEFAULT_255_1_388
10
11.3536278
20
134.2326525
11
11.3536278
21
134.3591516
0
LINE
8
DEFAULT_255_1_388
10
12.3665236
20
134.5290217
11
12.1921356
21
134.5290217
0
LINE
8
DEFAULT_255_1_388
10
11.5280158
20
134.3546337
11
11.5280158
21
134.2272312
0
ARC
8
DEFAULT_255_1_388
10
11.749947
20
134.1209329
40
0.6202263
50
340.1774904
51
353.7812217
0
ARC
8
DEFAULT_255_1_388
10
11.9267323
20
134.0550893
40
0.4315926
50
311.4560052
51
340.4420756
0
ARC
8
DEFAULT_255_1_388
10
11.9229862
20
134.0675665
40
0.4434573
50
282.4332229
51
310.7514507
0
ARC
8
DEFAULT_255_1_388
10
11.873568
20
134.2717703
40
0.6535262
50
269.9358869
51
282.8096729
0
ARC
8
DEFAULT_255_1_388
10
11.867762
20
134.4230329
40
0.8048043
50
269.9995752
51
270.3612856
0
ARC
8
DEFAULT_255_1_388
10
11.861811
20
134.1431781
40
0.5249831
50
250.7885263
51
270.6488451
0
ARC
8
DEFAULT_255_1_388
10
11.8428934
20
134.0714853
40
0.4510942
50
219.3628377
51
250.0611024
0
ARC
8
DEFAULT_255_1_388
10
11.9361809
20
134.1507653
40
0.5735046
50
193.5480293
51
219.5755675
0
ARC
8
DEFAULT_255_1_388
10
12.2030018
20
134.220052
40
0.849146
50
181.1220183
51
193.8754971
0
ARC
8
DEFAULT_255_1_388
10
12.4353251
20
134.2324914
40
1.0816971
50
179.9914644
51
181.5398227
0
ARC
8
DEFAULT_255_1_388
10
12.2276561
20
134.3633586
40
0.8740384
50
169.5837606
51
180.275782
0
ARC
8
DEFAULT_255_1_388
10
12.0209909
20
134.4015439
40
0.6638751
50
155.0367033
51
169.6002779
0
ARC
8
DEFAULT_255_1_388
10
11.8932368
20
134.4631336
40
0.5220662
50
136.7831557
51
155.2472983
0
ARC
8
DEFAULT_255_1_388
10
11.8494158
20
134.5003577
40
0.4646502
50
121.7633063
51
136.4281161
0
ARC
8
DEFAULT_255_1_388
10
11.8645998
20
134.4723049
40
0.4964979
50
95.6460018
51
121.5489589
0
ARC
8
DEFAULT_255_1_388
10
11.8822973
20
134.3475704
40
0.6223912
50
89.9245727
51
96.1375919
0
ARC
8
DEFAULT_255_1_388
10
11.8879678
20
134.3609721
40
0.6090084
50
76.6779212
51
90.456405
0
ARC
8
DEFAULT_255_1_388
10
11.9322491
20
134.539906
40
0.42469
50
47.4858803
51
76.9287069
0
ARC
8
DEFAULT_255_1_388
10
11.9157104
20
134.5286623
40
0.4441778
50
16.5424081
51
46.8934505
0
ARC
8
DEFAULT_255_1_388
10
11.7348154
20
134.4692265
40
0.6345318
50
5.4072971
51
17.0363711
0
ARC
8
DEFAULT_255_1_388
10
11.5729879
20
134.4432304
40
0.6250632
50
7.8888693
51
15.9242022
0
ARC
8
DEFAULT_255_1_388
10
11.7964865
20
134.5081309
40
0.3923364
50
15.7650676
51
27.9410069
0
ARC
8
DEFAULT_255_1_388
10
11.9207034
20
134.5746317
40
0.2514401
50
27.8167196
51
46.4007942
0
ARC
8
DEFAULT_255_1_388
10
11.9262875
20
134.5739882
40
0.2480958
50
47.4372362
51
75.0695672
0
ARC
8
DEFAULT_255_1_388
10
11.8915711
20
134.4531277
40
0.3738281
50
74.7009379
51
87.8124314
0
ARC
8
DEFAULT_255_1_388
10
11.8833328
20
134.3347659
40
0.4924321
50
87.3802571
51
90.0251599
0
ARC
8
DEFAULT_255_1_388
10
11.8789976
20
134.4667997
40
0.3604218
50
89.3451886
51
108.5744412
0
ARC
8
DEFAULT_255_1_388
10
11.8635968
20
134.5245836
40
0.3007661
50
109.2998307
51
143.3037387
0
ARC
8
DEFAULT_255_1_388
10
11.9493258
20
134.4586584
40
0.4089031
50
143.075267
51
163.1918576
0
ARC
8
DEFAULT_255_1_388
10
12.1689092
20
134.3893652
40
0.6391492
50
162.9375929
51
174.6208776
0
ARC
8
DEFAULT_255_1_388
10
12.4643474
20
134.3569711
40
0.9363344
50
174.342123
51
180.1430283
0
ARC
8
DEFAULT_255_1_388
10
12.3596015
20
134.2226117
40
0.8315986
50
179.6817261
51
189.150555
0
ARC
8
DEFAULT_255_1_388
10
12.0782764
20
134.1757559
40
0.5464044
50
188.9911061
51
203.5772363
0
ARC
8
DEFAULT_255_1_388
10
11.9568056
20
134.1253539
40
0.4149206
50
203.9075402
51
215.1312435
0
ARC
8
DEFAULT_255_1_388
10
11.8529853
20
134.0448907
40
0.2837747
50
213.9071511
51
263.8848919
0
ARC
8
DEFAULT_255_1_388
10
11.8670847
20
134.1331519
40
0.3730641
50
263.1757928
51
270.1031044
0
ARC
8
DEFAULT_255_1_388
10
11.8706926
20
134.2734511
40
0.5133712
50
269.6722503
51
279.0606936
0
ARC
8
DEFAULT_255_1_388
10
11.9007082
20
134.092015
40
0.3294739
50
278.8749101
51
293.6349581
0
ARC
8
DEFAULT_255_1_388
10
11.9367285
20
134.0074251
40
0.2375405
50
293.8553806
51
310.0518171
0
ARC
8
DEFAULT_255_1_388
10
11.9372794
20
134.0004021
40
0.2318463
50
311.0644687
51
332.0111037
0
ARC
8
DEFAULT_255_1_388
10
11.8031468
20
134.0743702
40
0.3850112
50
331.6586806
51
343.2877423
0
ARC
8
DEFAULT_255_1_388
10
11.5710933
20
134.1456806
40
0.6277712
50
343.1446576
51
351.0103568
0
ARC
8
DEFAULT_255_1_388
10
11.4078256
20
134.1756873
40
0.7937327
50
350.71248
51
351.1626997
0
LINE
8
DEFAULT_255_1_388
10
12.5327794
20
134.1224177
11
12.5327794
21
134.134164
0
LINE
8
DEFAULT_255_1_388
10
13.4227904
20
134.1260319
11
13.4227904
21
134.1142856
0
ARC
8
DEFAULT_255_1_388
10
13.1612239
20
134.137804
40
0.628455
50
166.3005265
51
180.3318609
0
ARC
8
DEFAULT_255_1_388
10
13.0641589
20
134.1595267
40
0.52901
50
153.8608648
51
166.0965672
0
ARC
8
DEFAULT_255_1_388
10
12.9892755
20
134.1996652
40
0.4441126
50
135.1317053
51
154.2534962
0
ARC
8
DEFAULT_255_1_388
10
12.9579405
20
134.2273431
40
0.4023863
50
121.7042632
51
134.7771455
0
ARC
8
DEFAULT_255_1_388
10
12.9654837
20
134.2128469
40
0.4186852
50
93.4001111
51
121.5399523
0
ARC
8
DEFAULT_255_1_388
10
12.9761671
20
134.1198759
40
0.5121521
50
89.9706387
51
93.9763381
0
ARC
8
DEFAULT_255_1_388
10
12.9814656
20
134.1638563
40
0.4681988
50
71.3321659
51
90.6162917
0
ARC
8
DEFAULT_255_1_388
10
12.999769
20
134.2316003
40
0.3981841
50
41.1813875
51
70.7072086
0
ARC
8
DEFAULT_255_1_388
10
12.9460406
20
134.182813
40
0.4707474
50
12.1971434
51
41.3446641
0
ARC
8
DEFAULT_255_1_388
10
12.729367
20
134.1312328
40
0.6934429
50
359.5702713
51
12.5803533
0
ARC
8
DEFAULT_255_1_388
10
12.7825986
20
134.1107207
40
0.6402018
50
347.0196754
51
0.3190452
0
ARC
8
DEFAULT_255_1_388
10
12.8904039
20
134.0875189
40
0.5299421
50
334.350439
51
346.8460534
0
ARC
8
DEFAULT_255_1_388
10
12.9855285
20
134.0381244
40
0.4228234
50
310.4228125
51
334.8045131
0
ARC
8
DEFAULT_255_1_388
10
12.9947264
20
134.0309301
40
0.4113892
50
301.8488154
51
310.0972985
0
ARC
8
DEFAULT_255_1_388
10
12.9911004
20
134.0394573
40
0.4205483
50
274.3078723
51
301.6554173
0
ARC
8
DEFAULT_255_1_388
10
12.978646
20
134.1381943
40
0.5199658
50
269.954904
51
274.859116
0
ARC
8
DEFAULT_255_1_388
10
12.9731284
20
134.0818239
40
0.4636233
50
250.8887647
51
270.6313164
0
ARC
8
DEFAULT_255_1_388
10
12.9562444
20
134.0189405
40
0.398705
50
221.1701369
51
250.2227012
0
ARC
8
DEFAULT_255_1_388
10
13.010711
20
134.0685716
40
0.4723796
50
191.6263861
51
221.3526879
0
ARC
8
DEFAULT_255_1_388
10
13.2230955
20
134.1177203
40
0.6903321
50
179.6101251
51
192.0694841
0
ARC
8
DEFAULT_255_1_388
10
13.2707303
20
134.1106681
40
0.5698993
50
179.636304
51
190.6161344
0
ARC
8
DEFAULT_255_1_388
10
13.0859634
20
134.0746635
40
0.3816643
50
190.4136062
51
208.7168709
0
ARC
8
DEFAULT_255_1_388
10
13.0285669
20
134.0461905
40
0.3176572
50
209.187109
51
217.4221816
0
ARC
8
DEFAULT_255_1_388
10
12.9690139
20
133.9937729
40
0.2385702
50
216.1156863
51
265.2575395
0
ARC
8
DEFAULT_255_1_388
10
12.9779175
20
134.0582608
40
0.3035941
50
264.5891546
51
270.0602378
0
ARC
8
DEFAULT_255_1_388
10
12.9816372
20
134.0155539
40
0.2609091
50
269.2532353
51
291.8793864
0
ARC
8
DEFAULT_255_1_388
10
12.9849251
20
133.9955359
40
0.241148
50
292.9269367
51
323.1777736
0
ARC
8
DEFAULT_255_1_388
10
12.9378536
20
134.0368762
40
0.3036446
50
322.25666
51
323.087958
0
ARC
8
DEFAULT_255_1_388
10
12.9075794
20
134.0551332
40
0.3388345
50
323.6941379
51
343.8493587
0
ARC
8
DEFAULT_255_1_388
10
12.730023
20
134.1091698
40
0.5244204
50
343.5746655
51
355.008149
0
ARC
8
DEFAULT_255_1_388
10
12.5041922
20
134.1325797
40
0.7514406
50
354.728272
51
0.1208026
0
ARC
8
DEFAULT_255_1_388
10
12.7030947
20
134.1377947
40
0.5525482
50
359.6235211
51
11.2016685
0
ARC
8
DEFAULT_255_1_388
10
12.8756775
20
134.1733284
40
0.3763527
50
10.9991302
51
30.8317616
0
ARC
8
DEFAULT_255_1_388
10
12.9202078
20
134.1967988
40
0.3260975
50
31.3007463
51
37.395541
0
ARC
8
DEFAULT_255_1_388
10
12.9760798
20
134.2439773
40
0.253082
50
36.5918894
51
62.2439906
0
ARC
8
DEFAULT_255_1_388
10
12.9813089
20
134.2436378
40
0.2509927
50
63.3364883
51
89.7193846
0
ARC
8
DEFAULT_255_1_388
10
12.9764543
20
134.1788375
40
0.3158485
50
88.8962924
51
90.004475
0
ARC
8
DEFAULT_255_1_388
10
12.972897
20
134.2441071
40
0.250604
50
89.1923115
51
114.7099029
0
ARC
8
DEFAULT_255_1_388
10
12.9761312
20
134.2483675
40
0.2481307
50
115.7996284
51
142.2901353
0
ARC
8
DEFAULT_255_1_388
10
13.0229583
20
134.2064752
40
0.310833
50
141.4607507
51
142.383894
0
ARC
8
DEFAULT_255_1_388
10
13.0377434
20
134.1996449
40
0.3267335
50
143.0176473
51
163.2340089
0
ARC
8
DEFAULT_255_1_388
10
13.2152723
20
134.1434553
40
0.5129308
50
162.9446504
51
174.3733893
0
ARC
8
DEFAULT_255_1_388
10
13.4566695
20
134.1163483
40
0.75583
50
174.1225809
51
180.1563667
0
LINE
8
DEFAULT_255_1_388
10
13.6324174
20
134.6139567
11
13.7905412
21
134.6139567
0
LINE
8
DEFAULT_255_1_388
10
13.7905412
20
134.6139567
11
13.7959625
21
134.491072
0
LINE
8
DEFAULT_255_1_388
10
14.4013507
20
134.2823486
11
14.4013507
21
133.6363
0
LINE
8
DEFAULT_255_1_388
10
14.4013507
20
133.6363
11
14.2341913
21
133.6363
0
LINE
8
DEFAULT_255_1_388
10
14.2341913
20
133.6363
11
14.2341913
21
134.2832521
0
LINE
8
DEFAULT_255_1_388
10
13.7995768
20
134.3329482
11
13.7995768
21
133.6363
0
LINE
8
DEFAULT_255_1_388
10
13.7995768
20
133.6363
11
13.6324174
21
133.6363
0
LINE
8
DEFAULT_255_1_388
10
13.6324174
20
133.6363
11
13.6324174
21
134.6139567
0
ARC
8
DEFAULT_255_1_388
10
14.0889925
20
134.2647868
40
0.3702317
50
116.459579
51
142.3237674
0
ARC
8
DEFAULT_255_1_388
10
14.0826204
20
134.2624216
40
0.3695717
50
89.9344799
51
115.4117431
0
ARC
8
DEFAULT_255_1_388
10
14.0887253
20
134.1707477
40
0.4612803
50
90.0009789
51
90.7058119
0
ARC
8
DEFAULT_255_1_388
10
14.095665
20
134.2404095
40
0.3916802
50
71.6503198
51
91.0163578
0
ARC
8
DEFAULT_255_1_388
10
14.1357715
20
134.3733483
40
0.2529032
50
13.4487463
51
70.7930078
0
ARC
8
DEFAULT_255_1_388
10
13.8768086
20
134.2912303
40
0.5242314
50
1.3250409
51
15.5955556
0
ARC
8
DEFAULT_255_1_388
10
13.6469328
20
134.2766495
40
0.7544396
50
0.4328171
51
2.0283925
0
ARC
8
DEFAULT_255_1_388
10
13.8565531
20
134.282166
40
0.3776398
50
0.1647891
51
8.9343738
0
ARC
8
DEFAULT_255_1_388
10
13.998457
20
134.3052206
40
0.2338783
50
8.7538928
51
22.2899346
0
ARC
8
DEFAULT_255_1_388
10
14.0737001
20
134.3362479
40
0.1524893
50
22.2261896
51
42.6534349
0
ARC
8
DEFAULT_255_1_388
10
14.0808042
20
134.3389551
40
0.1454574
50
43.7652806
51
71.277358
0
ARC
8
DEFAULT_255_1_388
10
14.0521605
20
134.2594698
40
0.2299367
50
70.8751244
51
84.317538
0
ARC
8
DEFAULT_255_1_388
10
14.0390317
20
134.148887
40
0.3412827
50
83.9624774
51
90.1534326
0
ARC
8
DEFAULT_255_1_388
10
14.0359076
20
134.2325668
40
0.2576111
50
89.5084243
51
108.792202
0
ARC
8
DEFAULT_255_1_388
10
14.0288444
20
134.2583171
40
0.2309638
50
109.1912151
51
125.3077659
0
ARC
8
DEFAULT_255_1_388
10
14.0655302
20
134.2064216
40
0.2945169
50
125.2968281
51
154.5573532
0
LINE
8
DEFAULT_255_1_388
10
14.7130805
20
134.8506906
11
14.8802399
21
134.8506906
0
LINE
8
DEFAULT_255_1_388
10
14.8802399
20
134.8506906
11
14.8802399
21
134.6139567
0
LINE
8
DEFAULT_255_1_388
10
14.8802399
20
134.6139567
11
15.0627599
21
134.6139567
0
LINE
8
DEFAULT_255_1_388
10
15.0627599
20
134.6139567
11
15.0627599
21
134.484747
0
LINE
8
DEFAULT_255_1_388
10
15.0627599
20
134.484747
11
14.8802399
21
134.484747
0
LINE
8
DEFAULT_255_1_388
10
14.8802399
20
134.484747
11
14.8802399
21
133.8784553
0
LINE
8
DEFAULT_255_1_388
10
15.0672777
20
133.7718347
11
15.0672777
21
133.6363
0
LINE
8
DEFAULT_255_1_388
10
14.7130805
20
133.8784553
11
14.7130805
21
134.484747
0
LINE
8
DEFAULT_255_1_388
10
14.7130805
20
134.484747
11
14.5350783
21
134.484747
0
LINE
8
DEFAULT_255_1_388
10
14.5350783
20
134.484747
11
14.5350783
21
134.6139567
0
LINE
8
DEFAULT_255_1_388
10
14.5350783
20
134.6139567
11
14.7130805
21
134.6139567
0
LINE
8
DEFAULT_255_1_388
10
14.7130805
20
134.6139567
11
14.7130805
21
134.8506906
0
ARC
8
DEFAULT_255_1_388
10
15.1060906
20
133.8772842
40
0.2258538
50
179.7029045
51
187.9180047
0
ARC
8
DEFAULT_255_1_388
10
15.022148
20
133.8652019
40
0.1410477
50
187.7540838
51
200.2454047
0
ARC
8
DEFAULT_255_1_388
10
14.9748386
20
133.8475591
40
0.0905561
50
200.1304287
51
219.1733455
0
ARC
8
DEFAULT_255_1_388
10
14.9595552
20
133.8371695
40
0.0721626
50
220.4434631
51
249.6169985
0
ARC
8
DEFAULT_255_1_388
10
14.9769779
20
133.8809919
40
0.1193141
50
249.1038184
51
262.7745376
0
ARC
8
DEFAULT_255_1_388
10
14.9868961
20
133.9517481
40
0.1907583
50
262.4921618
51
270.2607019
0
ARC
8
DEFAULT_255_1_388
10
14.9866043
20
133.9759817
40
0.2149929
50
270.309081
51
275.6615459
0
ARC
8
DEFAULT_255_1_388
10
14.970545
20
134.1448342
40
0.3846066
50
275.5607354
51
279.087751
0
ARC
8
DEFAULT_255_1_388
10
14.9333383
20
134.3809428
40
0.6236283
50
279.0369545
51
281.5000133
0
ARC
8
DEFAULT_255_1_388
10
14.8942651
20
134.5786499
40
0.825157
50
281.4217093
51
282.1031556
0
ARC
8
DEFAULT_255_1_388
10
14.9318626
20
134.1243229
40
0.5064619
50
275.2597791
51
285.5081125
0
ARC
8
DEFAULT_255_1_388
10
14.938764
20
134.0617452
40
0.4435166
50
270.0268175
51
275.1130565
0
ARC
8
DEFAULT_255_1_388
10
14.9365091
20
133.9124367
40
0.2942182
50
257.3572424
51
270.4795428
0
ARC
8
DEFAULT_255_1_388
10
14.9125361
20
133.8113952
40
0.1903838
50
230.8036715
51
257.7414447
0
ARC
8
DEFAULT_255_1_388
10
14.9048858
20
133.7990723
40
0.1760087
50
219.9745381
51
230.1985446
0
ARC
8
DEFAULT_255_1_388
10
14.9422145
20
133.8276116
40
0.2229598
50
196.5081334
51
219.4319996
0
ARC
8
DEFAULT_255_1_388
10
15.0564756
20
133.8634617
40
0.3427033
50
184.6408645
51
196.8266009
0
ARC
8
DEFAULT_255_1_388
10
15.1965662
20
133.877601
40
0.4834863
50
179.8987586
51
184.9677262
0
LINE
8
DEFAULT_255_1_388
10
15.730494
20
134.6193781
11
15.730494
21
134.463965
0
LINE
8
DEFAULT_255_1_388
10
15.4250893
20
134.3302375
11
15.4250893
21
133.6363
0
LINE
8
DEFAULT_255_1_388
10
15.4250893
20
133.6363
11
15.2579298
21
133.6363
0
LINE
8
DEFAULT_255_1_388
10
15.2579298
20
133.6363
11
15.2579298
21
134.6139567
0
LINE
8
DEFAULT_255_1_388
10
15.2579298
20
134.6139567
11
15.4205714
21
134.6139567
0
LINE
8
DEFAULT_255_1_388
10
15.4205714
20
134.6139567
11
15.4232821
21
134.5010112
0
ARC
8
DEFAULT_255_1_388
10
15.65551
20
134.0073068
40
0.4627735
50
80.6751522
51
86.893806
0
ARC
8
DEFAULT_255_1_388
10
15.648693
20
133.8981103
40
0.5721798
50
86.8046851
51
90.0423898
0
ARC
8
DEFAULT_255_1_388
10
15.644535
20
134.1748197
40
0.2954939
50
89.2758283
51
106.6212906
0
ARC
8
DEFAULT_255_1_388
10
15.6215374
20
134.2584009
40
0.2088351
50
107.1347109
51
157.6456887
0
ARC
8
DEFAULT_255_1_388
10
15.6983437
20
134.2156908
40
0.296292
50
155.6557383
51
157.256838
0
ARC
8
DEFAULT_255_1_388
10
15.6763051
20
134.3467472
40
0.296341
50
127.8167201
51
148.6300223
0
ARC
8
DEFAULT_255_1_388
10
15.6477798
20
134.3760066
40
0.2557782
50
91.3329934
51
126.7875218
0
ARC
8
DEFAULT_255_1_388
10
15.6563185
20
134.2956718
40
0.3363561
50
89.9858247
51
92.4688453
0
ARC
8
DEFAULT_255_1_388
10
15.6572679
20
134.3265114
40
0.3055179
50
85.3587643
51
90.1624243
0
ARC
8
DEFAULT_255_1_388
10
15.6667744
20
134.4394458
40
0.1921848
50
78.4019195
51
85.4592653
0
ARC
8
DEFAULT_255_1_388
10
15.6830804
20
134.5172142
40
0.1127267
50
67.7849217
51
78.573798
0
ARC
8
DEFAULT_255_1_388
10
15.6952439
20
134.5487374
40
0.0789473
50
63.4805074
51
67.3074739
0
LINE
8
DEFAULT_255_1_388
10
15.8217541
20
134.1224177
11
15.8217541
21
134.134164
0
LINE
8
DEFAULT_255_1_388
10
16.711765
20
134.1260319
11
16.711765
21
134.1142856
0
ARC
8
DEFAULT_255_1_388
10
16.4501985
20
134.137804
40
0.628455
50
166.3005265
51
180.3318609
0
ARC
8
DEFAULT_255_1_388
10
16.3531335
20
134.1595267
40
0.52901
50
153.8608648
51
166.0965672
0
ARC
8
DEFAULT_255_1_388
10
16.2782501
20
134.1996652
40
0.4441126
50
135.1317053
51
154.2534962
0
ARC
8
DEFAULT_255_1_388
10
16.2469151
20
134.2273431
40
0.4023863
50
121.7042632
51
134.7771455
0
ARC
8
DEFAULT_255_1_388
10
16.2544583
20
134.2128469
40
0.4186852
50
93.4001111
51
121.5399523
0
ARC
8
DEFAULT_255_1_388
10
16.2651417
20
134.1198759
40
0.5121521
50
89.9706387
51
93.9763381
0
ARC
8
DEFAULT_255_1_388
10
16.2704402
20
134.1638563
40
0.4681988
50
71.3321659
51
90.6162917
0
ARC
8
DEFAULT_255_1_388
10
16.2887436
20
134.2316003
40
0.3981841
50
41.1813875
51
70.7072086
0
ARC
8
DEFAULT_255_1_388
10
16.2350152
20
134.182813
40
0.4707474
50
12.1971434
51
41.3446641
0
ARC
8
DEFAULT_255_1_388
10
16.0183416
20
134.1312328
40
0.6934429
50
359.5702713
51
12.5803533
0
ARC
8
DEFAULT_255_1_388
10
16.0715732
20
134.1107207
40
0.6402018
50
347.0196754
51
0.3190452
0
ARC
8
DEFAULT_255_1_388
10
16.1793785
20
134.0875189
40
0.5299421
50
334.350439
51
346.8460534
0
ARC
8
DEFAULT_255_1_388
10
16.2745031
20
134.0381244
40
0.4228234
50
310.4228125
51
334.8045131
0
ARC
8
DEFAULT_255_1_388
10
16.283701
20
134.0309301
40
0.4113892
50
301.8488154
51
310.0972985
0
ARC
8
DEFAULT_255_1_388
10
16.280075
20
134.0394573
40
0.4205483
50
274.3078723
51
301.6554173
0
ARC
8
DEFAULT_255_1_388
10
16.2676206
20
134.1381943
40
0.5199658
50
269.954904
51
274.859116
0
ARC
8
DEFAULT_255_1_388
10
16.262103
20
134.0818239
40
0.4636233
50
250.8887647
51
270.6313164
0
ARC
8
DEFAULT_255_1_388
10
16.245219
20
134.0189405
40
0.398705
50
221.1701369
51
250.2227012
0
ARC
8
DEFAULT_255_1_388
10
16.2996856
20
134.0685716
40
0.4723796
50
191.6263861
51
221.3526879
0
ARC
8
DEFAULT_255_1_388
10
16.5120701
20
134.1177203
40
0.6903321
50
179.6101251
51
192.0694841
0
ARC
8
DEFAULT_255_1_388
10
16.5597049
20
134.1106681
40
0.5698993
50
179.636304
51
190.6161344
0
ARC
8
DEFAULT_255_1_388
10
16.374938
20
134.0746635
40
0.3816643
50
190.4136062
51
208.7168709
0
ARC
8
DEFAULT_255_1_388
10
16.3175415
20
134.0461905
40
0.3176572
50
209.187109
51
217.4221816
0
ARC
8
DEFAULT_255_1_388
10
16.2579885
20
133.9937729
40
0.2385702
50
216.1156863
51
265.2575395
0
ARC
8
DEFAULT_255_1_388
10
16.2668921
20
134.0582608
40
0.3035941
50
264.5891546
51
270.0602378
0
ARC
8
DEFAULT_255_1_388
10
16.2706118
20
134.0155539
40
0.2609091
50
269.2532353
51
291.8793864
0
ARC
8
DEFAULT_255_1_388
10
16.2738997
20
133.9955359
40
0.241148
50
292.9269367
51
323.1777736
0
ARC
8
DEFAULT_255_1_388
10
16.2268282
20
134.0368762
40
0.3036446
50
322.25666
51
323.087958
0
ARC
8
DEFAULT_255_1_388
10
16.196554
20
134.0551332
40
0.3388345
50
323.6941379
51
343.8493587
0
ARC
8
DEFAULT_255_1_388
10
16.0189976
20
134.1091698
40
0.5244204
50
343.5746655
51
355.008149
0
ARC
8
DEFAULT_255_1_388
10
15.7931668
20
134.1325797
40
0.7514406
50
354.728272
51
0.1208026
0
ARC
8
DEFAULT_255_1_388
10
15.9920694
20
134.1377947
40
0.5525482
50
359.6235211
51
11.2016685
0
ARC
8
DEFAULT_255_1_388
10
16.1646521
20
134.1733284
40
0.3763527
50
10.9991302
51
30.8317616
0
ARC
8
DEFAULT_255_1_388
10
16.2091824
20
134.1967988
40
0.3260975
50
31.3007463
51
37.395541
0
ARC
8
DEFAULT_255_1_388
10
16.2650544
20
134.2439773
40
0.253082
50
36.5918894
51
62.2439906
0
ARC
8
DEFAULT_255_1_388
10
16.2702835
20
134.2436378
40
0.2509927
50
63.3364883
51
89.7193846
0
ARC
8
DEFAULT_255_1_388
10
16.2654289
20
134.1788375
40
0.3158485
50
88.8962924
51
90.004475
0
ARC
8
DEFAULT_255_1_388
10
16.2618716
20
134.2441071
40
0.250604
50
89.1923115
51
114.7099029
0
ARC
8
DEFAULT_255_1_388
10
16.2651058
20
134.2483675
40
0.2481307
50
115.7996284
51
142.2901353
0
ARC
8
DEFAULT_255_1_388
10
16.3119329
20
134.2064752
40
0.310833
50
141.4607507
51
142.383894
0
ARC
8
DEFAULT_255_1_388
10
16.326718
20
134.1996449
40
0.3267335
50
143.0176473
51
163.2340089
0
ARC
8
DEFAULT_255_1_388
10
16.5042469
20
134.1434553
40
0.5129308
50
162.9446504
51
174.3733893
0
ARC
8
DEFAULT_255_1_388
10
16.7456441
20
134.1163483
40
0.75583
50
174.1225809
51
180.1563667
0
LINE
8
DEFAULT_255_1_388
10
17.1030084
20
135.024175
11
17.1030084
21
133.6363
0
LINE
8
DEFAULT_255_1_388
10
17.1030084
20
133.6363
11
16.935849
21
133.6363
0
LINE
8
DEFAULT_255_1_388
10
16.935849
20
133.6363
11
16.935849
21
135.024175
0
LINE
8
DEFAULT_255_1_388
10
16.935849
20
135.024175
11
17.1030084
21
135.024175
0
LINE
8
DEFAULT_255_1_388
10
17.5710548
20
134.9518898
11
17.5710548
21
133.7781596
0
LINE
8
DEFAULT_255_1_388
10
17.5710548
20
133.7781596
11
18.1945143
21
133.7781596
0
LINE
8
DEFAULT_255_1_388
10
18.1945143
20
133.7781596
11
18.1945143
21
133.6363
0
LINE
8
DEFAULT_255_1_388
10
18.1945143
20
133.6363
11
17.3966669
21
133.6363
0
LINE
8
DEFAULT_255_1_388
10
17.3966669
20
133.6363
11
17.3966669
21
134.9518898
0
LINE
8
DEFAULT_255_1_388
10
17.3966669
20
134.9518898
11
17.5710548
21
134.9518898
0
LINE
8
DEFAULT_255_1_388
10
18.3219169
20
134.1224177
11
18.3219169
21
134.134164
0
LINE
8
DEFAULT_255_1_388
10
19.2119279
20
134.1260319
11
19.2119279
21
134.1142856
0
ARC
8
DEFAULT_255_1_388
10
18.9503613
20
134.137804
40
0.628455
50
166.3005265
51
180.3318609
0
ARC
8
DEFAULT_255_1_388
10
18.8532963
20
134.1595267
40
0.52901
50
153.8608648
51
166.0965672
0
ARC
8
DEFAULT_255_1_388
10
18.7784129
20
134.1996652
40
0.4441126
50
135.1317053
51
154.2534962
0
ARC
8
DEFAULT_255_1_388
10
18.747078
20
134.2273431
40
0.4023863
50
121.7042632
51
134.7771455
0
ARC
8
DEFAULT_255_1_388
10
18.7546212
20
134.2128469
40
0.4186852
50
93.4001111
51
121.5399523
0
ARC
8
DEFAULT_255_1_388
10
18.7653046
20
134.1198759
40
0.5121521
50
89.9706387
51
93.9763381
0
ARC
8
DEFAULT_255_1_388
10
18.770603
20
134.1638563
40
0.4681988
50
71.3321659
51
90.6162917
0
ARC
8
DEFAULT_255_1_388
10
18.7889064
20
134.2316003
40
0.3981841
50
41.1813875
51
70.7072086
0
ARC
8
DEFAULT_255_1_388
10
18.735178
20
134.182813
40
0.4707474
50
12.1971434
51
41.3446641
0
ARC
8
DEFAULT_255_1_388
10
18.5185044
20
134.1312328
40
0.6934429
50
359.5702713
51
12.5803533
0
ARC
8
DEFAULT_255_1_388
10
18.571736
20
134.1107207
40
0.6402018
50
347.0196754
51
0.3190452
0
ARC
8
DEFAULT_255_1_388
10
18.6795413
20
134.0875189
40
0.5299421
50
334.350439
51
346.8460534
0
ARC
8
DEFAULT_255_1_388
10
18.774666
20
134.0381244
40
0.4228234
50
310.4228125
51
334.8045131
0
ARC
8
DEFAULT_255_1_388
10
18.7838638
20
134.0309301
40
0.4113892
50
301.8488154
51
310.0972985
0
ARC
8
DEFAULT_255_1_388
10
18.7802378
20
134.0394573
40
0.4205483
50
274.3078723
51
301.6554173
0
ARC
8
DEFAULT_255_1_388
10
18.7677834
20
134.1381943
40
0.5199658
50
269.954904
51
274.859116
0
ARC
8
DEFAULT_255_1_388
10
18.7622658
20
134.0818239
40
0.4636233
50
250.8887647
51
270.6313164
0
ARC
8
DEFAULT_255_1_388
10
18.7453819
20
134.0189405
40
0.398705
50
221.1701369
51
250.2227012
0
ARC
8
DEFAULT_255_1_388
10
18.7998484
20
134.0685716
40
0.4723796
50
191.6263861
51
221.3526879
0
ARC
8
DEFAULT_255_1_388
10
19.0122329
20
134.1177203
40
0.6903321
50
179.6101251
51
192.0694841
0
ARC
8
DEFAULT_255_1_388
10
19.0598677
20
134.1106681
40
0.5698993
50
179.636304
51
190.6161344
0
ARC
8
DEFAULT_255_1_388
10
18.8751009
20
134.0746635
40
0.3816643
50
190.4136062
51
208.7168709
0
ARC
8
DEFAULT_255_1_388
10
18.8177043
20
134.0461905
40
0.3176572
50
209.187109
51
217.4221816
0
ARC
8
DEFAULT_255_1_388
10
18.7581513
20
133.9937729
40
0.2385702
50
216.1156863
51
265.2575395
0
ARC
8
DEFAULT_255_1_388
10
18.767055
20
134.0582608
40
0.3035941
50
264.5891546
51
270.0602378
0
ARC
8
DEFAULT_255_1_388
10
18.7707746
20
134.0155539
40
0.2609091
50
269.2532353
51
291.8793864
0
ARC
8
DEFAULT_255_1_388
10
18.7740625
20
133.9955359
40
0.241148
50
292.9269367
51
323.1777736
0
ARC
8
DEFAULT_255_1_388
10
18.7269911
20
134.0368762
40
0.3036446
50
322.25666
51
323.087958
0
ARC
8
DEFAULT_255_1_388
10
18.6967168
20
134.0551332
40
0.3388345
50
323.6941379
51
343.8493587
0
ARC
8
DEFAULT_255_1_388
10
18.5191605
20
134.1091698
40
0.5244204
50
343.5746655
51
355.008149
0
ARC
8
DEFAULT_255_1_388
10
18.2933296
20
134.1325797
40
0.7514406
50
354.728272
51
0.1208026
0
ARC
8
DEFAULT_255_1_388
10
18.4922322
20
134.1377947
40
0.5525482
50
359.6235211
51
11.2016685
0
ARC
8
DEFAULT_255_1_388
10
18.6648149
20
134.1733284
40
0.3763527
50
10.9991302
51
30.8317616
0
ARC
8
DEFAULT_255_1_388
10
18.7093453
20
134.1967988
40
0.3260975
50
31.3007463
51
37.395541
0
ARC
8
DEFAULT_255_1_388
10
18.7652172
20
134.2439773
40
0.253082
50
36.5918894
51
62.2439906
0
ARC
8
DEFAULT_255_1_388
10
18.7704464
20
134.2436378
40
0.2509927
50
63.3364883
51
89.7193846
0
ARC
8
DEFAULT_255_1_388
10
18.7655917
20
134.1788375
40
0.3158485
50
88.8962924
51
90.004475
0
ARC
8
DEFAULT_255_1_388
10
18.7620344
20
134.2441071
40
0.250604
50
89.1923115
51
114.7099029
0
ARC
8
DEFAULT_255_1_388
10
18.7652686
20
134.2483675
40
0.2481307
50
115.7996284
51
142.2901353
0
ARC
8
DEFAULT_255_1_388
10
18.8120957
20
134.2064752
40
0.310833
50
141.4607507
51
142.383894
0
ARC
8
DEFAULT_255_1_388
10
18.8268808
20
134.1996449
40
0.3267335
50
143.0176473
51
163.2340089
0
ARC
8
DEFAULT_255_1_388
10
19.0044097
20
134.1434553
40
0.5129308
50
162.9446504
51
174.3733893
0
ARC
8
DEFAULT_255_1_388
10
19.245807
20
134.1163483
40
0.75583
50
174.1225809
51
180.1563667
0
LINE
8
DEFAULT_255_1_388
10
20.0468214
20
134.505529
11
20.0549535
21
134.6139567
0
LINE
8
DEFAULT_255_1_388
10
20.0549535
20
134.6139567
11
20.2076559
21
134.6139567
0
LINE
8
DEFAULT_255_1_388
10
20.2076559
20
134.6139567
11
20.2076559
21
133.6597927
0
LINE
8
DEFAULT_255_1_388
10
19.431494
20
133.4203481
11
19.5182362
21
133.5206438
0
LINE
8
DEFAULT_255_1_388
10
20.0395929
20
133.6498535
11
20.0395929
21
133.733885
0
LINE
8
DEFAULT_255_1_388
10
20.0395929
20
133.9037551
11
20.0395929
21
134.3501159
0
ARC
8
DEFAULT_255_1_388
10
20.1856907
20
134.138122
40
0.8039074
50
169.8802333
51
180.3464902
0
ARC
8
DEFAULT_255_1_388
10
19.9209713
20
134.187287
40
0.5346711
50
152.8534324
51
170.0824729
0
ARC
8
DEFAULT_255_1_388
10
19.8272108
20
134.2316868
40
0.4309932
50
142.0147746
51
152.418569
0
ARC
8
DEFAULT_255_1_388
10
19.7555556
20
134.2969169
40
0.3344504
50
94.3317494
51
143.2674518
0
ARC
8
DEFAULT_255_1_388
10
19.7672415
20
134.2088903
40
0.423138
50
89.9487512
51
95.0093077
0
ARC
8
DEFAULT_255_1_388
10
19.7719213
20
134.2268021
40
0.4052487
50
72.9496911
51
90.6081488
0
ARC
8
DEFAULT_255_1_388
10
19.7949937
20
134.3103718
40
0.3185963
50
37.7743532
51
72.5099202
0
ARC
8
DEFAULT_255_1_388
10
19.6914803
20
133.6554774
40
0.5161937
50
346.3655403
51
0.4789834
0
ARC
8
DEFAULT_255_1_388
10
19.8453636
20
133.6163644
40
0.3574311
50
314.3365584
51
346.6438898
0
ARC
8
DEFAULT_255_1_388
10
19.8338781
20
133.63249
40
0.3770042
50
280.7144
51
313.872307
0
ARC
8
DEFAULT_255_1_388
10
19.7961516
20
133.8006099
40
0.5492378
50
269.6628653
51
281.3208129
0
ARC
8
DEFAULT_255_1_388
10
19.7943176
20
133.7542105
40
0.5028309
50
245.5258654
51
269.8407328
0
ARC
8
DEFAULT_255_1_388
10
19.7514021
20
133.6737065
40
0.4118207
50
232.6664457
51
246.3200328
0
ARC
8
DEFAULT_255_1_388
10
19.6969265
20
133.6014386
40
0.3213227
50
214.3036526
51
232.5750527
0
ARC
8
DEFAULT_255_1_388
10
19.8227297
20
133.7618259
40
0.3884393
50
218.381912
51
236.3657409
0
ARC
8
DEFAULT_255_1_388
10
19.7777067
20
133.6990326
40
0.3112322
50
236.8637655
51
270.6382272
0
ARC
8
DEFAULT_255_1_388
10
19.783875
20
133.7362587
40
0.3484494
50
269.5557858
51
282.3972101
0
ARC
8
DEFAULT_255_1_388
10
19.8104335
20
133.6220767
40
0.2312324
50
282.043923
51
308.3079272
0
ARC
8
DEFAULT_255_1_388
10
19.820045
20
133.606747
40
0.2132542
50
308.8347234
51
315.2037678
0
ARC
8
DEFAULT_255_1_388
10
19.8112159
20
133.6132123
40
0.2240808
50
315.6213011
51
345.6795376
0
ARC
8
DEFAULT_255_1_388
10
19.7010584
20
133.6438736
40
0.3384084
50
345.2627538
51
358.6311244
0
ARC
8
DEFAULT_255_1_388
10
19.601209
20
133.6497581
40
0.4383839
50
358.1739988
51
0.0124651
0
ARC
8
DEFAULT_255_1_388
10
19.7906266
20
133.9491381
40
0.3291173
50
275.6950404
51
319.1537182
0
ARC
8
DEFAULT_255_1_388
10
19.7667897
20
134.0869049
40
0.4686772
50
269.8805882
51
276.9235205
0
ARC
8
DEFAULT_255_1_388
10
19.7608197
20
133.96199
40
0.3437976
50
244.0748846
51
270.8321697
0
ARC
8
DEFAULT_255_1_388
10
19.7692705
20
133.9642423
40
0.3495805
50
217.781776
51
242.9905232
0
ARC
8
DEFAULT_255_1_388
10
19.8368136
20
134.0243567
40
0.4398355
50
217.5209891
51
218.58043
0
ARC
8
DEFAULT_255_1_388
10
19.8683975
20
134.042913
40
0.4762087
50
195.3497149
51
216.9773048
0
ARC
8
DEFAULT_255_1_388
10
20.0959864
20
134.1090667
40
0.7131994
50
183.9387193
51
195.6348167
0
ARC
8
DEFAULT_255_1_388
10
20.3520059
20
134.1320646
40
0.9702086
50
179.929381
51
184.2551265
0
ARC
8
DEFAULT_255_1_388
10
20.2033725
20
134.1108515
40
0.6535206
50
179.6989243
51
188.5749266
0
ARC
8
DEFAULT_255_1_388
10
19.9768916
20
134.0754789
40
0.4242988
50
188.4117627
51
202.0559679
0
ARC
8
DEFAULT_255_1_388
10
19.8679176
20
134.0326952
40
0.3072368
50
202.2924994
51
215.4475859
0
ARC
8
DEFAULT_255_1_388
10
19.7954247
20
133.9765576
40
0.2156547
50
214.4673097
51
264.3362727
0
ARC
8
DEFAULT_255_1_388
10
19.8068915
20
134.0481673
40
0.2880794
50
263.4723224
51
270.0965288
0
ARC
8
DEFAULT_255_1_388
10
19.811415
20
134.0313896
40
0.2713313
50
269.1472473
51
291.7978484
0
ARC
8
DEFAULT_255_1_388
10
19.8184411
20
134.0000081
40
0.2396396
50
293.0243185
51
327.6232391
0
ARC
8
DEFAULT_255_1_388
10
19.7387844
20
134.0582435
40
0.3381603
50
326.5171836
51
332.8160011
0
ARC
8
DEFAULT_255_1_388
10
19.7783026
20
134.2112272
40
0.29591
50
27.9928465
51
47.6314088
0
ARC
8
DEFAULT_255_1_388
10
19.818973
20
134.2499256
40
0.2399437
50
48.5793547
51
88.6245273
0
ARC
8
DEFAULT_255_1_388
10
19.8092849
20
134.1659448
40
0.3242237
50
87.2690754
51
90.0178312
0
ARC
8
DEFAULT_255_1_388
10
19.8060548
20
134.2397957
40
0.2503923
50
89.2839515
51
110.1847982
0
ARC
8
DEFAULT_255_1_388
10
19.7991349
20
134.2697002
40
0.2199699
50
111.180781
51
145.0423499
0
ARC
8
DEFAULT_255_1_388
10
19.835221
20
134.2384759
40
0.2674811
50
143.9895932
51
144.106678
0
ARC
8
DEFAULT_255_1_388
10
19.872228
20
134.216319
40
0.3104736
50
144.7981654
51
162.8715843
0
ARC
8
DEFAULT_255_1_388
10
20.062888
20
134.1550138
40
0.5107383
50
162.598526
51
173.3417416
0
ARC
8
DEFAULT_255_1_388
10
20.3630253
20
134.1177767
40
0.8131718
50
173.1877249
51
180.2459848
0
LINE
8
DEFAULT_255_1_388
10
20.6413668
20
134.6139567
11
20.6413668
21
133.6363
0
LINE
8
DEFAULT_255_1_388
10
20.6413668
20
133.6363
11
20.4742074
21
133.6363
0
LINE
8
DEFAULT_255_1_388
10
20.4742074
20
133.6363
11
20.4742074
21
134.6139567
0
LINE
8
DEFAULT_255_1_388
10
20.4742074
20
134.6139567
11
20.6413668
21
134.6139567
0
ARC
8
DEFAULT_255_1_388
10
20.5707436
20
134.8743428
40
0.1100948
50
161.4148232
51
180.5532607
0
ARC
8
DEFAULT_255_1_388
10
20.5567746
20
134.8781875
40
0.0956324
50
138.1830164
51
160.9307633
0
ARC
8
DEFAULT_255_1_388
10
20.5443933
20
134.8889313
40
0.0792417
50
104.6371663
51
138.0036136
0
ARC
8
DEFAULT_255_1_388
10
20.5564472
20
134.8476963
40
0.1221906
50
92.0601206
51
105.2198859
0
ARC
8
DEFAULT_255_1_388
10
20.5590836
20
134.8088583
40
0.161103
50
89.9790681
51
92.5006086
0
ARC
8
DEFAULT_255_1_388
10
20.5602012
20
134.8344998
40
0.1354654
50
78.0234649
51
90.4478111
0
ARC
8
DEFAULT_255_1_388
10
20.5705597
20
134.8810203
40
0.0878096
50
55.0521508
51
78.336297
0
ARC
8
DEFAULT_255_1_388
10
20.5762131
20
134.8905168
40
0.0767913
50
42.0506198
51
54.4508489
0
ARC
8
DEFAULT_255_1_388
10
20.5610164
20
134.8765821
40
0.0974091
50
1.7493657
51
42.1498724
0
ARC
8
DEFAULT_255_1_388
10
20.532407
20
134.8733166
40
0.1261276
50
359.9832635
51
2.8353994
0
ARC
8
DEFAULT_255_1_388
10
20.551048
20
134.8722412
40
0.1074916
50
342.1062453
51
0.5535864
0
ARC
8
DEFAULT_255_1_388
10
20.5670904
20
134.8678197
40
0.0908695
50
316.7110111
51
341.6513114
0
ARC
8
DEFAULT_255_1_388
10
20.5746336
20
134.8610607
40
0.0807447
50
285.4398289
51
316.5320129
0
ARC
8
DEFAULT_255_1_388
10
20.5622506
20
134.9022023
40
0.1237022
50
272.3543902
51
285.8951677
0
ARC
8
DEFAULT_255_1_388
10
20.5592216
20
134.9437742
40
0.1653687
50
269.9725761
51
272.8112722
0
ARC
8
DEFAULT_255_1_388
10
20.5581268
20
134.9186727
40
0.1402709
50
258.8433431
51
270.4148607
0
ARC
8
DEFAULT_255_1_388
10
20.5480048
20
134.8696739
40
0.0902407
50
238.54281
51
259.1289544
0
ARC
8
DEFAULT_255_1_388
10
20.540337
20
134.8557694
40
0.0743817
50
222.5056676
51
237.9918132
0
ARC
8
DEFAULT_255_1_388
10
20.5546963
20
134.8688295
40
0.0937918
50
184.1070774
51
222.4604165
0
ARC
8
DEFAULT_255_1_388
10
20.5849377
20
134.8731538
40
0.1242838
50
179.9419581
51
185.0970785
0
LINE
8
DEFAULT_255_1_388
10
21.022671
20
134.6139567
11
21.2368158
21
134.2570488
0
LINE
8
DEFAULT_255_1_388
10
21.2368158
20
134.2570488
11
21.4536713
21
134.6139567
0
LINE
8
DEFAULT_255_1_388
10
21.4536713
20
134.6139567
11
21.6488412
21
134.6139567
0
LINE
8
DEFAULT_255_1_388
10
21.6488412
20
134.6139567
11
21.3289794
21
134.1305498
0
LINE
8
DEFAULT_255_1_388
10
21.3289794
20
134.1305498
11
21.6587804
21
133.6363
0
LINE
8
DEFAULT_255_1_388
10
21.6587804
20
133.6363
11
21.4654176
21
133.6363
0
LINE
8
DEFAULT_255_1_388
10
21.4654176
20
133.6363
11
21.2395265
21
134.0022436
0
LINE
8
DEFAULT_255_1_388
10
21.2395265
20
134.0022436
11
21.0136354
21
133.6363
0
LINE
8
DEFAULT_255_1_388
10
21.0136354
20
133.6363
11
20.819369
21
133.6363
0
LINE
8
DEFAULT_255_1_388
10
20.819369
20
133.6363
11
21.1491701
21
134.1305498
0
LINE
8
DEFAULT_255_1_388
10
21.1491701
20
134.1305498
11
20.8293083
21
134.6139567
0
LINE
8
DEFAULT_255_1_388
10
20.8293083
20
134.6139567
11
21.022671
21
134.6139567
0
LINE
8
DEFAULT_255_2_778
10
9.3932417
20
124.2218483
11
10.7161417
21
124.2218483
0
LINE
8
DEFAULT_255_2_778
10
10.7161417
20
124.2218483
11
10.7161417
21
67.3364483
0
LINE
8
DEFAULT_255_2_778
10
10.7161417
20
62.0447483
11
10.7161417
21
5.1593483
0
LINE
8
DEFAULT_255_2_778
10
10.7161417
20
5.1593483
11
9.3932417
21
5.1593483
0
LINE
8
DEFAULT_255_2_778
10
9.3932834
20
67.3364333
11
12.0390834
21
67.3364333
0
LINE
8
DEFAULT_255_2_778
10
12.0390834
20
67.3364333
11
12.0390834
21
62.0447333
0
LINE
8
DEFAULT_255_2_778
10
12.0390834
20
62.0447333
11
9.3932834
21
62.0447333
0
LINE
8
DEFAULT_255_2_778
10
9.3932834
20
62.0447333
11
9.3932834
21
67.3364333
0
LINE
8
DEFAULT_255_2_778
10
10.187
20
62.5739666
11
10.187
21
66.8072666
0
LINE
8
DEFAULT_255_2_778
10
9.9224167
20
66.013575
11
10.1870167
21
66.807275
0
LINE
8
DEFAULT_255_2_778
10
10.1870167
20
66.807275
11
10.4516167
21
66.013575
0
LINE
8
DEFAULT_255_2_778
10
10.4516167
20
66.013575
11
9.9224167
21
66.013575
0
LINE
8
DEFAULT_255_2_778
10
11.2453
20
66.8072666
11
11.2453
21
62.5739666
0
LINE
8
DEFAULT_255_2_778
10
10.9807167
20
63.367675
11
11.2453167
21
62.573975
0
LINE
8
DEFAULT_255_2_778
10
11.2453167
20
62.573975
11
11.5099167
21
63.367675
0
LINE
8
DEFAULT_255_2_778
10
11.5099167
20
63.367675
11
10.9807167
21
63.367675
0
LINE
8
DEFAULT_255_2_778
10
19.9765417
20
124.2218483
11
18.6536417
21
124.2218483
0
LINE
8
DEFAULT_255_2_778
10
18.6536417
20
124.2218483
11
18.6536417
21
67.3364483
0
LINE
8
DEFAULT_255_2_778
10
18.6536417
20
62.0447483
11
18.6536417
21
5.1593483
0
LINE
8
DEFAULT_255_2_778
10
18.6536417
20
5.1593483
11
19.9765417
21
5.1593483
0
LINE
8
DEFAULT_255_2_778
10
17.3307834
20
67.3364333
11
19.9765834
21
67.3364333
0
LINE
8
DEFAULT_255_2_778
10
19.9765834
20
67.3364333
11
19.9765834
21
62.0447333
0
LINE
8
DEFAULT_255_2_778
10
19.9765834
20
62.0447333
11
17.3307834
21
62.0447333
0
LINE
8
DEFAULT_255_2_778
10
17.3307834
20
62.0447333
11
17.3307834
21
67.3364333
0
LINE
8
DEFAULT_255_2_778
10
18.1245
20
62.5739666
11
18.1245
21
66.8072666
0
LINE
8
DEFAULT_255_2_778
10
17.8599167
20
66.013575
11
18.1245167
21
66.807275
0
LINE
8
DEFAULT_255_2_778
10
18.1245167
20
66.807275
11
18.3891167
21
66.013575
0
LINE
8
DEFAULT_255_2_778
10
18.3891167
20
66.013575
11
17.8599167
21
66.013575
0
LINE
8
DEFAULT_255_2_778
10
19.1828
20
66.8072666
11
19.1828
21
62.5739666
0
LINE
8
DEFAULT_255_2_778
10
18.9182167
20
63.367675
11
19.1828167
21
62.573975
0
LINE
8
DEFAULT_255_2_778
10
19.1828167
20
62.573975
11
19.4474167
21
63.367675
0
LINE
8
DEFAULT_255_2_778
10
19.4474167
20
63.367675
11
18.9182167
21
63.367675
0
LINE
8
DEFAULT_255_1_388
10
4.8826318
20
131.7883382
11
4.8826318
21
131.6519
0
LINE
8
DEFAULT_255_1_388
10
4.8826318
20
131.6519
11
4.0206313
21
131.6519
0
LINE
8
DEFAULT_255_1_388
10
4.0206313
20
131.6519
11
4.0206313
21
131.7720741
0
LINE
8
DEFAULT_255_1_388
10
4.0206313
20
131.7720741
11
4.4760278
21
132.2780702
0
LINE
8
DEFAULT_255_1_388
10
4.1624909
20
132.5798607
11
3.9953315
21
132.5798607
0
LINE
8
DEFAULT_255_1_388
10
4.5745163
20
132.170546
11
4.2221262
21
131.7883382
0
LINE
8
DEFAULT_255_1_388
10
4.2221262
20
131.7883382
11
4.8826318
21
131.7883382
0
ARC
8
DEFAULT_255_1_388
10
2.9584337
20
133.6200983
40
2.0258655
50
318.5132526
51
320.7829045
0
ARC
8
DEFAULT_255_1_388
10
3.5532294
20
133.1359929
40
1.2589638
50
320.7372878
51
323.9739031
0
ARC
8
DEFAULT_255_1_388
10
3.9941226
20
132.8165554
40
0.7145141
50
323.8962701
51
328.64194
0
ARC
8
DEFAULT_255_1_388
10
4.2243484
20
132.6745545
40
0.4440242
50
328.8294576
51
331.7891185
0
ARC
8
DEFAULT_255_1_388
10
4.3365804
20
132.6166374
40
0.3177517
50
331.4254512
51
352.9365785
0
ARC
8
DEFAULT_255_1_388
10
4.3518804
20
132.613205
40
0.3021496
50
353.2257659
51
0.0166158
0
ARC
8
DEFAULT_255_1_388
10
4.3755564
20
132.6157894
40
0.2784847
50
359.486299
51
15.9343185
0
ARC
8
DEFAULT_255_1_388
10
4.4325831
20
132.6311269
40
0.2194403
50
16.1712913
51
43.5286088
0
ARC
8
DEFAULT_255_1_388
10
4.4412776
20
132.6398191
40
0.2071504
50
43.4417391
51
83.1661095
0
ARC
8
DEFAULT_255_1_388
10
4.4261937
20
132.5569316
40
0.2912888
50
82.160179
51
90.1505708
0
ARC
8
DEFAULT_255_1_388
10
4.4226418
20
132.4965279
40
0.3517025
50
89.5460741
51
102.5418361
0
ARC
8
DEFAULT_255_1_388
10
4.3953138
20
132.6124933
40
0.2325748
50
102.1738499
51
129.206123
0
ARC
8
DEFAULT_255_1_388
10
4.3864592
20
132.6264664
40
0.2161591
50
129.72865
51
135.753947
0
ARC
8
DEFAULT_255_1_388
10
4.4001074
20
132.6155728
40
0.2335433
50
136.1757367
51
166.3673339
0
ARC
8
DEFAULT_255_1_388
10
4.5133762
20
132.5852148
40
0.3507873
50
165.9090694
51
178.8684636
0
ARC
8
DEFAULT_255_1_388
10
4.6109534
20
132.5799263
40
0.4484624
50
178.4391136
51
180.0083808
0
ARC
8
DEFAULT_255_1_388
10
4.4530235
20
132.5843197
40
0.4577138
50
163.2878482
51
180.5581842
0
ARC
8
DEFAULT_255_1_388
10
4.3628276
20
132.6091393
40
0.3641968
50
133.4540601
51
162.947111
0
ARC
8
DEFAULT_255_1_388
10
4.3829158
20
132.5877789
40
0.3935189
50
100.7869829
51
133.4382499
0
ARC
8
DEFAULT_255_1_388
10
4.4220403
20
132.4135399
40
0.5720313
50
89.660664
51
101.3702276
0
ARC
8
DEFAULT_255_1_388
10
4.4295012
20
132.4204263
40
0.5651495
50
78.2172678
51
90.412935
0
ARC
8
DEFAULT_255_1_388
10
4.4694478
20
132.6031511
40
0.378122
50
55.9269121
51
78.4888449
0
ARC
8
DEFAULT_255_1_388
10
4.4915193
20
132.6412187
40
0.3342379
50
47.929771
51
55.4049217
0
ARC
8
DEFAULT_255_1_388
10
4.5029723
20
132.6528618
40
0.3179217
50
4.334829
51
48.0560205
0
ARC
8
DEFAULT_255_1_388
10
4.3797525
20
132.6337487
40
0.442341
50
359.9251713
51
5.5971671
0
ARC
8
DEFAULT_255_1_388
10
4.427968
20
132.6400728
40
0.3941854
50
337.8914027
51
358.9967534
0
ARC
8
DEFAULT_255_1_388
10
4.122725
20
132.7578295
40
0.7213271
50
326.9132501
51
338.3508308
0
ARC
8
DEFAULT_255_1_388
10
3.6743362
20
133.0452105
40
1.2538973
50
319.6471833
51
327.0959558
0
ARC
8
DEFAULT_255_1_388
10
3.243002
20
133.401005
40
1.8129975
50
317.2588228
51
319.9045804
0
LINE
8
DEFAULT_255_1_388
10
5.7654143
20
132.9674898
11
5.7654143
21
132.093743
0
LINE
8
DEFAULT_255_1_388
10
5.7654143
20
132.093743
11
5.9479343
21
132.093743
0
LINE
8
DEFAULT_255_1_388
10
5.9479343
20
132.093743
11
5.9479343
21
131.9573048
0
LINE
8
DEFAULT_255_1_388
10
5.9479343
20
131.9573048
11
5.7654143
21
131.9573048
0
LINE
8
DEFAULT_255_1_388
10
5.7654143
20
131.9573048
11
5.7654143
21
131.6519
0
LINE
8
DEFAULT_255_1_388
10
5.7654143
20
131.6519
11
5.5973513
21
131.6519
0
LINE
8
DEFAULT_255_1_388
10
5.5973513
20
131.6519
11
5.5973513
21
131.9573048
0
LINE
8
DEFAULT_255_1_388
10
5.5973513
20
131.9573048
11
4.998288
21
131.9573048
0
LINE
8
DEFAULT_255_1_388
10
4.998288
20
131.9573048
11
4.998288
21
132.0557933
0
LINE
8
DEFAULT_255_1_388
10
4.998288
20
132.0557933
11
5.5874121
21
132.9674898
0
LINE
8
DEFAULT_255_1_388
10
5.5874121
20
132.9674898
11
5.7654143
21
132.9674898
0
LINE
8
DEFAULT_255_1_388
10
5.5774729
20
132.7027455
11
5.1880366
21
132.093743
0
LINE
8
DEFAULT_255_1_388
10
5.1880366
20
132.093743
11
5.5973513
21
132.093743
0
LINE
8
DEFAULT_255_1_388
10
5.5973513
20
132.093743
11
5.5973513
21
132.738888
0
LINE
8
DEFAULT_255_1_388
10
5.5973513
20
132.738888
11
5.5774729
21
132.7027455
0
LINE
8
DEFAULT_255_1_388
10
6.203643
20
132.9674898
11
6.5777187
21
131.8823089
0
LINE
8
DEFAULT_255_1_388
10
6.5777187
20
131.8823089
11
6.9536015
21
132.9674898
0
LINE
8
DEFAULT_255_1_388
10
6.9536015
20
132.9674898
11
7.14335
21
132.9674898
0
LINE
8
DEFAULT_255_1_388
10
7.14335
20
132.9674898
11
6.6554252
21
131.6519
0
LINE
8
DEFAULT_255_1_388
10
6.6554252
20
131.6519
11
6.5018193
21
131.6519
0
LINE
8
DEFAULT_255_1_388
10
6.5018193
20
131.6519
11
6.014798
21
132.9674898
0
LINE
8
DEFAULT_255_1_388
10
6.014798
20
132.9674898
11
6.203643
21
132.9674898
0
LINE
8
DEFAULT_255_1_388
10
4.1838367
20
5.9674898
11
4.1838367
21
4.6519
0
LINE
8
DEFAULT_255_1_388
10
4.1838367
20
4.6519
11
4.0103523
21
4.6519
0
LINE
8
DEFAULT_255_1_388
10
4.0103523
20
4.6519
11
4.0103523
21
5.9674898
0
LINE
8
DEFAULT_255_1_388
10
4.0103523
20
5.9674898
11
4.1838367
21
5.9674898
0
LINE
8
DEFAULT_255_1_388
10
5.0069839
20
5.9738148
11
5.0069839
21
4.6519
0
LINE
8
DEFAULT_255_1_388
10
5.0069839
20
4.6519
11
4.8389209
21
4.6519
0
LINE
8
DEFAULT_255_1_388
10
4.8389209
20
4.6519
11
4.8389209
21
5.765995
0
LINE
8
DEFAULT_255_1_388
10
4.8389209
20
5.765995
11
4.5018914
21
5.6422066
0
LINE
8
DEFAULT_255_1_388
10
4.5018914
20
5.6422066
11
4.5018914
21
5.7940055
0
LINE
8
DEFAULT_255_1_388
10
4.5018914
20
5.7940055
11
4.9807805
21
5.9738148
0
LINE
8
DEFAULT_255_1_388
10
4.9807805
20
5.9738148
11
5.0069839
21
5.9738148
0
LINE
8
DEFAULT_255_1_388
10
5.7072463
20
5.2771666
11
5.5735188
21
5.3115021
0
LINE
8
DEFAULT_255_1_388
10
5.5735188
20
5.3115021
11
5.6403826
21
5.9674898
0
LINE
8
DEFAULT_255_1_388
10
5.6403826
20
5.9674898
11
6.3144417
21
5.9674898
0
LINE
8
DEFAULT_255_1_388
10
6.3144417
20
5.9674898
11
6.3144417
21
5.8129803
0
LINE
8
DEFAULT_255_1_388
10
6.3144417
20
5.8129803
11
5.7822422
21
5.8129803
0
LINE
8
DEFAULT_255_1_388
10
5.7822422
20
5.8129803
11
5.7424854
21
5.4542652
0
LINE
8
DEFAULT_255_1_388
10
5.5265334
20
4.9979652
11
5.6846572
21
4.9979652
0
LINE
8
DEFAULT_255_1_388
10
5.751521
20
5.3133092
11
5.7072463
21
5.2771666
0
ARC
8
DEFAULT_255_1_388
10
5.9511467
20
5.0965241
40
0.4141476
50
93.7181681
51
120.253934
0
ARC
8
DEFAULT_255_1_388
10
5.9617519
20
5.0056284
40
0.5055616
50
89.9660471
51
94.2495185
0
ARC
8
DEFAULT_255_1_388
10
5.9663341
20
5.0719154
40
0.4392953
50
73.8045384
51
90.5585736
0
ARC
8
DEFAULT_255_1_388
10
5.9927599
20
5.168452
40
0.3392225
50
41.3071072
51
73.543002
0
ARC
8
DEFAULT_255_1_388
10
5.9459419
20
5.1281461
40
0.4009977
50
13.5075837
51
41.2174839
0
ARC
8
DEFAULT_255_1_388
10
5.7612516
20
5.0797907
40
0.5918864
50
1.1330171
51
13.8830737
0
ARC
8
DEFAULT_255_1_388
10
5.6016162
20
5.0712522
40
0.7516787
50
359.9925091
51
1.5431298
0
ARC
8
DEFAULT_255_1_388
10
5.7460777
20
5.0666027
40
0.6072343
50
347.8572712
51
0.4294349
0
ARC
8
DEFAULT_255_1_388
10
5.9429912
20
5.0219898
40
0.4053482
50
323.6727442
51
348.1674594
0
ARC
8
DEFAULT_255_1_388
10
5.9760876
20
5.0018175
40
0.3667495
50
316.8171818
51
323.1486802
0
ARC
8
DEFAULT_255_1_388
10
5.983
20
4.9976612
40
0.358869
50
281.839603
51
316.5458142
0
ARC
8
DEFAULT_255_1_388
10
5.9407288
20
5.1726363
40
0.5388223
50
269.5770964
51
282.4214641
0
ARC
8
DEFAULT_255_1_388
10
5.9327208
20
5.148593
40
0.5147801
50
256.2425863
51
270.4486481
0
ARC
8
DEFAULT_255_1_388
10
5.8990736
20
5.0136124
40
0.3756708
50
228.9024379
51
256.33135
0
ARC
8
DEFAULT_255_1_388
10
5.8907716
20
5.0005054
40
0.360344
50
193.7536029
51
228.5272638
0
ARC
8
DEFAULT_255_1_388
10
6.0300281
20
5.0413463
40
0.5053599
50
184.9244437
51
194.4976052
0
ARC
8
DEFAULT_255_1_388
10
6.0516922
20
5.0453722
40
0.3700839
50
187.3596909
51
198.6733728
0
ARC
8
DEFAULT_255_1_388
10
5.9336166
20
5.0044373
40
0.2451195
50
198.4453795
51
217.7945479
0
ARC
8
DEFAULT_255_1_388
10
5.9003338
20
4.9808563
40
0.2043754
50
218.2887146
51
228.5613203
0
ARC
8
DEFAULT_255_1_388
10
5.9113345
20
4.9956902
40
0.2227819
50
228.9652423
51
258.1237049
0
ARC
8
DEFAULT_255_1_388
10
5.9344783
20
5.0947964
40
0.3245374
50
257.7260585
51
270.4013717
0
ARC
8
DEFAULT_255_1_388
10
5.9395281
20
5.0447255
40
0.2744726
50
269.4204315
51
286.420998
0
ARC
8
DEFAULT_255_1_388
10
5.9562336
20
4.9840705
40
0.2115721
50
286.7250065
51
320.6004665
0
ARC
8
DEFAULT_255_1_388
10
5.9131252
20
5.0190527
40
0.2670878
50
320.6712228
51
344.5440474
0
ARC
8
DEFAULT_255_1_388
10
5.7829966
20
5.0572394
40
0.4026927
50
344.241448
51
356.735803
0
ARC
8
DEFAULT_255_1_388
10
5.6426273
20
5.0688656
40
0.5435085
50
356.3547471
51
0.0507222
0
ARC
8
DEFAULT_255_1_388
10
5.7928538
20
5.0723812
40
0.3932934
50
359.5579289
51
12.9534322
0
ARC
8
DEFAULT_255_1_388
10
5.9115378
20
5.1011586
40
0.2711827
50
12.6489751
51
41.608121
0
ARC
8
DEFAULT_255_1_388
10
5.9374538
20
5.1231946
40
0.2371737
50
41.7851122
51
85.9892156
0
ARC
8
DEFAULT_255_1_388
10
5.9235848
20
5.0316738
40
0.3295244
50
84.6965848
51
90.0672125
0
ARC
8
DEFAULT_255_1_388
10
5.9209415
20
4.9565118
40
0.4046926
50
89.6804991
51
99.161352
0
ARC
8
DEFAULT_255_1_388
10
5.8978425
20
5.0945848
40
0.2647044
50
98.9836248
51
113.8905702
0
ARC
8
DEFAULT_255_1_388
10
5.87201
20
5.1555118
40
0.1985386
50
114.195234
51
127.3641866
0
LINE
8
DEFAULT_255_1_388
10
4.3161367
20
13.9049898
11
4.3161367
21
12.5894
0
LINE
8
DEFAULT_255_1_388
10
4.3161367
20
12.5894
11
4.1426523
21
12.5894
0
LINE
8
DEFAULT_255_1_388
10
4.1426523
20
12.5894
11
4.1426523
21
13.9049898
0
LINE
8
DEFAULT_255_1_388
10
4.1426523
20
13.9049898
11
4.3161367
21
13.9049898
0
LINE
8
DEFAULT_255_1_388
10
5.1392839
20
13.9113148
11
5.1392839
21
12.5894
0
LINE
8
DEFAULT_255_1_388
10
5.1392839
20
12.5894
11
4.9712209
21
12.5894
0
LINE
8
DEFAULT_255_1_388
10
4.9712209
20
12.5894
11
4.9712209
21
13.703495
0
LINE
8
DEFAULT_255_1_388
10
4.9712209
20
13.703495
11
4.6341914
21
13.5797066
0
LINE
8
DEFAULT_255_1_388
10
4.6341914
20
13.5797066
11
4.6341914
21
13.7315055
0
LINE
8
DEFAULT_255_1_388
10
4.6341914
20
13.7315055
11
5.1130805
21
13.9113148
0
LINE
8
DEFAULT_255_1_388
10
5.1130805
20
13.9113148
11
5.1392839
21
13.9113148
0
LINE
8
DEFAULT_255_1_388
10
6.3346997
20
13.9049898
11
6.3346997
21
13.031243
0
LINE
8
DEFAULT_255_1_388
10
6.3346997
20
13.031243
11
6.5172197
21
13.031243
0
LINE
8
DEFAULT_255_1_388
10
6.5172197
20
13.031243
11
6.5172197
21
12.8948048
0
LINE
8
DEFAULT_255_1_388
10
6.5172197
20
12.8948048
11
6.3346997
21
12.8948048
0
LINE
8
DEFAULT_255_1_388
10
6.3346997
20
12.8948048
11
6.3346997
21
12.5894
0
LINE
8
DEFAULT_255_1_388
10
6.3346997
20
12.5894
11
6.1666367
21
12.5894
0
LINE
8
DEFAULT_255_1_388
10
6.1666367
20
12.5894
11
6.1666367
21
12.8948048
0
LINE
8
DEFAULT_255_1_388
10
6.1666367
20
12.8948048
11
5.5675734
21
12.8948048
0
LINE
8
DEFAULT_255_1_388
10
5.5675734
20
12.8948048
11
5.5675734
21
12.9932933
0
LINE
8
DEFAULT_255_1_388
10
5.5675734
20
12.9932933
11
6.1566975
21
13.9049898
0
LINE
8
DEFAULT_255_1_388
10
6.1566975
20
13.9049898
11
6.3346997
21
13.9049898
0
LINE
8
DEFAULT_255_1_388
10
6.1467583
20
13.6402455
11
5.757322
21
13.031243
0
LINE
8
DEFAULT_255_1_388
10
5.757322
20
13.031243
11
6.1666367
21
13.031243
0
LINE
8
DEFAULT_255_1_388
10
6.1666367
20
13.031243
11
6.1666367
21
13.676388
0
LINE
8
DEFAULT_255_1_388
10
6.1666367
20
13.676388
11
6.1467583
21
13.6402455
0
LINE
8
DEFAULT_255_1_388
10
4.1838367
20
21.8424898
11
4.1838367
21
20.5269
0
LINE
8
DEFAULT_255_1_388
10
4.1838367
20
20.5269
11
4.0103523
21
20.5269
0
LINE
8
DEFAULT_255_1_388
10
4.0103523
20
20.5269
11
4.0103523
21
21.8424898
0
LINE
8
DEFAULT_255_1_388
10
4.0103523
20
21.8424898
11
4.1838367
21
21.8424898
0
LINE
8
DEFAULT_255_1_388
10
5.0069839
20
21.8488148
11
5.0069839
21
20.5269
0
LINE
8
DEFAULT_255_1_388
10
5.0069839
20
20.5269
11
4.8389209
21
20.5269
0
LINE
8
DEFAULT_255_1_388
10
4.8389209
20
20.5269
11
4.8389209
21
21.640995
0
LINE
8
DEFAULT_255_1_388
10
4.8389209
20
21.640995
11
4.5018914
21
21.5172066
0
LINE
8
DEFAULT_255_1_388
10
4.5018914
20
21.5172066
11
4.5018914
21
21.6690055
0
LINE
8
DEFAULT_255_1_388
10
4.5018914
20
21.6690055
11
4.9807805
21
21.8488148
0
LINE
8
DEFAULT_255_1_388
10
4.9807805
20
21.8488148
11
5.0069839
21
21.8488148
0
LINE
8
DEFAULT_255_1_388
10
5.7397747
20
21.1295775
11
5.7397747
21
21.2660157
0
LINE
8
DEFAULT_255_1_388
10
5.7397747
20
21.2660157
11
5.8653701
21
21.2660157
0
LINE
8
DEFAULT_255_1_388
10
5.6512253
20
21.4973282
11
5.4840659
21
21.4973282
0
LINE
8
DEFAULT_255_1_388
10
5.4723196
20
20.8738687
11
5.6403826
21
20.8738687
0
LINE
8
DEFAULT_255_1_388
10
5.8653701
20
21.1295775
11
5.7397747
21
21.1295775
0
ARC
8
DEFAULT_255_1_388
10
5.8620928
20
21.6476922
40
0.3816905
50
270.491971
51
281.8953028
0
ARC
8
DEFAULT_255_1_388
10
5.8892355
20
21.5237199
40
0.2547877
50
281.6690378
51
301.2943765
0
ARC
8
DEFAULT_255_1_388
10
5.9083806
20
21.4886926
40
0.2149197
50
301.7834992
51
311.754567
0
ARC
8
DEFAULT_255_1_388
10
5.9186847
20
21.477265
40
0.1995326
50
311.7325027
51
354.2803031
0
ARC
8
DEFAULT_255_1_388
10
5.8369263
20
21.491328
40
0.2823461
50
353.0941646
51
0.1174696
0
ARC
8
DEFAULT_255_1_388
10
5.7850821
20
21.4966874
40
0.3342238
50
359.1804452
51
15.0452323
0
ARC
8
DEFAULT_255_1_388
10
5.936488
20
21.5408546
40
0.1765747
50
13.957816
51
77.6713812
0
ARC
8
DEFAULT_255_1_388
10
5.8930115
20
21.3850464
40
0.3381982
50
76.111571
51
90.7028736
0
ARC
8
DEFAULT_255_1_388
10
5.8863527
20
21.415825
40
0.3074046
50
89.5321574
51
103.5319393
0
ARC
8
DEFAULT_255_1_388
10
5.8637911
20
21.5057443
40
0.2147041
50
103.2930114
51
133.5619756
0
ARC
8
DEFAULT_255_1_388
10
5.8587853
20
21.5124351
40
0.2064084
50
133.8349761
51
173.5343225
0
ARC
8
DEFAULT_255_1_388
10
5.940151
20
21.4980144
40
0.2889266
50
172.5097183
51
180.1360699
0
ARC
8
DEFAULT_255_1_388
10
5.8331274
20
21.501888
40
0.3490913
50
155.3483706
51
180.7484035
0
ARC
8
DEFAULT_255_1_388
10
5.827625
20
21.4986519
40
0.3454798
50
131.5745177
51
154.4799474
0
ARC
8
DEFAULT_255_1_388
10
5.8628532
20
21.4630422
40
0.3955058
50
96.9874487
51
131.9690874
0
ARC
8
DEFAULT_255_1_388
10
5.8875425
20
21.3229407
40
0.537622
50
89.8592909
51
97.7827481
0
ARC
8
DEFAULT_255_1_388
10
5.8929534
20
21.293436
40
0.5671399
50
78.3654493
51
90.4132586
0
ARC
8
DEFAULT_255_1_388
10
5.9332175
20
21.4800918
40
0.3762034
50
56.6229818
51
78.6387103
0
ARC
8
DEFAULT_255_1_388
10
5.9574004
20
21.5223846
40
0.3275964
50
47.0254604
51
56.085558
0
ARC
8
DEFAULT_255_1_388
10
5.9596255
20
21.5268189
40
0.3228382
50
10.9207523
51
46.777927
0
ARC
8
DEFAULT_255_1_388
10
5.8061849
20
21.4913401
40
0.4802559
50
359.6364235
51
11.6087615
0
ARC
8
DEFAULT_255_1_388
10
6.0126015
20
21.4896404
40
0.273833
50
332.3549969
51
359.7179765
0
ARC
8
DEFAULT_255_1_388
10
5.9394416
20
21.5243285
40
0.3547505
50
325.2332381
51
332.8746682
0
ARC
8
DEFAULT_255_1_388
10
5.9565998
20
21.5123763
40
0.3338396
50
292.9803892
51
325.2391113
0
ARC
8
DEFAULT_255_1_388
10
5.9255194
20
21.5728679
40
0.4016959
50
292.542178
51
293.6931461
0
ARC
8
DEFAULT_255_1_388
10
5.9698766
20
20.8463036
40
0.372079
50
57.643292
51
72.8626085
0
ARC
8
DEFAULT_255_1_388
10
6.0097601
20
20.9109273
40
0.2961455
50
36.7246661
51
57.4701329
0
ARC
8
DEFAULT_255_1_388
10
6.0084757
20
20.912347
40
0.2963321
50
8.054535
51
36.3561529
0
ARC
8
DEFAULT_255_1_388
10
5.911443
20
20.8949073
40
0.3948682
50
359.8316595
51
8.5873361
0
ARC
8
DEFAULT_255_1_388
10
5.8691904
20
20.889497
40
0.4371398
50
343.9831631
51
0.557075
0
ARC
8
DEFAULT_255_1_388
10
5.9688954
20
20.8621963
40
0.3337749
50
311.6358204
51
343.7652116
0
ARC
8
DEFAULT_255_1_388
10
5.9263207
20
20.9101955
40
0.3979351
50
279.7829743
51
311.625622
0
ARC
8
DEFAULT_255_1_388
10
5.8924343
20
21.0718642
40
0.5630417
50
269.7285092
51
280.3857694
0
ARC
8
DEFAULT_255_1_388
10
5.8854656
20
21.0672241
40
0.5584119
50
256.6827433
51
270.4412869
0
ARC
8
DEFAULT_255_1_388
10
5.8473642
20
20.9114698
40
0.3980715
50
229.4223821
51
256.8554507
0
ARC
8
DEFAULT_255_1_388
10
5.8007196
20
20.8589683
40
0.3278564
50
181.8183354
51
229.6455015
0
ARC
8
DEFAULT_255_1_388
10
5.9176805
20
20.8736825
40
0.4453611
50
179.9760419
51
183.2330638
0
ARC
8
DEFAULT_255_1_388
10
5.8983357
20
20.8713781
40
0.2579652
50
179.4467996
51
196.2871626
0
ARC
8
DEFAULT_255_1_388
10
5.8434811
20
20.8563709
40
0.2011057
50
196.5661293
51
227.7059371
0
ARC
8
DEFAULT_255_1_388
10
5.8619418
20
20.8770155
40
0.2287994
50
227.7653015
51
257.8763321
0
ARC
8
DEFAULT_255_1_388
10
5.8872501
20
20.9830961
40
0.3378385
50
257.4583525
51
270.4267406
0
ARC
8
DEFAULT_255_1_388
10
5.8923751
20
21.015723
40
0.3704652
50
269.5965319
51
280.8788143
0
ARC
8
DEFAULT_255_1_388
10
5.9181979
20
20.8867529
40
0.2389415
50
280.6347277
51
299.8594068
0
ARC
8
DEFAULT_255_1_388
10
5.9396749
20
20.8459736
40
0.19289
50
300.3575552
51
314.5515667
0
ARC
8
DEFAULT_255_1_388
10
5.9303424
20
20.8528025
40
0.204312
50
315.0730962
51
345.0429362
0
ARC
8
DEFAULT_255_1_388
10
5.8264932
20
20.8830539
40
0.31246
50
344.598526
51
357.9270698
0
ARC
8
DEFAULT_255_1_388
10
5.7255237
20
20.8899705
40
0.4136265
50
357.4755098
51
0.0224936
0
ARC
8
DEFAULT_255_1_388
10
5.8408114
20
20.8927099
40
0.2983498
50
359.5051035
51
13.4236939
0
ARC
8
DEFAULT_255_1_388
10
5.9383204
20
20.9176637
40
0.1977186
50
12.9497905
51
48.7550905
0
ARC
8
DEFAULT_255_1_388
10
5.9178126
20
20.8896373
40
0.2323321
50
49.509109
51
72.1832965
0
ARC
8
DEFAULT_255_1_388
10
5.8775594
20
20.7701632
40
0.358397
50
71.9008458
51
84.3555134
0
ARC
8
DEFAULT_255_1_388
10
5.8593989
20
20.6169712
40
0.512641
50
84.019632
51
89.3326067
0
LINE
8
DEFAULT_255_1_388
10
4.1838367
20
29.7799898
11
4.1838367
21
28.4644
0
LINE
8
DEFAULT_255_1_388
10
4.1838367
20
28.4644
11
4.0103523
21
28.4644
0
LINE
8
DEFAULT_255_1_388
10
4.0103523
20
28.4644
11
4.0103523
21
29.7799898
0
LINE
8
DEFAULT_255_1_388
10
4.0103523
20
29.7799898
11
4.1838367
21
29.7799898
0
LINE
8
DEFAULT_255_1_388
10
5.0069839
20
29.7863148
11
5.0069839
21
28.4644
0
LINE
8
DEFAULT_255_1_388
10
5.0069839
20
28.4644
11
4.8389209
21
28.4644
0
LINE
8
DEFAULT_255_1_388
10
4.8389209
20
28.4644
11
4.8389209
21
29.578495
0
LINE
8
DEFAULT_255_1_388
10
4.8389209
20
29.578495
11
4.5018914
21
29.4547066
0
LINE
8
DEFAULT_255_1_388
10
4.5018914
20
29.4547066
11
4.5018914
21
29.6065055
0
LINE
8
DEFAULT_255_1_388
10
4.5018914
20
29.6065055
11
4.9807805
21
29.7863148
0
LINE
8
DEFAULT_255_1_388
10
4.9807805
20
29.7863148
11
5.0069839
21
29.7863148
0
LINE
8
DEFAULT_255_1_388
10
6.3587163
20
28.6008382
11
6.3587163
21
28.4644
0
LINE
8
DEFAULT_255_1_388
10
6.3587163
20
28.4644
11
5.4967158
21
28.4644
0
LINE
8
DEFAULT_255_1_388
10
5.4967158
20
28.4644
11
5.4967158
21
28.5845741
0
LINE
8
DEFAULT_255_1_388
10
5.4967158
20
28.5845741
11
5.9521123
21
29.0905702
0
LINE
8
DEFAULT_255_1_388
10
5.6385754
20
29.3923607
11
5.471416
21
29.3923607
0
LINE
8
DEFAULT_255_1_388
10
6.0506008
20
28.983046
11
5.6982107
21
28.6008382
0
LINE
8
DEFAULT_255_1_388
10
5.6982107
20
28.6008382
11
6.3587163
21
28.6008382
0
ARC
8
DEFAULT_255_1_388
10
4.4345183
20
30.4325983
40
2.0258655
50
318.5132526
51
320.7829045
0
ARC
8
DEFAULT_255_1_388
10
5.029314
20
29.9484929
40
1.2589638
50
320.7372878
51
323.9739031
0
ARC
8
DEFAULT_255_1_388
10
5.4702071
20
29.6290554
40
0.7145141
50
323.8962701
51
328.64194
0
ARC
8
DEFAULT_255_1_388
10
5.7004329
20
29.4870545
40
0.4440242
50
328.8294576
51
331.7891185
0
ARC
8
DEFAULT_255_1_388
10
5.8126649
20
29.4291374
40
0.3177517
50
331.4254512
51
352.9365785
0
ARC
8
DEFAULT_255_1_388
10
5.8279649
20
29.425705
40
0.3021496
50
353.2257659
51
0.0166158
0
ARC
8
DEFAULT_255_1_388
10
5.8516409
20
29.4282894
40
0.2784847
50
359.486299
51
15.9343185
0
ARC
8
DEFAULT_255_1_388
10
5.9086676
20
29.4436269
40
0.2194403
50
16.1712913
51
43.5286088
0
ARC
8
DEFAULT_255_1_388
10
5.9173621
20
29.4523191
40
0.2071504
50
43.4417391
51
83.1661095
0
ARC
8
DEFAULT_255_1_388
10
5.9022782
20
29.3694316
40
0.2912888
50
82.160179
51
90.1505708
0
ARC
8
DEFAULT_255_1_388
10
5.8987264
20
29.3090279
40
0.3517025
50
89.5460741
51
102.5418361
0
ARC
8
DEFAULT_255_1_388
10
5.8713984
20
29.4249933
40
0.2325748
50
102.1738499
51
129.206123
0
ARC
8
DEFAULT_255_1_388
10
5.8625437
20
29.4389664
40
0.2161591
50
129.72865
51
135.753947
0
ARC
8
DEFAULT_255_1_388
10
5.8761919
20
29.4280728
40
0.2335433
50
136.1757367
51
166.3673339
0
ARC
8
DEFAULT_255_1_388
10
5.9894608
20
29.3977148
40
0.3507873
50
165.9090694
51
178.8684636
0
ARC
8
DEFAULT_255_1_388
10
6.0870379
20
29.3924263
40
0.4484624
50
178.4391136
51
180.0083808
0
ARC
8
DEFAULT_255_1_388
10
5.9291081
20
29.3968197
40
0.4577138
50
163.2878482
51
180.5581842
0
ARC
8
DEFAULT_255_1_388
10
5.8389122
20
29.4216393
40
0.3641968
50
133.4540601
51
162.947111
0
ARC
8
DEFAULT_255_1_388
10
5.8590003
20
29.4002789
40
0.3935189
50
100.7869829
51
133.4382499
0
ARC
8
DEFAULT_255_1_388
10
5.8981248
20
29.2260399
40
0.5720313
50
89.660664
51
101.3702276
0
ARC
8
DEFAULT_255_1_388
10
5.9055857
20
29.2329263
40
0.5651495
50
78.2172678
51
90.412935
0
ARC
8
DEFAULT_255_1_388
10
5.9455323
20
29.4156511
40
0.378122
50
55.9269121
51
78.4888449
0
ARC
8
DEFAULT_255_1_388
10
5.9676038
20
29.4537187
40
0.3342379
50
47.929771
51
55.4049217
0
ARC
8
DEFAULT_255_1_388
10
5.9790569
20
29.4653618
40
0.3179217
50
4.334829
51
48.0560205
0
ARC
8
DEFAULT_255_1_388
10
5.855837
20
29.4462487
40
0.442341
50
359.9251713
51
5.5971671
0
ARC
8
DEFAULT_255_1_388
10
5.9040525
20
29.4525728
40
0.3941854
50
337.8914027
51
358.9967534
0
ARC
8
DEFAULT_255_1_388
10
5.5988095
20
29.5703295
40
0.7213271
50
326.9132501
51
338.3508308
0
ARC
8
DEFAULT_255_1_388
10
5.1504207
20
29.8577105
40
1.2538973
50
319.6471833
51
327.0959558
0
ARC
8
DEFAULT_255_1_388
10
4.7190865
20
30.213505
40
1.8129975
50
317.2588228
51
319.9045804
0
LINE
8
DEFAULT_255_1_388
10
4.1747367
20
37.7174898
11
4.1747367
21
36.4019
0
LINE
8
DEFAULT_255_1_388
10
4.1747367
20
36.4019
11
4.0012523
21
36.4019
0
LINE
8
DEFAULT_255_1_388
10
4.0012523
20
36.4019
11
4.0012523
21
37.7174898
0
LINE
8
DEFAULT_255_1_388
10
4.0012523
20
37.7174898
11
4.1747367
21
37.7174898
0
LINE
8
DEFAULT_255_1_388
10
4.9978839
20
37.7238148
11
4.9978839
21
36.4019
0
LINE
8
DEFAULT_255_1_388
10
4.9978839
20
36.4019
11
4.8298209
21
36.4019
0
LINE
8
DEFAULT_255_1_388
10
4.8298209
20
36.4019
11
4.8298209
21
37.515995
0
LINE
8
DEFAULT_255_1_388
10
4.8298209
20
37.515995
11
4.4927914
21
37.3922066
0
LINE
8
DEFAULT_255_1_388
10
4.4927914
20
37.3922066
11
4.4927914
21
37.5440055
0
LINE
8
DEFAULT_255_1_388
10
4.4927914
20
37.5440055
11
4.9716805
21
37.7238148
0
LINE
8
DEFAULT_255_1_388
10
4.9716805
20
37.7238148
11
4.9978839
21
37.7238148
0
LINE
8
DEFAULT_255_1_388
10
6.036983
20
37.7238148
11
6.036983
21
36.4019
0
LINE
8
DEFAULT_255_1_388
10
6.036983
20
36.4019
11
5.86892
21
36.4019
0
LINE
8
DEFAULT_255_1_388
10
5.86892
20
36.4019
11
5.86892
21
37.515995
0
LINE
8
DEFAULT_255_1_388
10
5.86892
20
37.515995
11
5.5318905
21
37.3922066
0
LINE
8
DEFAULT_255_1_388
10
5.5318905
20
37.3922066
11
5.5318905
21
37.5440055
0
LINE
8
DEFAULT_255_1_388
10
5.5318905
20
37.5440055
11
6.0107796
21
37.7238148
0
LINE
8
DEFAULT_255_1_388
10
6.0107796
20
37.7238148
11
6.036983
21
37.7238148
0
LINE
8
DEFAULT_255_1_388
10
4.1838367
20
45.6549898
11
4.1838367
21
44.3394
0
LINE
8
DEFAULT_255_1_388
10
4.1838367
20
44.3394
11
4.0103523
21
44.3394
0
LINE
8
DEFAULT_255_1_388
10
4.0103523
20
44.3394
11
4.0103523
21
45.6549898
0
LINE
8
DEFAULT_255_1_388
10
4.0103523
20
45.6549898
11
4.1838367
21
45.6549898
0
LINE
8
DEFAULT_255_1_388
10
5.0069839
20
45.6613148
11
5.0069839
21
44.3394
0
LINE
8
DEFAULT_255_1_388
10
5.0069839
20
44.3394
11
4.8389209
21
44.3394
0
LINE
8
DEFAULT_255_1_388
10
4.8389209
20
44.3394
11
4.8389209
21
45.453495
0
LINE
8
DEFAULT_255_1_388
10
4.8389209
20
45.453495
11
4.5018914
21
45.3297066
0
LINE
8
DEFAULT_255_1_388
10
4.5018914
20
45.3297066
11
4.5018914
21
45.4815055
0
LINE
8
DEFAULT_255_1_388
10
4.5018914
20
45.4815055
11
4.9807805
21
45.6613148
0
LINE
8
DEFAULT_255_1_388
10
4.9807805
20
45.6613148
11
5.0069839
21
45.6613148
0
LINE
8
DEFAULT_255_1_388
10
6.3216702
20
45.117369
11
6.3216702
21
44.9005135
0
LINE
8
DEFAULT_255_1_388
10
5.4912944
20
44.8779244
11
5.4912944
21
45.1011048
0
LINE
8
DEFAULT_255_1_388
10
6.1545107
20
44.8553353
11
6.1545107
21
45.1291153
0
LINE
8
DEFAULT_255_1_388
10
5.6584539
20
45.1417652
11
5.6584539
21
44.8743102
0
ARC
8
DEFAULT_255_1_388
10
4.9439036
20
44.8950118
40
1.3777776
50
353.8440855
51
0.2287917
0
ARC
8
DEFAULT_255_1_388
10
5.4658053
20
44.8367414
40
0.852639
50
344.4934746
51
353.9763743
0
ARC
8
DEFAULT_255_1_388
10
5.802486
20
44.7410191
40
0.5026273
50
329.2803599
51
344.7473406
0
ARC
8
DEFAULT_255_1_388
10
5.9140356
20
44.6798038
40
0.3754848
50
324.9361395
51
328.6153007
0
ARC
8
DEFAULT_255_1_388
10
5.9566006
20
44.6500586
40
0.3235566
50
280.5801797
51
324.9173226
0
ARC
8
DEFAULT_255_1_388
10
5.9114634
20
44.8380236
40
0.5167077
50
269.5979457
51
281.6732777
0
ARC
8
DEFAULT_255_1_388
10
5.9033538
20
44.8245113
40
0.5032026
50
256.6228565
51
270.5105488
0
ARC
8
DEFAULT_255_1_388
10
5.8581281
20
44.6503345
40
0.3233092
50
215.8618351
51
257.2787793
0
ARC
8
DEFAULT_255_1_388
10
5.9729988
20
44.7274106
40
0.4615831
50
197.9695203
51
215.2622745
0
ARC
8
DEFAULT_255_1_388
10
6.2525663
20
44.8217641
40
0.7566307
50
187.8816486
51
198.2346584
0
ARC
8
DEFAULT_255_1_388
10
6.6978902
20
44.8860453
40
1.2065653
50
180.8977266
51
188.0054894
0
ARC
8
DEFAULT_255_1_388
10
7.0029115
20
44.89754
40
1.5117443
50
180.7434591
51
181.152202
0
ARC
8
DEFAULT_255_1_388
10
6.8354111
20
45.1065371
40
1.3441277
50
173.7674302
51
180.2315596
0
ARC
8
DEFAULT_255_1_388
10
6.327198
20
45.1639779
40
0.8326847
50
164.3058537
51
173.9000553
0
ARC
8
DEFAULT_255_1_388
10
5.999598
20
45.2583652
40
0.4917711
50
148.7922028
51
164.5682288
0
ARC
8
DEFAULT_255_1_388
10
5.8926718
20
45.3180457
40
0.3694204
50
144.5883979
51
148.1161588
0
ARC
8
DEFAULT_255_1_388
10
5.8539463
20
45.3450667
40
0.322202
50
101.6440149
51
144.5142619
0
ARC
8
DEFAULT_255_1_388
10
5.9017655
20
45.1550337
40
0.5180451
50
89.528284
51
102.5820197
0
ARC
8
DEFAULT_255_1_388
10
5.9106647
20
45.1506376
40
0.5224441
50
77.0437914
51
90.508231
0
ARC
8
DEFAULT_255_1_388
10
5.9558901
20
45.3354272
40
0.3322297
50
48.2777708
51
77.4996087
0
ARC
8
DEFAULT_255_1_388
10
5.9640641
20
45.3499557
40
0.315966
50
36.3141586
51
47.6307332
0
ARC
8
DEFAULT_255_1_388
10
5.8663363
20
45.2841159
40
0.4337313
50
18.2931065
51
35.6770203
0
ARC
8
DEFAULT_255_1_388
10
5.5802204
20
45.1859107
40
0.7362203
50
8.0246996
51
18.5605636
0
ARC
8
DEFAULT_255_1_388
10
5.1118559
20
45.1167432
40
1.2096583
50
1.127539
51
8.1718423
0
ARC
8
DEFAULT_255_1_388
10
4.7469693
20
45.1024374
40
1.5747719
50
0.5432713
51
1.38669
0
ARC
8
DEFAULT_255_1_388
10
4.9527071
20
45.1331163
40
1.2018103
50
359.8092569
51
4.9408001
0
ARC
8
DEFAULT_255_1_388
10
5.4263653
20
45.17539
40
0.7262727
50
4.8364937
51
12.2906017
0
ARC
8
DEFAULT_255_1_388
10
5.7363117
20
45.2444485
40
0.4087324
50
12.0806994
51
23.8171225
0
ARC
8
DEFAULT_255_1_388
10
5.8683513
20
45.3003508
40
0.2653719
50
24.2874621
51
31.3934353
0
ARC
8
DEFAULT_255_1_388
10
5.9273949
20
45.3389822
40
0.1948607
50
30.7407708
51
82.4658033
0
ARC
8
DEFAULT_255_1_388
10
5.907161
20
45.2396017
40
0.2961198
50
81.1057101
51
90.2187368
0
ARC
8
DEFAULT_255_1_388
10
5.9031422
20
45.2686421
40
0.2670929
50
89.380395
51
105.6763916
0
ARC
8
DEFAULT_255_1_388
10
5.8825144
20
45.343632
40
0.1893189
50
105.7980655
51
149.7387869
0
ARC
8
DEFAULT_255_1_388
10
6.0022284
20
45.2716719
40
0.3289892
50
149.4208441
51
163.628295
0
ARC
8
DEFAULT_255_1_388
10
6.2374514
20
45.1999345
40
0.5749004
50
163.3764549
51
172.141138
0
ARC
8
DEFAULT_255_1_388
10
6.6087235
20
45.1467582
40
0.9499585
50
172.0258462
51
178.0705453
0
ARC
8
DEFAULT_255_1_388
10
6.9508788
20
45.1305682
40
1.2924734
50
177.8639301
51
179.5036263
0
ARC
8
DEFAULT_255_1_388
10
6.8289807
20
44.8702151
40
1.170534
50
179.7995545
51
185.246089
0
ARC
8
DEFAULT_255_1_388
10
6.37414
20
44.8271404
40
0.7136613
50
185.1411911
51
193.0082205
0
ARC
8
DEFAULT_255_1_388
10
6.076766
20
44.7568441
40
0.4080987
50
192.7897338
51
205.2507384
0
ARC
8
DEFAULT_255_1_388
10
5.958987
20
44.7042538
40
0.2791522
50
205.8001921
51
211.2545876
0
ARC
8
DEFAULT_255_1_388
10
5.9001409
20
44.6648132
40
0.2084074
50
210.3789935
51
238.4007996
0
ARC
8
DEFAULT_255_1_388
10
5.8979495
20
44.6700786
40
0.2117943
50
239.6521916
51
265.9793852
0
ARC
8
DEFAULT_255_1_388
10
5.9075344
20
44.7457358
40
0.2879689
50
265.1324455
51
270.0603288
0
ARC
8
DEFAULT_255_1_388
10
5.9107721
20
44.7092418
40
0.2514919
50
269.3314378
51
287.2180039
0
ARC
8
DEFAULT_255_1_388
10
5.9262804
20
44.6526291
40
0.1928357
50
287.7957942
51
329.0808983
0
ARC
8
DEFAULT_255_1_388
10
5.8185561
20
44.7198651
40
0.319808
50
328.6635261
51
343.3325043
0
ARC
8
DEFAULT_255_1_388
10
5.5741019
20
44.7960195
40
0.5758408
50
343.0498092
51
351.9392499
0
ARC
8
DEFAULT_255_1_388
10
5.1840341
20
44.8535205
40
0.9701202
50
351.8071632
51
357.7957897
0
ARC
8
DEFAULT_255_1_388
10
4.8205818
20
44.8723724
40
1.3340376
50
357.5870923
51
359.2682493
0
LINE
8
DEFAULT_255_1_388
10
4.1841367
20
53.5924898
11
4.1841367
21
52.2769
0
LINE
8
DEFAULT_255_1_388
10
4.1841367
20
52.2769
11
4.0106523
21
52.2769
0
LINE
8
DEFAULT_255_1_388
10
4.0106523
20
52.2769
11
4.0106523
21
53.5924898
0
LINE
8
DEFAULT_255_1_388
10
4.0106523
20
53.5924898
11
4.1841367
21
53.5924898
0
LINE
8
DEFAULT_255_1_388
10
5.2666069
20
53.0666153
11
5.2666069
21
53.0178229
0
LINE
8
DEFAULT_255_1_388
10
4.6567009
20
52.2759964
11
4.6241726
21
52.2759964
0
LINE
8
DEFAULT_255_1_388
10
4.6241726
20
52.2759964
11
4.6241726
21
52.4169525
0
LINE
8
DEFAULT_255_1_388
10
4.6241726
20
52.4169525
11
4.6594116
21
52.4169525
0
LINE
8
DEFAULT_255_1_388
10
5.0994475
20
53.034087
11
5.0994475
21
53.1009508
0
ARC
8
DEFAULT_255_1_388
10
4.7851567
20
53.1179877
40
0.4089973
50
297.4036461
51
320.0168133
0
ARC
8
DEFAULT_255_1_388
10
4.8177747
20
53.0553072
40
0.3383378
50
270.2631886
51
297.3852322
0
ARC
8
DEFAULT_255_1_388
10
4.8139423
20
53.1090343
40
0.3920983
50
269.9969069
51
270.7871389
0
ARC
8
DEFAULT_255_1_388
10
4.8110746
20
53.1072737
40
0.3903482
50
254.5997295
51
270.4178147
0
ARC
8
DEFAULT_255_1_388
10
4.7950278
20
53.0437693
40
0.3248657
50
236.4717231
51
254.3539376
0
ARC
8
DEFAULT_255_1_388
10
4.8126009
20
53.0673999
40
0.3542746
50
208.4727261
51
236.2134628
0
ARC
8
DEFAULT_255_1_388
10
4.8844773
20
53.1113676
40
0.4384402
50
204.3450776
51
209.0455365
0
ARC
8
DEFAULT_255_1_388
10
4.9609149
20
53.14378
40
0.5214459
50
183.9375459
51
204.1275509
0
ARC
8
DEFAULT_255_1_388
10
5.0631455
20
53.1547863
40
0.6242037
50
179.9652726
51
184.3010611
0
ARC
8
DEFAULT_255_1_388
10
5.0361
20
53.1585004
40
0.5971675
50
166.7585952
51
180.3200491
0
ARC
8
DEFAULT_255_1_388
10
4.9408808
20
53.1791979
40
0.4997418
50
154.6954866
51
166.5679151
0
ARC
8
DEFAULT_255_1_388
10
4.8449048
20
53.2275411
40
0.3923208
50
136.3325251
51
155.0871367
0
ARC
8
DEFAULT_255_1_388
10
4.8132968
20
53.2546271
40
0.3507618
50
121.2365985
51
135.9680081
0
ARC
8
DEFAULT_255_1_388
10
4.8291032
20
53.2253541
40
0.3839917
50
96.8454764
51
120.9881329
0
ARC
8
DEFAULT_255_1_388
10
4.8454838
20
53.1200942
40
0.4904679
50
89.887204
51
97.2797758
0
ARC
8
DEFAULT_255_1_388
10
4.8513811
20
53.1918652
40
0.418725
50
70.6505767
51
90.6748382
0
ARC
8
DEFAULT_255_1_388
10
4.8661508
20
53.2496091
40
0.3593866
50
36.7493297
51
69.8220487
0
ARC
8
DEFAULT_255_1_388
10
4.7537855
20
53.1620446
40
0.5018201
50
15.3958155
51
37.0841102
0
ARC
8
DEFAULT_255_1_388
10
4.514214
20
53.0922111
40
0.7513436
50
3.9487796
51
15.6798517
0
ARC
8
DEFAULT_255_1_388
10
4.2440782
20
53.067881
40
1.0225293
50
359.9290791
51
4.266464
0
ARC
8
DEFAULT_255_1_388
10
3.7259699
20
53.0103372
40
1.5406551
50
352.8365702
51
0.2783851
0
ARC
8
DEFAULT_255_1_388
10
4.320793
20
52.9330664
40
0.9408425
50
341.8359339
51
352.9884057
0
ARC
8
DEFAULT_255_1_388
10
4.6828917
20
52.8110144
40
0.5587481
50
322.8579243
51
342.1527461
0
ARC
8
DEFAULT_255_1_388
10
4.7800609
20
52.744735
40
0.4413099
50
319.3348471
51
322.100194
0
ARC
8
DEFAULT_255_1_388
10
4.7452541
20
52.7796814
40
0.4904992
50
285.954114
51
318.8878716
0
ARC
8
DEFAULT_255_1_388
10
4.6634978
20
53.0395865
40
0.7628991
50
272.9280841
51
286.4924389
0
ARC
8
DEFAULT_255_1_388
10
4.6421282
20
53.293024
40
1.017132
50
270.8209173
51
273.4010121
0
ARC
8
DEFAULT_255_1_388
10
4.6521305
20
53.0882073
40
0.6712943
50
270.6214576
51
281.4062333
0
ARC
8
DEFAULT_255_1_388
10
4.700503
20
52.856925
40
0.4350167
50
281.1852583
51
299.0622058
0
ARC
8
DEFAULT_255_1_388
10
4.7425275
20
52.7758138
40
0.3437146
50
299.5068171
51
313.1200142
0
ARC
8
DEFAULT_255_1_388
10
4.7450012
20
52.7668959
40
0.3355418
50
313.8525725
51
338.5989631
0
ARC
8
DEFAULT_255_1_388
10
4.562314
20
52.8419576
40
0.5330317
50
338.2523315
51
351.2431701
0
ARC
8
DEFAULT_255_1_388
10
4.2910891
20
52.8880494
40
0.8081235
50
350.940933
51
357.6690137
0
ARC
8
DEFAULT_255_1_388
10
4.8412771
20
53.1133048
40
0.2581236
50
269.9447107
51
306.8249644
0
ARC
8
DEFAULT_255_1_388
10
4.8146073
20
53.160906
40
0.3122948
50
305.5071046
51
327.0773808
0
ARC
8
DEFAULT_255_1_388
10
4.8279125
20
53.1502445
40
0.2953369
50
327.4106457
51
336.8396801
0
ARC
8
DEFAULT_255_1_388
10
4.4798838
20
53.1045932
40
0.6195743
50
359.663158
51
10.1176387
0
ARC
8
DEFAULT_255_1_388
10
4.6771601
20
53.1410922
40
0.4189561
50
9.9431549
51
26.7699242
0
ARC
8
DEFAULT_255_1_388
10
4.7443587
20
53.1720796
40
0.3450125
50
27.2018067
51
34.6833639
0
ARC
8
DEFAULT_255_1_388
10
4.79942
20
53.213456
40
0.2762035
50
34.124913
51
50.30709
0
ARC
8
DEFAULT_255_1_388
10
4.8496683
20
53.2735741
40
0.1978518
50
50.3850304
51
90.6705051
0
ARC
8
DEFAULT_255_1_388
10
4.8444077
20
53.2393074
40
0.2321235
50
89.2729817
51
111.9140267
0
ARC
8
DEFAULT_255_1_388
10
4.8422164
20
53.2551308
40
0.2166604
50
112.9381864
51
142.5320936
0
ARC
8
DEFAULT_255_1_388
10
4.9036653
20
53.2052392
40
0.2957902
50
142.1024021
51
166.3835244
0
ARC
8
DEFAULT_255_1_388
10
5.0365623
20
53.1709213
40
0.4330361
50
166.1100968
51
178.6653563
0
ARC
8
DEFAULT_255_1_388
10
5.1547549
20
53.1643061
40
0.5513642
50
178.2641888
51
180.010994
0
ARC
8
DEFAULT_255_1_388
10
5.064205
20
53.1611136
40
0.4608248
50
179.6162225
51
191.8786013
0
ARC
8
DEFAULT_255_1_388
10
4.926936
20
53.130759
40
0.3202502
50
191.6192934
51
215.2970746
0
ARC
8
DEFAULT_255_1_388
10
4.9030015
20
53.1164963
40
0.2924827
50
215.7258926
51
216.5355437
0
ARC
8
DEFAULT_255_1_388
10
4.8441636
20
53.0691919
40
0.2170661
50
215.7486606
51
239.9728403
0
ARC
8
DEFAULT_255_1_388
10
4.8362801
20
53.0634838
40
0.208217
50
241.065081
51
269.280972
0
ARC
8
DEFAULT_255_1_388
10
4.840996
20
53.1190327
40
0.2638514
50
268.4083352
51
270.0069622
0
LINE
8
DEFAULT_255_1_388
10
4.1841367
20
61.5299898
11
4.1841367
21
60.2144
0
LINE
8
DEFAULT_255_1_388
10
4.1841367
20
60.2144
11
4.0106523
21
60.2144
0
LINE
8
DEFAULT_255_1_388
10
4.0106523
20
60.2144
11
4.0106523
21
61.5299898
0
LINE
8
DEFAULT_255_1_388
10
4.0106523
20
61.5299898
11
4.1841367
21
61.5299898
0
ARC
8
DEFAULT_255_1_388
10
4.9382672
20
61.183772
40
0.3175098
50
338.8762533
51
0.5167111
0
ARC
8
DEFAULT_255_1_388
10
4.9572266
20
61.17866
40
0.2979894
50
325.8415285
51
338.4793574
0
ARC
8
DEFAULT_255_1_388
10
4.91329
20
61.2091242
40
0.351452
50
296.7587686
51
325.7536481
0
ARC
8
DEFAULT_255_1_388
10
4.8804527
20
61.2645363
40
0.4157374
50
296.0927901
51
297.3613472
0
ARC
8
DEFAULT_255_1_388
10
4.9098723
20
60.5262593
40
0.395855
50
47.9007294
51
67.1948823
0
ARC
8
DEFAULT_255_1_388
10
4.9319365
20
60.5539599
40
0.360516
50
35.2363914
51
47.551141
0
ARC
8
DEFAULT_255_1_388
10
4.9613769
20
60.5736093
40
0.3251343
50
359.2759765
51
35.4014143
0
ARC
8
DEFAULT_255_1_388
10
4.8775695
20
60.5653787
40
0.4089365
50
343.1293083
51
0.5775513
0
ARC
8
DEFAULT_255_1_388
10
4.9590809
20
60.5429336
40
0.3244269
50
310.8496669
51
342.7449331
0
ARC
8
DEFAULT_255_1_388
10
4.9120683
20
60.5965913
40
0.3957651
50
281.5472888
51
310.9170406
0
ARC
8
DEFAULT_255_1_388
10
4.8719558
20
60.7712814
40
0.5749654
50
269.619248
51
281.9789564
0
ARC
8
DEFAULT_255_1_388
10
4.8638336
20
60.7713776
40
0.5750649
50
257.4585678
51
270.4285689
0
ARC
8
DEFAULT_255_1_388
10
4.8209856
20
60.5909741
40
0.389671
50
228.7554326
51
257.8484789
0
ARC
8
DEFAULT_255_1_388
10
4.7861341
20
60.5490228
40
0.335154
50
184.0104975
51
228.5071184
0
ARC
8
DEFAULT_255_1_388
10
4.9169734
20
60.568943
40
0.4671891
50
179.9315832
51
185.3253753
0
ARC
8
DEFAULT_255_1_388
10
4.7846246
20
60.5731592
40
0.33486
50
145.6796023
51
180.6259786
0
ARC
8
DEFAULT_255_1_388
10
4.8030012
20
60.5603271
40
0.3572723
50
115.5537685
51
145.6415986
0
ARC
8
DEFAULT_255_1_388
10
4.8413056
20
60.4917087
40
0.4357296
50
113.243307
51
116.2057839
0
ARC
8
DEFAULT_255_1_388
10
4.8241708
20
61.2114379
40
0.3549126
50
222.9549744
51
244.1370481
0
ARC
8
DEFAULT_255_1_388
10
4.8104351
20
61.1960378
40
0.3343711
50
213.3436887
51
222.6274467
0
ARC
8
DEFAULT_255_1_388
10
4.788842
20
61.1813653
40
0.3082678
50
180.431584
51
213.271499
0
ARC
8
DEFAULT_255_1_388
10
4.8523419
20
61.1866296
40
0.3718363
50
179.9991191
51
181.1690594
0
ARC
8
DEFAULT_255_1_388
10
4.8995875
20
61.1905072
40
0.4190996
50
164.6186169
51
180.529336
0
ARC
8
DEFAULT_255_1_388
10
4.7985524
20
61.217678
40
0.3144772
50
132.2455553
51
164.5090724
0
ARC
8
DEFAULT_255_1_388
10
4.8308503
20
61.181107
40
0.3632644
50
100.7053914
51
132.1386381
0
ARC
8
DEFAULT_255_1_388
10
4.8651564
20
61.0261118
40
0.5219578
50
89.6730358
51
101.2451698
0
ARC
8
DEFAULT_255_1_388
10
4.8721555
20
61.0457648
40
0.5023124
50
76.287748
51
90.4586006
0
ARC
8
DEFAULT_255_1_388
10
4.9066057
20
61.1832671
40
0.3605639
50
47.8240511
51
76.4266241
0
ARC
8
DEFAULT_255_1_388
10
4.9316441
20
61.2125599
40
0.3220463
50
6.9168387
51
47.6262497
0
ARC
8
DEFAULT_255_1_388
10
4.7981894
20
61.1879004
40
0.4575765
50
359.8415968
51
7.9697453
0
ARC
8
DEFAULT_255_1_388
10
4.8366164
20
60.5758519
40
0.2827228
50
359.445363
51
16.9256873
0
ARC
8
DEFAULT_255_1_388
10
4.8893598
20
60.5903781
40
0.2280396
50
17.2920767
51
45.4630727
0
ARC
8
DEFAULT_255_1_388
10
4.8832733
20
60.5851324
40
0.2360485
50
45.30305
51
83.1920945
0
ARC
8
DEFAULT_255_1_388
10
4.8671478
20
60.4949473
40
0.3275527
50
82.2612665
51
90.1434275
0
ARC
8
DEFAULT_255_1_388
10
4.8636754
20
60.5211869
40
0.3013237
50
89.4956434
51
104.8580688
0
ARC
8
DEFAULT_255_1_388
10
4.8437944
20
60.5965455
40
0.2233867
50
104.8856641
51
135.244616
0
ARC
8
DEFAULT_255_1_388
10
4.8493933
20
60.5915352
40
0.2308906
50
135.3399546
51
172.1044062
0
ARC
8
DEFAULT_255_1_388
10
4.9401457
20
60.5741667
40
0.3232034
50
171.2645637
51
180.186429
0
ARC
8
DEFAULT_255_1_388
10
4.9211462
20
60.5705426
40
0.304213
50
179.5154935
51
193.6464289
0
ARC
8
DEFAULT_255_1_388
10
4.8293138
20
60.5471473
40
0.209456
50
193.3540274
51
225.8258581
0
ARC
8
DEFAULT_255_1_388
10
4.833901
20
60.5551076
40
0.2183738
50
226.4180634
51
255.8552336
0
ARC
8
DEFAULT_255_1_388
10
4.8627477
20
60.6604521
40
0.3275812
50
255.4654104
51
268.7987425
0
ARC
8
DEFAULT_255_1_388
10
4.8680653
20
60.7546545
40
0.4218877
50
268.3449238
51
270.0094605
0
ARC
8
DEFAULT_255_1_388
10
4.8706886
20
60.6778094
40
0.3450519
50
269.5759586
51
282.0820163
0
ARC
8
DEFAULT_255_1_388
10
4.8959923
20
60.5659363
40
0.2303642
50
281.752014
51
306.6056188
0
ARC
8
DEFAULT_255_1_388
10
4.9070731
20
60.5477802
40
0.2091906
50
307.1346085
51
314.027845
0
ARC
8
DEFAULT_255_1_388
10
4.9030243
20
60.5507459
40
0.2141385
50
314.2552483
51
350.1694025
0
ARC
8
DEFAULT_255_1_388
10
4.807248
20
60.5715175
40
0.312082
50
349.4140529
51
0.2933014
0
ARC
8
DEFAULT_255_1_388
10
4.8657757
20
61.1518924
40
0.2588377
50
89.477747
51
105.729729
0
ARC
8
DEFAULT_255_1_388
10
4.8504677
20
61.2087367
40
0.1999733
50
105.9233417
51
135.1660906
0
ARC
8
DEFAULT_255_1_388
10
4.8527708
20
61.2071412
40
0.2027322
50
135.3052302
51
168.9883645
0
ARC
8
DEFAULT_255_1_388
10
4.9458724
20
61.1857996
40
0.2982129
50
168.3801673
51
180.3602268
0
ARC
8
DEFAULT_255_1_388
10
4.9201841
20
61.1815622
40
0.2725291
50
179.5033122
51
194.9125571
0
ARC
8
DEFAULT_255_1_388
10
4.8543248
20
61.1642427
40
0.204431
50
194.9720816
51
224.194444
0
ARC
8
DEFAULT_255_1_388
10
4.8511613
20
61.1616635
40
0.2003651
50
224.2962453
51
262.015664
0
ARC
8
DEFAULT_255_1_388
10
4.8671617
20
61.2439315
40
0.2840925
50
261.1245923
51
270.1962896
0
ARC
8
DEFAULT_255_1_388
10
4.8705098
20
61.2228859
40
0.2630559
50
269.4827276
51
285.0987215
0
ARC
8
DEFAULT_255_1_388
10
4.8878534
20
61.1578175
40
0.1957162
50
285.1585357
51
315.9484501
0
ARC
8
DEFAULT_255_1_388
10
4.8778408
20
61.1670315
40
0.2093195
50
316.0413965
51
351.916092
0
ARC
8
DEFAULT_255_1_388
10
4.7953782
20
61.1829323
40
0.2932279
50
351.105835
51
0.1939062
0
ARC
8
DEFAULT_255_1_388
10
4.8249416
20
61.1863224
40
0.2636739
50
359.4789618
51
16.0678224
0
ARC
8
DEFAULT_255_1_388
10
4.8784888
20
61.2007721
40
0.2082215
50
16.3252067
51
44.7913869
0
ARC
8
DEFAULT_255_1_388
10
4.876495
20
61.200832
40
0.2095992
50
44.3957814
51
88.2499162
0
ARC
8
DEFAULT_255_1_388
10
4.8682285
20
61.1320006
40
0.2787189
50
86.9833854
51
90.0192215
0
LINE
8
DEFAULT_255_1_388
10
4.1841367
20
69.4674898
11
4.1841367
21
68.1519
0
LINE
8
DEFAULT_255_1_388
10
4.1841367
20
68.1519
11
4.0106523
21
68.1519
0
LINE
8
DEFAULT_255_1_388
10
4.0106523
20
68.1519
11
4.0106523
21
69.4674898
0
LINE
8
DEFAULT_255_1_388
10
4.0106523
20
69.4674898
11
4.1841367
21
69.4674898
0
LINE
8
DEFAULT_255_1_388
10
5.3072673
20
69.4674898
11
5.3072673
21
69.3735191
0
LINE
8
DEFAULT_255_1_388
10
5.3072673
20
69.3735191
11
4.7624179
21
68.1519
0
LINE
8
DEFAULT_255_1_388
10
4.7624179
20
68.1519
11
4.5871264
21
68.1519
0
LINE
8
DEFAULT_255_1_388
10
4.5871264
20
68.1519
11
5.1301687
21
69.330148
0
LINE
8
DEFAULT_255_1_388
10
5.1301687
20
69.330148
11
4.4181599
21
69.330148
0
LINE
8
DEFAULT_255_1_388
10
4.4181599
20
69.330148
11
4.4181599
21
69.4674898
0
LINE
8
DEFAULT_255_1_388
10
4.4181599
20
69.4674898
11
5.3072673
21
69.4674898
0
LINE
8
DEFAULT_255_1_388
10
4.1841367
20
77.4049898
11
4.1841367
21
76.0894
0
LINE
8
DEFAULT_255_1_388
10
4.1841367
20
76.0894
11
4.0106523
21
76.0894
0
LINE
8
DEFAULT_255_1_388
10
4.0106523
20
76.0894
11
4.0106523
21
77.4049898
0
LINE
8
DEFAULT_255_1_388
10
4.0106523
20
77.4049898
11
4.1841367
21
77.4049898
0
LINE
8
DEFAULT_255_1_388
10
5.0840869
20
77.4058934
11
5.1139045
21
77.4058934
0
LINE
8
DEFAULT_255_1_388
10
5.1139045
20
77.4058934
11
5.1139045
21
77.2640338
0
LINE
8
DEFAULT_255_1_388
10
5.1139045
20
77.2640338
11
5.0831833
21
77.2640338
0
LINE
8
DEFAULT_255_1_388
10
4.4678559
20
76.5899747
11
4.4678559
21
76.6541278
0
LINE
8
DEFAULT_255_1_388
10
4.6359189
20
76.6324422
11
4.6359189
21
76.5709999
0
ARC
8
DEFAULT_255_1_388
10
5.0890725
20
76.7017826
40
0.562282
50
90.6001079
51
104.5146616
0
ARC
8
DEFAULT_255_1_388
10
5.0453684
20
76.86431
40
0.3939917
50
104.2855758
51
133.8630124
0
ARC
8
DEFAULT_255_1_388
10
5.0637937
20
76.8521243
40
0.4155734
50
134.5304124
51
161.6210222
0
ARC
8
DEFAULT_255_1_388
10
5.2497869
20
76.7865421
40
0.6127682
50
161.2850533
51
174.2074364
0
ARC
8
DEFAULT_255_1_388
10
5.4087436
20
76.7646437
40
0.7731446
50
173.7817938
51
174.9251711
0
ARC
8
DEFAULT_255_1_388
10
4.8961629
20
76.609127
40
0.3412588
50
95.8332067
51
138.995412
0
ARC
8
DEFAULT_255_1_388
10
4.921291
20
76.4652695
40
0.4870358
50
89.8755506
51
97.0540979
0
ARC
8
DEFAULT_255_1_388
10
4.9266299
20
76.5592841
40
0.3930432
50
71.6407016
51
90.6240821
0
ARC
8
DEFAULT_255_1_388
10
4.9435692
20
76.6216433
40
0.3285421
50
39.6368051
51
71.0190743
0
ARC
8
DEFAULT_255_1_388
10
4.87196
20
76.5597586
40
0.4231706
50
10.6588054
51
39.9044509
0
ARC
8
DEFAULT_255_1_388
10
4.6978145
20
76.5219223
40
0.60133
50
359.6827842
51
11.1326896
0
ARC
8
DEFAULT_255_1_388
10
4.6933481
20
76.5139715
40
0.6058047
50
347.2485908
51
0.4371098
0
ARC
8
DEFAULT_255_1_388
10
4.8809267
20
76.4688379
40
0.4128987
50
318.1408565
51
347.6118497
0
ARC
8
DEFAULT_255_1_388
10
4.9174863
20
76.4387903
40
0.3656244
50
275.6342406
51
317.824739
0
ARC
8
DEFAULT_255_1_388
10
4.8926384
20
76.5849827
40
0.513655
50
269.8872513
51
276.7916069
0
ARC
8
DEFAULT_255_1_388
10
4.8864577
20
76.4696181
40
0.398323
50
246.9139443
51
270.7436787
0
ARC
8
DEFAULT_255_1_388
10
4.8871773
20
76.4536044
40
0.3839368
50
218.1665534
51
245.8780431
0
ARC
8
DEFAULT_255_1_388
10
4.9861145
20
76.5363903
40
0.5128958
50
191.4115343
51
218.6077624
0
ARC
8
DEFAULT_255_1_388
10
5.2041461
20
76.5852777
40
0.7363054
50
179.6344971
51
191.7836758
0
ARC
8
DEFAULT_255_1_388
10
5.8321336
20
76.6616495
40
1.3642984
50
171.4523743
51
180.3158856
0
ARC
8
DEFAULT_255_1_388
10
5.3377063
20
76.7385895
40
0.8639311
50
157.9802296
51
171.6246761
0
ARC
8
DEFAULT_255_1_388
10
5.0886413
20
76.8379038
40
0.5958004
50
141.4299236
51
157.8541251
0
ARC
8
DEFAULT_255_1_388
10
5.0164497
20
76.8889746
40
0.5075416
50
102.871586
51
140.8564533
0
ARC
8
DEFAULT_255_1_388
10
5.0893049
20
76.6144943
40
0.7914163
50
90.377773
51
103.5868422
0
ARC
8
DEFAULT_255_1_388
10
4.8937571
20
76.5464543
40
0.2667015
50
89.8751238
51
126.2072139
0
ARC
8
DEFAULT_255_1_388
10
4.8989042
20
76.5290847
40
0.2838229
50
124.9742447
51
144.8960197
0
ARC
8
DEFAULT_255_1_388
10
4.8791287
20
76.5451981
40
0.2583845
50
145.2974778
51
160.2660922
0
ARC
8
DEFAULT_255_1_388
10
5.2247775
20
76.5674151
40
0.5888695
50
179.6512124
51
190.285571
0
ARC
8
DEFAULT_255_1_388
10
5.0342255
20
76.5314968
40
0.3949683
50
190.0944895
51
207.5099647
0
ARC
8
DEFAULT_255_1_388
10
4.9705836
20
76.5012177
40
0.3245464
50
207.9585471
51
216.325377
0
ARC
8
DEFAULT_255_1_388
10
4.9323473
20
76.4697712
40
0.2751259
50
215.7661336
51
232.5457193
0
ARC
8
DEFAULT_255_1_388
10
4.8892589
20
76.4150273
40
0.2054668
50
232.8005815
51
270.6605497
0
ARC
8
DEFAULT_255_1_388
10
4.8944014
20
76.4559853
40
0.2464268
50
269.3550767
51
288.474612
0
ARC
8
DEFAULT_255_1_388
10
4.9048521
20
76.4166721
40
0.2058436
50
289.1831976
51
322.9685307
0
ARC
8
DEFAULT_255_1_388
10
4.8360622
20
76.4709279
40
0.2934408
50
322.6007085
51
346.5183319
0
ARC
8
DEFAULT_255_1_388
10
4.7058378
20
76.5041434
40
0.4278249
50
346.2584622
51
358.7739592
0
ARC
8
DEFAULT_255_1_388
10
4.5906954
20
76.5103829
40
0.5430876
50
358.3757628
51
0.0082477
0
ARC
8
DEFAULT_255_1_388
10
4.6763772
20
76.5134856
40
0.4574157
50
359.6211417
51
11.28403
0
ARC
8
DEFAULT_255_1_388
10
4.8200378
20
76.5434535
40
0.3106708
50
11.0483152
51
31.8145585
0
ARC
8
DEFAULT_255_1_388
10
4.8548084
20
76.5623045
40
0.2711963
50
32.3028554
51
38.0820598
0
ARC
8
DEFAULT_255_1_388
10
4.9021316
20
76.6051717
40
0.2075566
50
36.8249851
51
85.741667
0
ARC
8
DEFAULT_255_1_388
10
4.8945729
20
76.5488065
40
0.2643487
50
85.0150021
51
90.050843
0
LINE
8
DEFAULT_255_1_388
10
4.1841367
20
85.3424898
11
4.1841367
21
84.0269
0
LINE
8
DEFAULT_255_1_388
10
4.1841367
20
84.0269
11
4.0106523
21
84.0269
0
LINE
8
DEFAULT_255_1_388
10
4.0106523
20
84.0269
11
4.0106523
21
85.3424898
0
LINE
8
DEFAULT_255_1_388
10
4.0106523
20
85.3424898
11
4.1841367
21
85.3424898
0
LINE
8
DEFAULT_255_1_388
10
4.6684472
20
84.6521666
11
4.5347197
21
84.6865021
0
LINE
8
DEFAULT_255_1_388
10
4.5347197
20
84.6865021
11
4.6015834
21
85.3424898
0
LINE
8
DEFAULT_255_1_388
10
4.6015834
20
85.3424898
11
5.2756425
21
85.3424898
0
LINE
8
DEFAULT_255_1_388
10
5.2756425
20
85.3424898
11
5.2756425
21
85.1879803
0
LINE
8
DEFAULT_255_1_388
10
5.2756425
20
85.1879803
11
4.7434431
21
85.1879803
0
LINE
8
DEFAULT_255_1_388
10
4.7434431
20
85.1879803
11
4.7036862
21
84.8292652
0
LINE
8
DEFAULT_255_1_388
10
4.4877343
20
84.3729652
11
4.6458581
21
84.3729652
0
LINE
8
DEFAULT_255_1_388
10
4.7127219
20
84.6883092
11
4.6684472
21
84.6521666
0
ARC
8
DEFAULT_255_1_388
10
4.9123476
20
84.4715241
40
0.4141476
50
93.7181681
51
120.253934
0
ARC
8
DEFAULT_255_1_388
10
4.9229528
20
84.3806284
40
0.5055616
50
89.9660471
51
94.2495185
0
ARC
8
DEFAULT_255_1_388
10
4.927535
20
84.4469154
40
0.4392953
50
73.8045384
51
90.5585736
0
ARC
8
DEFAULT_255_1_388
10
4.9539608
20
84.543452
40
0.3392225
50
41.3071072
51
73.543002
0
ARC
8
DEFAULT_255_1_388
10
4.9071428
20
84.5031461
40
0.4009977
50
13.5075837
51
41.2174839
0
ARC
8
DEFAULT_255_1_388
10
4.7224525
20
84.4547907
40
0.5918864
50
1.1330171
51
13.8830737
0
ARC
8
DEFAULT_255_1_388
10
4.5628171
20
84.4462522
40
0.7516787
50
359.9925091
51
1.5431298
0
ARC
8
DEFAULT_255_1_388
10
4.7072786
20
84.4416027
40
0.6072343
50
347.8572712
51
0.4294349
0
ARC
8
DEFAULT_255_1_388
10
4.904192
20
84.3969898
40
0.4053482
50
323.6727442
51
348.1674594
0
ARC
8
DEFAULT_255_1_388
10
4.9372885
20
84.3768175
40
0.3667495
50
316.8171818
51
323.1486802
0
ARC
8
DEFAULT_255_1_388
10
4.9442009
20
84.3726612
40
0.358869
50
281.839603
51
316.5458142
0
ARC
8
DEFAULT_255_1_388
10
4.9019296
20
84.5476363
40
0.5388223
50
269.5770964
51
282.4214641
0
ARC
8
DEFAULT_255_1_388
10
4.8939217
20
84.523593
40
0.5147801
50
256.2425863
51
270.4486481
0
ARC
8
DEFAULT_255_1_388
10
4.8602745
20
84.3886124
40
0.3756708
50
228.9024379
51
256.33135
0
ARC
8
DEFAULT_255_1_388
10
4.8519725
20
84.3755054
40
0.360344
50
193.7536029
51
228.5272638
0
ARC
8
DEFAULT_255_1_388
10
4.991229
20
84.4163463
40
0.5053599
50
184.9244437
51
194.4976052
0
ARC
8
DEFAULT_255_1_388
10
5.0128931
20
84.4203722
40
0.3700839
50
187.3596909
51
198.6733728
0
ARC
8
DEFAULT_255_1_388
10
4.8948175
20
84.3794373
40
0.2451195
50
198.4453795
51
217.7945479
0
ARC
8
DEFAULT_255_1_388
10
4.8615347
20
84.3558563
40
0.2043754
50
218.2887146
51
228.5613203
0
ARC
8
DEFAULT_255_1_388
10
4.8725354
20
84.3706902
40
0.2227819
50
228.9652423
51
258.1237049
0
ARC
8
DEFAULT_255_1_388
10
4.8956791
20
84.4697964
40
0.3245374
50
257.7260585
51
270.4013717
0
ARC
8
DEFAULT_255_1_388
10
4.9007289
20
84.4197255
40
0.2744726
50
269.4204315
51
286.420998
0
ARC
8
DEFAULT_255_1_388
10
4.9174345
20
84.3590705
40
0.2115721
50
286.7250065
51
320.6004665
0
ARC
8
DEFAULT_255_1_388
10
4.8743261
20
84.3940527
40
0.2670878
50
320.6712228
51
344.5440474
0
ARC
8
DEFAULT_255_1_388
10
4.7441974
20
84.4322394
40
0.4026927
50
344.241448
51
356.735803
0
ARC
8
DEFAULT_255_1_388
10
4.6038282
20
84.4438656
40
0.5435085
50
356.3547471
51
0.0507222
0
ARC
8
DEFAULT_255_1_388
10
4.7540547
20
84.4473812
40
0.3932934
50
359.5579289
51
12.9534322
0
ARC
8
DEFAULT_255_1_388
10
4.8727387
20
84.4761586
40
0.2711827
50
12.6489751
51
41.608121
0
ARC
8
DEFAULT_255_1_388
10
4.8986547
20
84.4981946
40
0.2371737
50
41.7851122
51
85.9892156
0
ARC
8
DEFAULT_255_1_388
10
4.8847857
20
84.4066738
40
0.3295244
50
84.6965848
51
90.0672125
0
ARC
8
DEFAULT_255_1_388
10
4.8821424
20
84.3315118
40
0.4046926
50
89.6804991
51
99.161352
0
ARC
8
DEFAULT_255_1_388
10
4.8590433
20
84.4695848
40
0.2647044
50
98.9836248
51
113.8905702
0
ARC
8
DEFAULT_255_1_388
10
4.8332108
20
84.5305118
40
0.1985386
50
114.195234
51
127.3641866
0
LINE
8
DEFAULT_255_1_388
10
4.3163367
20
93.2799898
11
4.3163367
21
91.9644
0
LINE
8
DEFAULT_255_1_388
10
4.3163367
20
91.9644
11
4.1428523
21
91.9644
0
LINE
8
DEFAULT_255_1_388
10
4.1428523
20
91.9644
11
4.1428523
21
93.2799898
0
LINE
8
DEFAULT_255_1_388
10
4.1428523
20
93.2799898
11
4.3163367
21
93.2799898
0
LINE
8
DEFAULT_255_1_388
10
5.2958005
20
93.2799898
11
5.2958005
21
92.406243
0
LINE
8
DEFAULT_255_1_388
10
5.2958005
20
92.406243
11
5.4783206
21
92.406243
0
LINE
8
DEFAULT_255_1_388
10
5.4783206
20
92.406243
11
5.4783206
21
92.2698048
0
LINE
8
DEFAULT_255_1_388
10
5.4783206
20
92.2698048
11
5.2958005
21
92.2698048
0
LINE
8
DEFAULT_255_1_388
10
5.2958005
20
92.2698048
11
5.2958005
21
91.9644
0
LINE
8
DEFAULT_255_1_388
10
5.2958005
20
91.9644
11
5.1277375
21
91.9644
0
LINE
8
DEFAULT_255_1_388
10
5.1277375
20
91.9644
11
5.1277375
21
92.2698048
0
LINE
8
DEFAULT_255_1_388
10
5.1277375
20
92.2698048
11
4.5286743
21
92.2698048
0
LINE
8
DEFAULT_255_1_388
10
4.5286743
20
92.2698048
11
4.5286743
21
92.3682933
0
LINE
8
DEFAULT_255_1_388
10
4.5286743
20
92.3682933
11
5.1177983
21
93.2799898
0
LINE
8
DEFAULT_255_1_388
10
5.1177983
20
93.2799898
11
5.2958005
21
93.2799898
0
LINE
8
DEFAULT_255_1_388
10
5.1078591
20
93.0152455
11
4.7184229
21
92.406243
0
LINE
8
DEFAULT_255_1_388
10
4.7184229
20
92.406243
11
5.1277375
21
92.406243
0
LINE
8
DEFAULT_255_1_388
10
5.1277375
20
92.406243
11
5.1277375
21
93.051388
0
LINE
8
DEFAULT_255_1_388
10
5.1277375
20
93.051388
11
5.1078591
21
93.0152455
0
LINE
8
DEFAULT_255_1_388
10
4.1841367
20
101.2174898
11
4.1841367
21
99.9019
0
LINE
8
DEFAULT_255_1_388
10
4.1841367
20
99.9019
11
4.0106523
21
99.9019
0
LINE
8
DEFAULT_255_1_388
10
4.0106523
20
99.9019
11
4.0106523
21
101.2174898
0
LINE
8
DEFAULT_255_1_388
10
4.0106523
20
101.2174898
11
4.1841367
21
101.2174898
0
LINE
8
DEFAULT_255_1_388
10
4.7009755
20
100.5045775
11
4.7009755
21
100.6410157
0
LINE
8
DEFAULT_255_1_388
10
4.7009755
20
100.6410157
11
4.826571
21
100.6410157
0
LINE
8
DEFAULT_255_1_388
10
4.6124262
20
100.8723282
11
4.4452668
21
100.8723282
0
LINE
8
DEFAULT_255_1_388
10
4.4335205
20
100.2488688
11
4.6015834
21
100.2488688
0
LINE
8
DEFAULT_255_1_388
10
4.826571
20
100.5045775
11
4.7009755
21
100.5045775
0
ARC
8
DEFAULT_255_1_388
10
4.8232936
20
101.0226922
40
0.3816905
50
270.491971
51
281.8953028
0
ARC
8
DEFAULT_255_1_388
10
4.8504363
20
100.8987199
40
0.2547877
50
281.6690378
51
301.2943765
0
ARC
8
DEFAULT_255_1_388
10
4.8695815
20
100.8636926
40
0.2149197
50
301.7834992
51
311.754567
0
ARC
8
DEFAULT_255_1_388
10
4.8798856
20
100.852265
40
0.1995326
50
311.7325027
51
354.2803031
0
ARC
8
DEFAULT_255_1_388
10
4.7981272
20
100.866328
40
0.2823461
50
353.0941646
51
0.1174696
0
ARC
8
DEFAULT_255_1_388
10
4.746283
20
100.8716874
40
0.3342238
50
359.1804452
51
15.0452323
0
ARC
8
DEFAULT_255_1_388
10
4.8976888
20
100.9158546
40
0.1765747
50
13.957816
51
77.6713812
0
ARC
8
DEFAULT_255_1_388
10
4.8542124
20
100.7600464
40
0.3381982
50
76.111571
51
90.7028736
0
ARC
8
DEFAULT_255_1_388
10
4.8475536
20
100.790825
40
0.3074046
50
89.5321574
51
103.5319393
0
ARC
8
DEFAULT_255_1_388
10
4.824992
20
100.8807443
40
0.2147041
50
103.2930114
51
133.5619756
0
ARC
8
DEFAULT_255_1_388
10
4.8199861
20
100.8874351
40
0.2064084
50
133.8349761
51
173.5343225
0
ARC
8
DEFAULT_255_1_388
10
4.9013519
20
100.8730144
40
0.2889266
50
172.5097183
51
180.1360699
0
ARC
8
DEFAULT_255_1_388
10
4.7943283
20
100.876888
40
0.3490913
50
155.3483706
51
180.7484035
0
ARC
8
DEFAULT_255_1_388
10
4.7888258
20
100.8736519
40
0.3454798
50
131.5745177
51
154.4799474
0
ARC
8
DEFAULT_255_1_388
10
4.8240541
20
100.8380422
40
0.3955058
50
96.9874487
51
131.9690874
0
ARC
8
DEFAULT_255_1_388
10
4.8487434
20
100.6979407
40
0.537622
50
89.8592909
51
97.7827481
0
ARC
8
DEFAULT_255_1_388
10
4.8541543
20
100.668436
40
0.5671399
50
78.3654493
51
90.4132586
0
ARC
8
DEFAULT_255_1_388
10
4.8944184
20
100.8550918
40
0.3762034
50
56.6229818
51
78.6387103
0
ARC
8
DEFAULT_255_1_388
10
4.9186013
20
100.8973846
40
0.3275964
50
47.0254604
51
56.085558
0
ARC
8
DEFAULT_255_1_388
10
4.9208264
20
100.9018189
40
0.3228382
50
10.9207523
51
46.777927
0
ARC
8
DEFAULT_255_1_388
10
4.7673858
20
100.8663401
40
0.4802559
50
359.6364235
51
11.6087615
0
ARC
8
DEFAULT_255_1_388
10
4.9738024
20
100.8646404
40
0.273833
50
332.3549969
51
359.7179765
0
ARC
8
DEFAULT_255_1_388
10
4.9006424
20
100.8993285
40
0.3547505
50
325.2332381
51
332.8746682
0
ARC
8
DEFAULT_255_1_388
10
4.9178007
20
100.8873763
40
0.3338396
50
292.9803892
51
325.2391113
0
ARC
8
DEFAULT_255_1_388
10
4.8867203
20
100.9478679
40
0.4016959
50
292.542178
51
293.6931461
0
ARC
8
DEFAULT_255_1_388
10
4.9310775
20
100.2213036
40
0.372079
50
57.643292
51
72.8626085
0
ARC
8
DEFAULT_255_1_388
10
4.9709609
20
100.2859273
40
0.2961455
50
36.7246661
51
57.4701329
0
ARC
8
DEFAULT_255_1_388
10
4.9696766
20
100.287347
40
0.2963321
50
8.054535
51
36.3561529
0
ARC
8
DEFAULT_255_1_388
10
4.8726439
20
100.2699073
40
0.3948682
50
359.8316595
51
8.5873361
0
ARC
8
DEFAULT_255_1_388
10
4.8303913
20
100.264497
40
0.4371398
50
343.9831631
51
0.557075
0
ARC
8
DEFAULT_255_1_388
10
4.9300962
20
100.2371963
40
0.3337749
50
311.6358204
51
343.7652116
0
ARC
8
DEFAULT_255_1_388
10
4.8875216
20
100.2851955
40
0.3979351
50
279.7829743
51
311.625622
0
ARC
8
DEFAULT_255_1_388
10
4.8536351
20
100.4468642
40
0.5630417
50
269.7285092
51
280.3857694
0
ARC
8
DEFAULT_255_1_388
10
4.8466664
20
100.4422241
40
0.5584119
50
256.6827433
51
270.4412869
0
ARC
8
DEFAULT_255_1_388
10
4.8085651
20
100.2864698
40
0.3980715
50
229.4223821
51
256.8554507
0
ARC
8
DEFAULT_255_1_388
10
4.7619204
20
100.2339683
40
0.3278564
50
181.8183354
51
229.6455015
0
ARC
8
DEFAULT_255_1_388
10
4.8788814
20
100.2486825
40
0.4453611
50
179.9760419
51
183.2330638
0
ARC
8
DEFAULT_255_1_388
10
4.8595366
20
100.2463781
40
0.2579652
50
179.4467996
51
196.2871626
0
ARC
8
DEFAULT_255_1_388
10
4.804682
20
100.2313709
40
0.2011057
50
196.5661293
51
227.7059371
0
ARC
8
DEFAULT_255_1_388
10
4.8231427
20
100.2520155
40
0.2287994
50
227.7653015
51
257.8763321
0
ARC
8
DEFAULT_255_1_388
10
4.848451
20
100.3580961
40
0.3378385
50
257.4583525
51
270.4267406
0
ARC
8
DEFAULT_255_1_388
10
4.853576
20
100.390723
40
0.3704652
50
269.5965319
51
280.8788143
0
ARC
8
DEFAULT_255_1_388
10
4.8793988
20
100.2617529
40
0.2389415
50
280.6347277
51
299.8594068
0
ARC
8
DEFAULT_255_1_388
10
4.9008757
20
100.2209736
40
0.19289
50
300.3575552
51
314.5515667
0
ARC
8
DEFAULT_255_1_388
10
4.8915433
20
100.2278025
40
0.204312
50
315.0730962
51
345.0429362
0
ARC
8
DEFAULT_255_1_388
10
4.7876941
20
100.2580539
40
0.31246
50
344.598526
51
357.9270698
0
ARC
8
DEFAULT_255_1_388
10
4.6867245
20
100.2649705
40
0.4136265
50
357.4755098
51
0.0224936
0
ARC
8
DEFAULT_255_1_388
10
4.8020123
20
100.2677099
40
0.2983498
50
359.5051035
51
13.4236939
0
ARC
8
DEFAULT_255_1_388
10
4.8995213
20
100.2926637
40
0.1977186
50
12.9497905
51
48.7550905
0
ARC
8
DEFAULT_255_1_388
10
4.8790135
20
100.2646373
40
0.2323321
50
49.509109
51
72.1832965
0
ARC
8
DEFAULT_255_1_388
10
4.8387603
20
100.1451632
40
0.358397
50
71.9008458
51
84.3555134
0
ARC
8
DEFAULT_255_1_388
10
4.8205998
20
99.9919712
40
0.512641
50
84.019632
51
89.3326067
0
LINE
8
DEFAULT_255_1_388
10
4.1841367
20
109.1549898
11
4.1841367
21
107.8394
0
LINE
8
DEFAULT_255_1_388
10
4.1841367
20
107.8394
11
4.0106523
21
107.8394
0
LINE
8
DEFAULT_255_1_388
10
4.0106523
20
107.8394
11
4.0106523
21
109.1549898
0
LINE
8
DEFAULT_255_1_388
10
4.0106523
20
109.1549898
11
4.1841367
21
109.1549898
0
LINE
8
DEFAULT_255_1_388
10
5.3199172
20
107.9758382
11
5.3199172
21
107.8394
0
LINE
8
DEFAULT_255_1_388
10
5.3199172
20
107.8394
11
4.4579167
21
107.8394
0
LINE
8
DEFAULT_255_1_388
10
4.4579167
20
107.8394
11
4.4579167
21
107.9595741
0
LINE
8
DEFAULT_255_1_388
10
4.4579167
20
107.9595741
11
4.9133132
21
108.4655702
0
LINE
8
DEFAULT_255_1_388
10
4.5997763
20
108.7673607
11
4.4326169
21
108.7673607
0
LINE
8
DEFAULT_255_1_388
10
5.0118017
20
108.358046
11
4.6594116
21
107.9758382
0
LINE
8
DEFAULT_255_1_388
10
4.6594116
20
107.9758382
11
5.3199172
21
107.9758382
0
ARC
8
DEFAULT_255_1_388
10
3.3957191
20
109.8075983
40
2.0258655
50
318.5132526
51
320.7829045
0
ARC
8
DEFAULT_255_1_388
10
3.9905148
20
109.3234929
40
1.2589638
50
320.7372878
51
323.9739031
0
ARC
8
DEFAULT_255_1_388
10
4.431408
20
109.0040554
40
0.7145141
50
323.8962701
51
328.64194
0
ARC
8
DEFAULT_255_1_388
10
4.6616338
20
108.8620545
40
0.4440242
50
328.8294576
51
331.7891185
0
ARC
8
DEFAULT_255_1_388
10
4.7738658
20
108.8041374
40
0.3177517
50
331.4254512
51
352.9365785
0
ARC
8
DEFAULT_255_1_388
10
4.7891658
20
108.800705
40
0.3021496
50
353.2257659
51
0.0166158
0
ARC
8
DEFAULT_255_1_388
10
4.8128418
20
108.8032894
40
0.2784847
50
359.486299
51
15.9343185
0
ARC
8
DEFAULT_255_1_388
10
4.8698685
20
108.8186269
40
0.2194403
50
16.1712913
51
43.5286088
0
ARC
8
DEFAULT_255_1_388
10
4.878563
20
108.8273191
40
0.2071504
50
43.4417391
51
83.1661095
0
ARC
8
DEFAULT_255_1_388
10
4.8634791
20
108.7444316
40
0.2912888
50
82.160179
51
90.1505708
0
ARC
8
DEFAULT_255_1_388
10
4.8599272
20
108.6840279
40
0.3517025
50
89.5460741
51
102.5418361
0
ARC
8
DEFAULT_255_1_388
10
4.8325992
20
108.7999933
40
0.2325748
50
102.1738499
51
129.206123
0
ARC
8
DEFAULT_255_1_388
10
4.8237446
20
108.8139664
40
0.2161591
50
129.72865
51
135.753947
0
ARC
8
DEFAULT_255_1_388
10
4.8373928
20
108.8030728
40
0.2335433
50
136.1757367
51
166.3673339
0
ARC
8
DEFAULT_255_1_388
10
4.9506616
20
108.7727148
40
0.3507873
50
165.9090694
51
178.8684636
0
ARC
8
DEFAULT_255_1_388
10
5.0482388
20
108.7674263
40
0.4484624
50
178.4391136
51
180.0083808
0
ARC
8
DEFAULT_255_1_388
10
4.8903089
20
108.7718197
40
0.4577138
50
163.2878482
51
180.5581842
0
ARC
8
DEFAULT_255_1_388
10
4.800113
20
108.7966393
40
0.3641968
50
133.4540601
51
162.947111
0
ARC
8
DEFAULT_255_1_388
10
4.8202012
20
108.7752789
40
0.3935189
50
100.7869829
51
133.4382499
0
ARC
8
DEFAULT_255_1_388
10
4.8593257
20
108.6010399
40
0.5720313
50
89.660664
51
101.3702276
0
ARC
8
DEFAULT_255_1_388
10
4.8667866
20
108.6079263
40
0.5651495
50
78.2172678
51
90.412935
0
ARC
8
DEFAULT_255_1_388
10
4.9067332
20
108.7906511
40
0.378122
50
55.9269121
51
78.4888449
0
ARC
8
DEFAULT_255_1_388
10
4.9288047
20
108.8287187
40
0.3342379
50
47.929771
51
55.4049217
0
ARC
8
DEFAULT_255_1_388
10
4.9402577
20
108.8403618
40
0.3179217
50
4.334829
51
48.0560205
0
ARC
8
DEFAULT_255_1_388
10
4.8170379
20
108.8212487
40
0.442341
50
359.9251713
51
5.5971671
0
ARC
8
DEFAULT_255_1_388
10
4.8652534
20
108.8275728
40
0.3941854
50
337.8914027
51
358.9967534
0
ARC
8
DEFAULT_255_1_388
10
4.5600104
20
108.9453295
40
0.7213271
50
326.9132501
51
338.3508308
0
ARC
8
DEFAULT_255_1_388
10
4.1116216
20
109.2327105
40
1.2538973
50
319.6471833
51
327.0959558
0
ARC
8
DEFAULT_255_1_388
10
3.6802874
20
109.588505
40
1.8129975
50
317.2588228
51
319.9045804
0
LINE
8
DEFAULT_255_1_388
10
4.1761367
20
117.0924898
11
4.1761367
21
115.7769
0
LINE
8
DEFAULT_255_1_388
10
4.1761367
20
115.7769
11
4.0026523
21
115.7769
0
LINE
8
DEFAULT_255_1_388
10
4.0026523
20
115.7769
11
4.0026523
21
117.0924898
0
LINE
8
DEFAULT_255_1_388
10
4.0026523
20
117.0924898
11
4.1761367
21
117.0924898
0
LINE
8
DEFAULT_255_1_388
10
4.9992839
20
117.0988148
11
4.9992839
21
115.7769
0
LINE
8
DEFAULT_255_1_388
10
4.9992839
20
115.7769
11
4.8312209
21
115.7769
0
LINE
8
DEFAULT_255_1_388
10
4.8312209
20
115.7769
11
4.8312209
21
116.890995
0
LINE
8
DEFAULT_255_1_388
10
4.8312209
20
116.890995
11
4.4941914
21
116.7672066
0
LINE
8
DEFAULT_255_1_388
10
4.4941914
20
116.7672066
11
4.4941914
21
116.9190055
0
LINE
8
DEFAULT_255_1_388
10
4.4941914
20
116.9190055
11
4.9730805
21
117.0988148
0
LINE
8
DEFAULT_255_1_388
10
4.9730805
20
117.0988148
11
4.9992839
21
117.0988148
0
LINE
8
DEFAULT_255_1_388
10
4.1841367
20
125.0299898
11
4.1841367
21
123.7144
0
LINE
8
DEFAULT_255_1_388
10
4.1841367
20
123.7144
11
4.0106523
21
123.7144
0
LINE
8
DEFAULT_255_1_388
10
4.0106523
20
123.7144
11
4.0106523
21
125.0299898
0
LINE
8
DEFAULT_255_1_388
10
4.0106523
20
125.0299898
11
4.1841367
21
125.0299898
0
LINE
8
DEFAULT_255_1_388
10
5.282871
20
124.492369
11
5.282871
21
124.2755135
0
LINE
8
DEFAULT_255_1_388
10
4.4524953
20
124.2529244
11
4.4524953
21
124.4761048
0
LINE
8
DEFAULT_255_1_388
10
5.1157116
20
124.2303353
11
5.1157116
21
124.5041153
0
LINE
8
DEFAULT_255_1_388
10
4.6196547
20
124.5167652
11
4.6196547
21
124.2493102
0
ARC
8
DEFAULT_255_1_388
10
3.9051044
20
124.2700118
40
1.3777776
50
353.8440855
51
0.2287917
0
ARC
8
DEFAULT_255_1_388
10
4.4270062
20
124.2117414
40
0.852639
50
344.4934746
51
353.9763743
0
ARC
8
DEFAULT_255_1_388
10
4.7636869
20
124.1160191
40
0.5026273
50
329.2803599
51
344.7473406
0
ARC
8
DEFAULT_255_1_388
10
4.8752365
20
124.0548038
40
0.3754848
50
324.9361395
51
328.6153007
0
ARC
8
DEFAULT_255_1_388
10
4.9178015
20
124.0250586
40
0.3235566
50
280.5801797
51
324.9173226
0
ARC
8
DEFAULT_255_1_388
10
4.8726643
20
124.2130236
40
0.5167077
50
269.5979457
51
281.6732777
0
ARC
8
DEFAULT_255_1_388
10
4.8645547
20
124.1995113
40
0.5032026
50
256.6228565
51
270.5105488
0
ARC
8
DEFAULT_255_1_388
10
4.8193289
20
124.0253345
40
0.3233092
50
215.8618351
51
257.2787793
0
ARC
8
DEFAULT_255_1_388
10
4.9341996
20
124.1024106
40
0.4615831
50
197.9695203
51
215.2622745
0
ARC
8
DEFAULT_255_1_388
10
5.2137672
20
124.1967641
40
0.7566307
50
187.8816486
51
198.2346584
0
ARC
8
DEFAULT_255_1_388
10
5.659091
20
124.2610453
40
1.2065653
50
180.8977266
51
188.0054894
0
ARC
8
DEFAULT_255_1_388
10
5.9641124
20
124.27254
40
1.5117443
50
180.7434591
51
181.152202
0
ARC
8
DEFAULT_255_1_388
10
5.796612
20
124.4815371
40
1.3441277
50
173.7674302
51
180.2315596
0
ARC
8
DEFAULT_255_1_388
10
5.2883989
20
124.5389779
40
0.8326847
50
164.3058537
51
173.9000553
0
ARC
8
DEFAULT_255_1_388
10
4.9607989
20
124.6333652
40
0.4917711
50
148.7922028
51
164.5682288
0
ARC
8
DEFAULT_255_1_388
10
4.8538726
20
124.6930457
40
0.3694204
50
144.5883979
51
148.1161588
0
ARC
8
DEFAULT_255_1_388
10
4.8151472
20
124.7200667
40
0.322202
50
101.6440149
51
144.5142619
0
ARC
8
DEFAULT_255_1_388
10
4.8629664
20
124.5300337
40
0.5180451
50
89.528284
51
102.5820197
0
ARC
8
DEFAULT_255_1_388
10
4.8718656
20
124.5256376
40
0.5224441
50
77.0437914
51
90.508231
0
ARC
8
DEFAULT_255_1_388
10
4.9170909
20
124.7104272
40
0.3322297
50
48.2777708
51
77.4996087
0
ARC
8
DEFAULT_255_1_388
10
4.9252649
20
124.7249557
40
0.315966
50
36.3141586
51
47.6307332
0
ARC
8
DEFAULT_255_1_388
10
4.8275372
20
124.6591159
40
0.4337313
50
18.2931065
51
35.6770203
0
ARC
8
DEFAULT_255_1_388
10
4.5414212
20
124.5609107
40
0.7362203
50
8.0246996
51
18.5605636
0
ARC
8
DEFAULT_255_1_388
10
4.0730568
20
124.4917432
40
1.2096583
50
1.127539
51
8.1718423
0
ARC
8
DEFAULT_255_1_388
10
3.7081701
20
124.4774374
40
1.5747719
50
0.5432713
51
1.38669
0
ARC
8
DEFAULT_255_1_388
10
3.913908
20
124.5081163
40
1.2018103
50
359.8092569
51
4.9408001
0
ARC
8
DEFAULT_255_1_388
10
4.3875661
20
124.55039
40
0.7262727
50
4.8364937
51
12.2906017
0
ARC
8
DEFAULT_255_1_388
10
4.6975126
20
124.6194485
40
0.4087324
50
12.0806994
51
23.8171225
0
ARC
8
DEFAULT_255_1_388
10
4.8295522
20
124.6753508
40
0.2653719
50
24.2874621
51
31.3934353
0
ARC
8
DEFAULT_255_1_388
10
4.8885958
20
124.7139822
40
0.1948607
50
30.7407708
51
82.4658033
0
ARC
8
DEFAULT_255_1_388
10
4.8683619
20
124.6146017
40
0.2961198
50
81.1057101
51
90.2187368
0
ARC
8
DEFAULT_255_1_388
10
4.8643431
20
124.6436421
40
0.2670929
50
89.380395
51
105.6763916
0
ARC
8
DEFAULT_255_1_388
10
4.8437153
20
124.718632
40
0.1893189
50
105.7980655
51
149.7387869
0
ARC
8
DEFAULT_255_1_388
10
4.9634293
20
124.6466719
40
0.3289892
50
149.4208441
51
163.628295
0
ARC
8
DEFAULT_255_1_388
10
5.1986522
20
124.5749345
40
0.5749004
50
163.3764549
51
172.141138
0
ARC
8
DEFAULT_255_1_388
10
5.5699244
20
124.5217582
40
0.9499585
50
172.0258462
51
178.0705453
0
ARC
8
DEFAULT_255_1_388
10
5.9120797
20
124.5055682
40
1.2924734
50
177.8639301
51
179.5036263
0
ARC
8
DEFAULT_255_1_388
10
5.7901815
20
124.2452151
40
1.170534
50
179.7995545
51
185.246089
0
ARC
8
DEFAULT_255_1_388
10
5.3353408
20
124.2021404
40
0.7136613
50
185.1411911
51
193.0082205
0
ARC
8
DEFAULT_255_1_388
10
5.0379669
20
124.1318441
40
0.4080987
50
192.7897338
51
205.2507384
0
ARC
8
DEFAULT_255_1_388
10
4.9201879
20
124.0792538
40
0.2791522
50
205.8001921
51
211.2545876
0
ARC
8
DEFAULT_255_1_388
10
4.8613418
20
124.0398132
40
0.2084074
50
210.3789935
51
238.4007996
0
ARC
8
DEFAULT_255_1_388
10
4.8591504
20
124.0450786
40
0.2117943
50
239.6521916
51
265.9793852
0
ARC
8
DEFAULT_255_1_388
10
4.8687353
20
124.1207358
40
0.2879689
50
265.1324455
51
270.0603288
0
ARC
8
DEFAULT_255_1_388
10
4.871973
20
124.0842418
40
0.2514919
50
269.3314378
51
287.2180039
0
ARC
8
DEFAULT_255_1_388
10
4.8874812
20
124.0276291
40
0.1928357
50
287.7957942
51
329.0808983
0
ARC
8
DEFAULT_255_1_388
10
4.7797569
20
124.0948651
40
0.319808
50
328.6635261
51
343.3325043
0
ARC
8
DEFAULT_255_1_388
10
4.5353028
20
124.1710195
40
0.5758408
50
343.0498092
51
351.9392499
0
ARC
8
DEFAULT_255_1_388
10
4.145235
20
124.2285205
40
0.9701202
50
351.8071632
51
357.7957897
0
ARC
8
DEFAULT_255_1_388
10
3.7817827
20
124.2473724
40
1.3340376
50
357.5870923
51
359.2682493
0
LINE
8
DEFAULT_255_1_388
10
23.1190856
20
132.429869
11
23.1190856
21
132.2130135
0
LINE
8
DEFAULT_255_1_388
10
22.2887099
20
132.1904244
11
22.2887099
21
132.4136048
0
LINE
8
DEFAULT_255_1_388
10
22.9519262
20
132.1678353
11
22.9519262
21
132.4416153
0
LINE
8
DEFAULT_255_1_388
10
22.4558693
20
132.4542652
11
22.4558693
21
132.1868102
0
ARC
8
DEFAULT_255_1_388
10
21.741319
20
132.2075118
40
1.3777776
50
353.8440855
51
0.2287917
0
ARC
8
DEFAULT_255_1_388
10
22.2632208
20
132.1492414
40
0.852639
50
344.4934746
51
353.9763743
0
ARC
8
DEFAULT_255_1_388
10
22.5999015
20
132.0535191
40
0.5026273
50
329.2803599
51
344.7473406
0
ARC
8
DEFAULT_255_1_388
10
22.7114511
20
131.9923038
40
0.3754848
50
324.9361395
51
328.6153007
0
ARC
8
DEFAULT_255_1_388
10
22.7540161
20
131.9625586
40
0.3235566
50
280.5801797
51
324.9173226
0
ARC
8
DEFAULT_255_1_388
10
22.7088789
20
132.1505236
40
0.5167077
50
269.5979457
51
281.6732777
0
ARC
8
DEFAULT_255_1_388
10
22.7007693
20
132.1370113
40
0.5032026
50
256.6228565
51
270.5105488
0
ARC
8
DEFAULT_255_1_388
10
22.6555435
20
131.9628345
40
0.3233092
50
215.8618351
51
257.2787793
0
ARC
8
DEFAULT_255_1_388
10
22.7704142
20
132.0399106
40
0.4615831
50
197.9695203
51
215.2622745
0
ARC
8
DEFAULT_255_1_388
10
23.0499818
20
132.1342641
40
0.7566307
50
187.8816486
51
198.2346584
0
ARC
8
DEFAULT_255_1_388
10
23.4953056
20
132.1985453
40
1.2065653
50
180.8977266
51
188.0054894
0
ARC
8
DEFAULT_255_1_388
10
23.800327
20
132.21004
40
1.5117443
50
180.7434591
51
181.152202
0
ARC
8
DEFAULT_255_1_388
10
23.6328266
20
132.4190371
40
1.3441277
50
173.7674302
51
180.2315596
0
ARC
8
DEFAULT_255_1_388
10
23.1246135
20
132.4764779
40
0.8326847
50
164.3058537
51
173.9000553
0
ARC
8
DEFAULT_255_1_388
10
22.7970135
20
132.5708652
40
0.4917711
50
148.7922028
51
164.5682288
0
ARC
8
DEFAULT_255_1_388
10
22.6900872
20
132.6305457
40
0.3694204
50
144.5883979
51
148.1161588
0
ARC
8
DEFAULT_255_1_388
10
22.6513618
20
132.6575667
40
0.322202
50
101.6440149
51
144.5142619
0
ARC
8
DEFAULT_255_1_388
10
22.699181
20
132.4675337
40
0.5180451
50
89.528284
51
102.5820197
0
ARC
8
DEFAULT_255_1_388
10
22.7080802
20
132.4631376
40
0.5224441
50
77.0437914
51
90.508231
0
ARC
8
DEFAULT_255_1_388
10
22.7533055
20
132.6479272
40
0.3322297
50
48.2777708
51
77.4996087
0
ARC
8
DEFAULT_255_1_388
10
22.7614795
20
132.6624557
40
0.315966
50
36.3141586
51
47.6307332
0
ARC
8
DEFAULT_255_1_388
10
22.6637518
20
132.5966159
40
0.4337313
50
18.2931065
51
35.6770203
0
ARC
8
DEFAULT_255_1_388
10
22.3776358
20
132.4984107
40
0.7362203
50
8.0246996
51
18.5605636
0
ARC
8
DEFAULT_255_1_388
10
21.9092714
20
132.4292432
40
1.2096583
50
1.127539
51
8.1718423
0
ARC
8
DEFAULT_255_1_388
10
21.5443847
20
132.4149374
40
1.5747719
50
0.5432713
51
1.38669
0
ARC
8
DEFAULT_255_1_388
10
21.7501226
20
132.4456163
40
1.2018103
50
359.8092569
51
4.9408001
0
ARC
8
DEFAULT_255_1_388
10
22.2237807
20
132.48789
40
0.7262727
50
4.8364937
51
12.2906017
0
ARC
8
DEFAULT_255_1_388
10
22.5337272
20
132.5569485
40
0.4087324
50
12.0806994
51
23.8171225
0
ARC
8
DEFAULT_255_1_388
10
22.6657668
20
132.6128508
40
0.2653719
50
24.2874621
51
31.3934353
0
ARC
8
DEFAULT_255_1_388
10
22.7248104
20
132.6514822
40
0.1948607
50
30.7407708
51
82.4658033
0
ARC
8
DEFAULT_255_1_388
10
22.7045765
20
132.5521017
40
0.2961198
50
81.1057101
51
90.2187368
0
ARC
8
DEFAULT_255_1_388
10
22.7005577
20
132.5811421
40
0.2670929
50
89.380395
51
105.6763916
0
ARC
8
DEFAULT_255_1_388
10
22.6799299
20
132.656132
40
0.1893189
50
105.7980655
51
149.7387869
0
ARC
8
DEFAULT_255_1_388
10
22.7996439
20
132.5841719
40
0.3289892
50
149.4208441
51
163.628295
0
ARC
8
DEFAULT_255_1_388
10
23.0348668
20
132.5124345
40
0.5749004
50
163.3764549
51
172.141138
0
ARC
8
DEFAULT_255_1_388
10
23.406139
20
132.4592582
40
0.9499585
50
172.0258462
51
178.0705453
0
ARC
8
DEFAULT_255_1_388
10
23.7482943
20
132.4430682
40
1.2924734
50
177.8639301
51
179.5036263
0
ARC
8
DEFAULT_255_1_388
10
23.6263961
20
132.1827151
40
1.170534
50
179.7995545
51
185.246089
0
ARC
8
DEFAULT_255_1_388
10
23.1715554
20
132.1396404
40
0.7136613
50
185.1411911
51
193.0082205
0
ARC
8
DEFAULT_255_1_388
10
22.8741815
20
132.0693441
40
0.4080987
50
192.7897338
51
205.2507384
0
ARC
8
DEFAULT_255_1_388
10
22.7564025
20
132.0167538
40
0.2791522
50
205.8001921
51
211.2545876
0
ARC
8
DEFAULT_255_1_388
10
22.6975564
20
131.9773132
40
0.2084074
50
210.3789935
51
238.4007996
0
ARC
8
DEFAULT_255_1_388
10
22.695365
20
131.9825786
40
0.2117943
50
239.6521916
51
265.9793852
0
ARC
8
DEFAULT_255_1_388
10
22.7049499
20
132.0582358
40
0.2879689
50
265.1324455
51
270.0603288
0
ARC
8
DEFAULT_255_1_388
10
22.7081876
20
132.0217418
40
0.2514919
50
269.3314378
51
287.2180039
0
ARC
8
DEFAULT_255_1_388
10
22.7236958
20
131.9651291
40
0.1928357
50
287.7957942
51
329.0808983
0
ARC
8
DEFAULT_255_1_388
10
22.6159715
20
132.0323651
40
0.319808
50
328.6635261
51
343.3325043
0
ARC
8
DEFAULT_255_1_388
10
22.3715174
20
132.1085195
40
0.5758408
50
343.0498092
51
351.9392499
0
ARC
8
DEFAULT_255_1_388
10
21.9814496
20
132.1660205
40
0.9701202
50
351.8071632
51
357.7957897
0
ARC
8
DEFAULT_255_1_388
10
21.6179973
20
132.1848724
40
1.3340376
50
357.5870923
51
359.2682493
0
LINE
8
DEFAULT_255_1_388
10
23.4380439
20
132.9674898
11
23.8121196
21
131.8823089
0
LINE
8
DEFAULT_255_1_388
10
23.8121196
20
131.8823089
11
24.1880024
21
132.9674898
0
LINE
8
DEFAULT_255_1_388
10
24.1880024
20
132.9674898
11
24.3777509
21
132.9674898
0
LINE
8
DEFAULT_255_1_388
10
24.3777509
20
132.9674898
11
23.8898261
21
131.6519
0
LINE
8
DEFAULT_255_1_388
10
23.8898261
20
131.6519
11
23.7362202
21
131.6519
0
LINE
8
DEFAULT_255_1_388
10
23.7362202
20
131.6519
11
23.2491989
21
132.9674898
0
LINE
8
DEFAULT_255_1_388
10
23.2491989
20
132.9674898
11
23.4380439
21
132.9674898
0
LINE
8
DEFAULT_255_1_388
10
20.1680903
20
5.9674898
11
20.1680903
21
4.7937596
0
LINE
8
DEFAULT_255_1_388
10
20.1680903
20
4.7937596
11
20.7915498
21
4.7937596
0
LINE
8
DEFAULT_255_1_388
10
20.7915498
20
4.7937596
11
20.7915498
21
4.6519
0
LINE
8
DEFAULT_255_1_388
10
20.7915498
20
4.6519
11
19.9937024
21
4.6519
0
LINE
8
DEFAULT_255_1_388
10
19.9937024
20
4.6519
11
19.9937024
21
5.9674898
0
LINE
8
DEFAULT_255_1_388
10
19.9937024
20
5.9674898
11
20.1680903
21
5.9674898
0
LINE
8
DEFAULT_255_1_388
10
21.8080598
20
4.7883382
11
21.8080598
21
4.6519
0
LINE
8
DEFAULT_255_1_388
10
21.8080598
20
4.6519
11
20.9460593
21
4.6519
0
LINE
8
DEFAULT_255_1_388
10
20.9460593
20
4.6519
11
20.9460593
21
4.7720741
0
LINE
8
DEFAULT_255_1_388
10
20.9460593
20
4.7720741
11
21.4014558
21
5.2780702
0
LINE
8
DEFAULT_255_1_388
10
21.0879189
20
5.5798607
11
20.9207595
21
5.5798607
0
LINE
8
DEFAULT_255_1_388
10
21.4999443
20
5.170546
11
21.1475542
21
4.7883382
0
LINE
8
DEFAULT_255_1_388
10
21.1475542
20
4.7883382
11
21.8080598
21
4.7883382
0
ARC
8
DEFAULT_255_1_388
10
19.8838618
20
6.6200983
40
2.0258655
50
318.5132526
51
320.7829045
0
ARC
8
DEFAULT_255_1_388
10
20.4786575
20
6.1359929
40
1.2589638
50
320.7372878
51
323.9739031
0
ARC
8
DEFAULT_255_1_388
10
20.9195506
20
5.8165554
40
0.7145141
50
323.8962701
51
328.64194
0
ARC
8
DEFAULT_255_1_388
10
21.1497764
20
5.6745545
40
0.4440242
50
328.8294576
51
331.7891185
0
ARC
8
DEFAULT_255_1_388
10
21.2620084
20
5.6166374
40
0.3177517
50
331.4254512
51
352.9365785
0
ARC
8
DEFAULT_255_1_388
10
21.2773084
20
5.613205
40
0.3021496
50
353.2257659
51
0.0166158
0
ARC
8
DEFAULT_255_1_388
10
21.3009845
20
5.6157894
40
0.2784847
50
359.486299
51
15.9343185
0
ARC
8
DEFAULT_255_1_388
10
21.3580111
20
5.6311269
40
0.2194403
50
16.1712913
51
43.5286088
0
ARC
8
DEFAULT_255_1_388
10
21.3667056
20
5.6398191
40
0.2071504
50
43.4417391
51
83.1661095
0
ARC
8
DEFAULT_255_1_388
10
21.3516217
20
5.5569316
40
0.2912888
50
82.160179
51
90.1505708
0
ARC
8
DEFAULT_255_1_388
10
21.3480699
20
5.4965279
40
0.3517025
50
89.5460741
51
102.5418361
0
ARC
8
DEFAULT_255_1_388
10
21.3207419
20
5.6124933
40
0.2325748
50
102.1738499
51
129.206123
0
ARC
8
DEFAULT_255_1_388
10
21.3118872
20
5.6264664
40
0.2161591
50
129.72865
51
135.753947
0
ARC
8
DEFAULT_255_1_388
10
21.3255354
20
5.6155728
40
0.2335433
50
136.1757367
51
166.3673339
0
ARC
8
DEFAULT_255_1_388
10
21.4388043
20
5.5852148
40
0.3507873
50
165.9090694
51
178.8684636
0
ARC
8
DEFAULT_255_1_388
10
21.5363814
20
5.5799263
40
0.4484624
50
178.4391136
51
180.0083808
0
ARC
8
DEFAULT_255_1_388
10
21.3784516
20
5.5843197
40
0.4577138
50
163.2878482
51
180.5581842
0
ARC
8
DEFAULT_255_1_388
10
21.2882557
20
5.6091393
40
0.3641968
50
133.4540601
51
162.947111
0
ARC
8
DEFAULT_255_1_388
10
21.3083438
20
5.5877789
40
0.3935189
50
100.7869829
51
133.4382499
0
ARC
8
DEFAULT_255_1_388
10
21.3474683
20
5.4135399
40
0.5720313
50
89.660664
51
101.3702276
0
ARC
8
DEFAULT_255_1_388
10
21.3549292
20
5.4204263
40
0.5651495
50
78.2172678
51
90.412935
0
ARC
8
DEFAULT_255_1_388
10
21.3948758
20
5.6031511
40
0.378122
50
55.9269121
51
78.4888449
0
ARC
8
DEFAULT_255_1_388
10
21.4169473
20
5.6412187
40
0.3342379
50
47.929771
51
55.4049217
0
ARC
8
DEFAULT_255_1_388
10
21.4284004
20
5.6528618
40
0.3179217
50
4.334829
51
48.0560205
0
ARC
8
DEFAULT_255_1_388
10
21.3051805
20
5.6337487
40
0.442341
50
359.9251713
51
5.5971671
0
ARC
8
DEFAULT_255_1_388
10
21.353396
20
5.6400728
40
0.3941854
50
337.8914027
51
358.9967534
0
ARC
8
DEFAULT_255_1_388
10
21.048153
20
5.7578295
40
0.7213271
50
326.9132501
51
338.3508308
0
ARC
8
DEFAULT_255_1_388
10
20.5997642
20
6.0452105
40
1.2538973
50
319.6471833
51
327.0959558
0
ARC
8
DEFAULT_255_1_388
10
20.16843
20
6.401005
40
1.8129975
50
317.2588228
51
319.9045804
0
LINE
8
DEFAULT_255_1_388
10
22.3501985
20
5.2789737
11
22.3501985
21
5.1425355
0
LINE
8
DEFAULT_255_1_388
10
22.3501985
20
5.1425355
11
21.909259
21
5.1425355
0
LINE
8
DEFAULT_255_1_388
10
21.909259
20
5.1425355
11
21.909259
21
5.2789737
0
LINE
8
DEFAULT_255_1_388
10
21.909259
20
5.2789737
11
22.3501985
21
5.2789737
0
LINE
8
DEFAULT_255_1_388
10
23.0450396
20
5.9738148
11
23.0450396
21
4.6519
0
LINE
8
DEFAULT_255_1_388
10
23.0450396
20
4.6519
11
22.8769766
21
4.6519
0
LINE
8
DEFAULT_255_1_388
10
22.8769766
20
4.6519
11
22.8769766
21
5.765995
0
LINE
8
DEFAULT_255_1_388
10
22.8769766
20
5.765995
11
22.539947
21
5.6422066
0
LINE
8
DEFAULT_255_1_388
10
22.539947
20
5.6422066
11
22.539947
21
5.7940055
0
LINE
8
DEFAULT_255_1_388
10
22.539947
20
5.7940055
11
23.0188362
21
5.9738148
0
LINE
8
DEFAULT_255_1_388
10
23.0188362
20
5.9738148
11
23.0450396
21
5.9738148
0
LINE
8
DEFAULT_255_1_388
10
23.745302
20
5.2771666
11
23.6115745
21
5.3115021
0
LINE
8
DEFAULT_255_1_388
10
23.6115745
20
5.3115021
11
23.6784382
21
5.9674898
0
LINE
8
DEFAULT_255_1_388
10
23.6784382
20
5.9674898
11
24.3524973
21
5.9674898
0
LINE
8
DEFAULT_255_1_388
10
24.3524973
20
5.9674898
11
24.3524973
21
5.8129803
0
LINE
8
DEFAULT_255_1_388
10
24.3524973
20
5.8129803
11
23.8202979
21
5.8129803
0
LINE
8
DEFAULT_255_1_388
10
23.8202979
20
5.8129803
11
23.780541
21
5.4542652
0
LINE
8
DEFAULT_255_1_388
10
23.5645891
20
4.9979652
11
23.7227129
21
4.9979652
0
LINE
8
DEFAULT_255_1_388
10
23.7895767
20
5.3133092
11
23.745302
21
5.2771666
0
ARC
8
DEFAULT_255_1_388
10
23.9892024
20
5.0965241
40
0.4141476
50
93.7181681
51
120.253934
0
ARC
8
DEFAULT_255_1_388
10
23.9998076
20
5.0056284
40
0.5055616
50
89.9660471
51
94.2495185
0
ARC
8
DEFAULT_255_1_388
10
24.0043898
20
5.0719154
40
0.4392953
50
73.8045384
51
90.5585736
0
ARC
8
DEFAULT_255_1_388
10
24.0308155
20
5.168452
40
0.3392225
50
41.3071072
51
73.543002
0
ARC
8
DEFAULT_255_1_388
10
23.9839975
20
5.1281461
40
0.4009977
50
13.5075837
51
41.2174839
0
ARC
8
DEFAULT_255_1_388
10
23.7993073
20
5.0797907
40
0.5918864
50
1.1330171
51
13.8830737
0
ARC
8
DEFAULT_255_1_388
10
23.6396719
20
5.0712522
40
0.7516787
50
359.9925091
51
1.5431298
0
ARC
8
DEFAULT_255_1_388
10
23.7841333
20
5.0666027
40
0.6072343
50
347.8572712
51
0.4294349
0
ARC
8
DEFAULT_255_1_388
10
23.9810468
20
5.0219898
40
0.4053482
50
323.6727442
51
348.1674594
0
ARC
8
DEFAULT_255_1_388
10
24.0141433
20
5.0018175
40
0.3667495
50
316.8171818
51
323.1486802
0
ARC
8
DEFAULT_255_1_388
10
24.0210557
20
4.9976612
40
0.358869
50
281.839603
51
316.5458142
0
ARC
8
DEFAULT_255_1_388
10
23.9787844
20
5.1726363
40
0.5388223
50
269.5770964
51
282.4214641
0
ARC
8
DEFAULT_255_1_388
10
23.9707765
20
5.148593
40
0.5147801
50
256.2425863
51
270.4486481
0
ARC
8
DEFAULT_255_1_388
10
23.9371292
20
5.0136124
40
0.3756708
50
228.9024379
51
256.33135
0
ARC
8
DEFAULT_255_1_388
10
23.9288273
20
5.0005054
40
0.360344
50
193.7536029
51
228.5272638
0
ARC
8
DEFAULT_255_1_388
10
24.0680838
20
5.0413463
40
0.5053599
50
184.9244437
51
194.4976052
0
ARC
8
DEFAULT_255_1_388
10
24.0897479
20
5.0453722
40
0.3700839
50
187.3596909
51
198.6733728
0
ARC
8
DEFAULT_255_1_388
10
23.9716722
20
5.0044373
40
0.2451195
50
198.4453795
51
217.7945479
0
ARC
8
DEFAULT_255_1_388
10
23.9383895
20
4.9808563
40
0.2043754
50
218.2887146
51
228.5613203
0
ARC
8
DEFAULT_255_1_388
10
23.9493902
20
4.9956902
40
0.2227819
50
228.9652423
51
258.1237049
0
ARC
8
DEFAULT_255_1_388
10
23.9725339
20
5.0947964
40
0.3245374
50
257.7260585
51
270.4013717
0
ARC
8
DEFAULT_255_1_388
10
23.9775837
20
5.0447255
40
0.2744726
50
269.4204315
51
286.420998
0
ARC
8
DEFAULT_255_1_388
10
23.9942893
20
4.9840705
40
0.2115721
50
286.7250065
51
320.6004665
0
ARC
8
DEFAULT_255_1_388
10
23.9511809
20
5.0190527
40
0.2670878
50
320.6712228
51
344.5440474
0
ARC
8
DEFAULT_255_1_388
10
23.8210522
20
5.0572394
40
0.4026927
50
344.241448
51
356.735803
0
ARC
8
DEFAULT_255_1_388
10
23.6806829
20
5.0688656
40
0.5435085
50
356.3547471
51
0.0507222
0
ARC
8
DEFAULT_255_1_388
10
23.8309095
20
5.0723812
40
0.3932934
50
359.5579289
51
12.9534322
0
ARC
8
DEFAULT_255_1_388
10
23.9495935
20
5.1011586
40
0.2711827
50
12.6489751
51
41.608121
0
ARC
8
DEFAULT_255_1_388
10
23.9755094
20
5.1231946
40
0.2371737
50
41.7851122
51
85.9892156
0
ARC
8
DEFAULT_255_1_388
10
23.9616405
20
5.0316738
40
0.3295244
50
84.6965848
51
90.0672125
0
ARC
8
DEFAULT_255_1_388
10
23.9589972
20
4.9565118
40
0.4046926
50
89.6804991
51
99.161352
0
ARC
8
DEFAULT_255_1_388
10
23.9358981
20
5.0945848
40
0.2647044
50
98.9836248
51
113.8905702
0
ARC
8
DEFAULT_255_1_388
10
23.9100656
20
5.1555118
40
0.1985386
50
114.195234
51
127.3641866
0
LINE
8
DEFAULT_255_1_388
10
20.0357903
20
13.9049898
11
20.0357903
21
12.7312596
0
LINE
8
DEFAULT_255_1_388
10
20.0357903
20
12.7312596
11
20.6592498
21
12.7312596
0
LINE
8
DEFAULT_255_1_388
10
20.6592498
20
12.7312596
11
20.6592498
21
12.5894
0
LINE
8
DEFAULT_255_1_388
10
20.6592498
20
12.5894
11
19.8614024
21
12.5894
0
LINE
8
DEFAULT_255_1_388
10
19.8614024
20
12.5894
11
19.8614024
21
13.9049898
0
LINE
8
DEFAULT_255_1_388
10
19.8614024
20
13.9049898
11
20.0357903
21
13.9049898
0
LINE
8
DEFAULT_255_1_388
10
21.6757598
20
12.7258382
11
21.6757598
21
12.5894
0
LINE
8
DEFAULT_255_1_388
10
21.6757598
20
12.5894
11
20.8137593
21
12.5894
0
LINE
8
DEFAULT_255_1_388
10
20.8137593
20
12.5894
11
20.8137593
21
12.7095741
0
LINE
8
DEFAULT_255_1_388
10
20.8137593
20
12.7095741
11
21.2691558
21
13.2155702
0
LINE
8
DEFAULT_255_1_388
10
20.9556189
20
13.5173607
11
20.7884595
21
13.5173607
0
LINE
8
DEFAULT_255_1_388
10
21.3676443
20
13.108046
11
21.0152542
21
12.7258382
0
LINE
8
DEFAULT_255_1_388
10
21.0152542
20
12.7258382
11
21.6757598
21
12.7258382
0
ARC
8
DEFAULT_255_1_388
10
19.7515618
20
14.5575983
40
2.0258655
50
318.5132526
51
320.7829045
0
ARC
8
DEFAULT_255_1_388
10
20.3463575
20
14.0734929
40
1.2589638
50
320.7372878
51
323.9739031
0
ARC
8
DEFAULT_255_1_388
10
20.7872506
20
13.7540554
40
0.7145141
50
323.8962701
51
328.64194
0
ARC
8
DEFAULT_255_1_388
10
21.0174764
20
13.6120545
40
0.4440242
50
328.8294576
51
331.7891185
0
ARC
8
DEFAULT_255_1_388
10
21.1297084
20
13.5541374
40
0.3177517
50
331.4254512
51
352.9365785
0
ARC
8
DEFAULT_255_1_388
10
21.1450084
20
13.550705
40
0.3021496
50
353.2257659
51
0.0166158
0
ARC
8
DEFAULT_255_1_388
10
21.1686845
20
13.5532894
40
0.2784847
50
359.486299
51
15.9343185
0
ARC
8
DEFAULT_255_1_388
10
21.2257111
20
13.5686269
40
0.2194403
50
16.1712913
51
43.5286088
0
ARC
8
DEFAULT_255_1_388
10
21.2344056
20
13.5773191
40
0.2071504
50
43.4417391
51
83.1661095
0
ARC
8
DEFAULT_255_1_388
10
21.2193217
20
13.4944316
40
0.2912888
50
82.160179
51
90.1505708
0
ARC
8
DEFAULT_255_1_388
10
21.2157699
20
13.4340279
40
0.3517025
50
89.5460741
51
102.5418361
0
ARC
8
DEFAULT_255_1_388
10
21.1884419
20
13.5499933
40
0.2325748
50
102.1738499
51
129.206123
0
ARC
8
DEFAULT_255_1_388
10
21.1795872
20
13.5639664
40
0.2161591
50
129.72865
51
135.753947
0
ARC
8
DEFAULT_255_1_388
10
21.1932354
20
13.5530728
40
0.2335433
50
136.1757367
51
166.3673339
0
ARC
8
DEFAULT_255_1_388
10
21.3065043
20
13.5227148
40
0.3507873
50
165.9090694
51
178.8684636
0
ARC
8
DEFAULT_255_1_388
10
21.4040814
20
13.5174263
40
0.4484624
50
178.4391136
51
180.0083808
0
ARC
8
DEFAULT_255_1_388
10
21.2461516
20
13.5218197
40
0.4577138
50
163.2878482
51
180.5581842
0
ARC
8
DEFAULT_255_1_388
10
21.1559557
20
13.5466393
40
0.3641968
50
133.4540601
51
162.947111
0
ARC
8
DEFAULT_255_1_388
10
21.1760438
20
13.5252789
40
0.3935189
50
100.7869829
51
133.4382499
0
ARC
8
DEFAULT_255_1_388
10
21.2151683
20
13.3510399
40
0.5720313
50
89.660664
51
101.3702276
0
ARC
8
DEFAULT_255_1_388
10
21.2226292
20
13.3579263
40
0.5651495
50
78.2172678
51
90.412935
0
ARC
8
DEFAULT_255_1_388
10
21.2625758
20
13.5406511
40
0.378122
50
55.9269121
51
78.4888449
0
ARC
8
DEFAULT_255_1_388
10
21.2846473
20
13.5787187
40
0.3342379
50
47.929771
51
55.4049217
0
ARC
8
DEFAULT_255_1_388
10
21.2961004
20
13.5903618
40
0.3179217
50
4.334829
51
48.0560205
0
ARC
8
DEFAULT_255_1_388
10
21.1728805
20
13.5712487
40
0.442341
50
359.9251713
51
5.5971671
0
ARC
8
DEFAULT_255_1_388
10
21.221096
20
13.5775728
40
0.3941854
50
337.8914027
51
358.9967534
0
ARC
8
DEFAULT_255_1_388
10
20.915853
20
13.6953295
40
0.7213271
50
326.9132501
51
338.3508308
0
ARC
8
DEFAULT_255_1_388
10
20.4674642
20
13.9827105
40
1.2538973
50
319.6471833
51
327.0959558
0
ARC
8
DEFAULT_255_1_388
10
20.03613
20
14.338505
40
1.8129975
50
317.2588228
51
319.9045804
0
LINE
8
DEFAULT_255_1_388
10
22.2178985
20
13.2164737
11
22.2178985
21
13.0800355
0
LINE
8
DEFAULT_255_1_388
10
22.2178985
20
13.0800355
11
21.776959
21
13.0800355
0
LINE
8
DEFAULT_255_1_388
10
21.776959
20
13.0800355
11
21.776959
21
13.2164737
0
LINE
8
DEFAULT_255_1_388
10
21.776959
20
13.2164737
11
22.2178985
21
13.2164737
0
LINE
8
DEFAULT_255_1_388
10
22.9127396
20
13.9113148
11
22.9127396
21
12.5894
0
LINE
8
DEFAULT_255_1_388
10
22.9127396
20
12.5894
11
22.7446766
21
12.5894
0
LINE
8
DEFAULT_255_1_388
10
22.7446766
20
12.5894
11
22.7446766
21
13.703495
0
LINE
8
DEFAULT_255_1_388
10
22.7446766
20
13.703495
11
22.407647
21
13.5797066
0
LINE
8
DEFAULT_255_1_388
10
22.407647
20
13.5797066
11
22.407647
21
13.7315055
0
LINE
8
DEFAULT_255_1_388
10
22.407647
20
13.7315055
11
22.8865362
21
13.9113148
0
LINE
8
DEFAULT_255_1_388
10
22.8865362
20
13.9113148
11
22.9127396
21
13.9113148
0
LINE
8
DEFAULT_255_1_388
10
24.1081553
20
13.9049898
11
24.1081553
21
13.031243
0
LINE
8
DEFAULT_255_1_388
10
24.1081553
20
13.031243
11
24.2906753
21
13.031243
0
LINE
8
DEFAULT_255_1_388
10
24.2906753
20
13.031243
11
24.2906753
21
12.8948048
0
LINE
8
DEFAULT_255_1_388
10
24.2906753
20
12.8948048
11
24.1081553
21
12.8948048
0
LINE
8
DEFAULT_255_1_388
10
24.1081553
20
12.8948048
11
24.1081553
21
12.5894
0
LINE
8
DEFAULT_255_1_388
10
24.1081553
20
12.5894
11
23.9400923
21
12.5894
0
LINE
8
DEFAULT_255_1_388
10
23.9400923
20
12.5894
11
23.9400923
21
12.8948048
0
LINE
8
DEFAULT_255_1_388
10
23.9400923
20
12.8948048
11
23.3410291
21
12.8948048
0
LINE
8
DEFAULT_255_1_388
10
23.3410291
20
12.8948048
11
23.3410291
21
12.9932933
0
LINE
8
DEFAULT_255_1_388
10
23.3410291
20
12.9932933
11
23.9301531
21
13.9049898
0
LINE
8
DEFAULT_255_1_388
10
23.9301531
20
13.9049898
11
24.1081553
21
13.9049898
0
LINE
8
DEFAULT_255_1_388
10
23.9202139
20
13.6402455
11
23.5307776
21
13.031243
0
LINE
8
DEFAULT_255_1_388
10
23.5307776
20
13.031243
11
23.9400923
21
13.031243
0
LINE
8
DEFAULT_255_1_388
10
23.9400923
20
13.031243
11
23.9400923
21
13.676388
0
LINE
8
DEFAULT_255_1_388
10
23.9400923
20
13.676388
11
23.9202139
21
13.6402455
0
LINE
8
DEFAULT_255_1_388
10
20.1680903
20
21.8424898
11
20.1680903
21
20.6687596
0
LINE
8
DEFAULT_255_1_388
10
20.1680903
20
20.6687596
11
20.7915498
21
20.6687596
0
LINE
8
DEFAULT_255_1_388
10
20.7915498
20
20.6687596
11
20.7915498
21
20.5269
0
LINE
8
DEFAULT_255_1_388
10
20.7915498
20
20.5269
11
19.9937024
21
20.5269
0
LINE
8
DEFAULT_255_1_388
10
19.9937024
20
20.5269
11
19.9937024
21
21.8424898
0
LINE
8
DEFAULT_255_1_388
10
19.9937024
20
21.8424898
11
20.1680903
21
21.8424898
0
LINE
8
DEFAULT_255_1_388
10
21.8080598
20
20.6633382
11
21.8080598
21
20.5269
0
LINE
8
DEFAULT_255_1_388
10
21.8080598
20
20.5269
11
20.9460593
21
20.5269
0
LINE
8
DEFAULT_255_1_388
10
20.9460593
20
20.5269
11
20.9460593
21
20.6470741
0
LINE
8
DEFAULT_255_1_388
10
20.9460593
20
20.6470741
11
21.4014558
21
21.1530702
0
LINE
8
DEFAULT_255_1_388
10
21.0879189
20
21.4548607
11
20.9207595
21
21.4548607
0
LINE
8
DEFAULT_255_1_388
10
21.4999443
20
21.045546
11
21.1475542
21
20.6633382
0
LINE
8
DEFAULT_255_1_388
10
21.1475542
20
20.6633382
11
21.8080598
21
20.6633382
0
ARC
8
DEFAULT_255_1_388
10
19.8838618
20
22.4950983
40
2.0258655
50
318.5132526
51
320.7829045
0
ARC
8
DEFAULT_255_1_388
10
20.4786575
20
22.0109929
40
1.2589638
50
320.7372878
51
323.9739031
0
ARC
8
DEFAULT_255_1_388
10
20.9195506
20
21.6915554
40
0.7145141
50
323.8962701
51
328.64194
0
ARC
8
DEFAULT_255_1_388
10
21.1497764
20
21.5495545
40
0.4440242
50
328.8294576
51
331.7891185
0
ARC
8
DEFAULT_255_1_388
10
21.2620084
20
21.4916374
40
0.3177517
50
331.4254512
51
352.9365785
0
ARC
8
DEFAULT_255_1_388
10
21.2773084
20
21.488205
40
0.3021496
50
353.2257659
51
0.0166158
0
ARC
8
DEFAULT_255_1_388
10
21.3009845
20
21.4907894
40
0.2784847
50
359.486299
51
15.9343185
0
ARC
8
DEFAULT_255_1_388
10
21.3580111
20
21.5061269
40
0.2194403
50
16.1712913
51
43.5286088
0
ARC
8
DEFAULT_255_1_388
10
21.3667056
20
21.5148191
40
0.2071504
50
43.4417391
51
83.1661095
0
ARC
8
DEFAULT_255_1_388
10
21.3516217
20
21.4319316
40
0.2912888
50
82.160179
51
90.1505708
0
ARC
8
DEFAULT_255_1_388
10
21.3480699
20
21.3715279
40
0.3517025
50
89.5460741
51
102.5418361
0
ARC
8
DEFAULT_255_1_388
10
21.3207419
20
21.4874933
40
0.2325748
50
102.1738499
51
129.206123
0
ARC
8
DEFAULT_255_1_388
10
21.3118872
20
21.5014664
40
0.2161591
50
129.72865
51
135.753947
0
ARC
8
DEFAULT_255_1_388
10
21.3255354
20
21.4905728
40
0.2335433
50
136.1757367
51
166.3673339
0
ARC
8
DEFAULT_255_1_388
10
21.4388043
20
21.4602148
40
0.3507873
50
165.9090694
51
178.8684636
0
ARC
8
DEFAULT_255_1_388
10
21.5363814
20
21.4549263
40
0.4484624
50
178.4391136
51
180.0083808
0
ARC
8
DEFAULT_255_1_388
10
21.3784516
20
21.4593197
40
0.4577138
50
163.2878482
51
180.5581842
0
ARC
8
DEFAULT_255_1_388
10
21.2882557
20
21.4841393
40
0.3641968
50
133.4540601
51
162.947111
0
ARC
8
DEFAULT_255_1_388
10
21.3083438
20
21.4627789
40
0.3935189
50
100.7869829
51
133.4382499
0
ARC
8
DEFAULT_255_1_388
10
21.3474683
20
21.2885399
40
0.5720313
50
89.660664
51
101.3702276
0
ARC
8
DEFAULT_255_1_388
10
21.3549292
20
21.2954263
40
0.5651495
50
78.2172678
51
90.412935
0
ARC
8
DEFAULT_255_1_388
10
21.3948758
20
21.4781511
40
0.378122
50
55.9269121
51
78.4888449
0
ARC
8
DEFAULT_255_1_388
10
21.4169473
20
21.5162187
40
0.3342379
50
47.929771
51
55.4049217
0
ARC
8
DEFAULT_255_1_388
10
21.4284004
20
21.5278618
40
0.3179217
50
4.334829
51
48.0560205
0
ARC
8
DEFAULT_255_1_388
10
21.3051805
20
21.5087487
40
0.442341
50
359.9251713
51
5.5971671
0
ARC
8
DEFAULT_255_1_388
10
21.353396
20
21.5150728
40
0.3941854
50
337.8914027
51
358.9967534
0
ARC
8
DEFAULT_255_1_388
10
21.048153
20
21.6328295
40
0.7213271
50
326.9132501
51
338.3508308
0
ARC
8
DEFAULT_255_1_388
10
20.5997642
20
21.9202105
40
1.2538973
50
319.6471833
51
327.0959558
0
ARC
8
DEFAULT_255_1_388
10
20.16843
20
22.276005
40
1.8129975
50
317.2588228
51
319.9045804
0
LINE
8
DEFAULT_255_1_388
10
22.3501985
20
21.1539737
11
22.3501985
21
21.0175355
0
LINE
8
DEFAULT_255_1_388
10
22.3501985
20
21.0175355
11
21.909259
21
21.0175355
0
LINE
8
DEFAULT_255_1_388
10
21.909259
20
21.0175355
11
21.909259
21
21.1539737
0
LINE
8
DEFAULT_255_1_388
10
21.909259
20
21.1539737
11
22.3501985
21
21.1539737
0
LINE
8
DEFAULT_255_1_388
10
23.0450396
20
21.8488148
11
23.0450396
21
20.5269
0
LINE
8
DEFAULT_255_1_388
10
23.0450396
20
20.5269
11
22.8769766
21
20.5269
0
LINE
8
DEFAULT_255_1_388
10
22.8769766
20
20.5269
11
22.8769766
21
21.640995
0
LINE
8
DEFAULT_255_1_388
10
22.8769766
20
21.640995
11
22.539947
21
21.5172066
0
LINE
8
DEFAULT_255_1_388
10
22.539947
20
21.5172066
11
22.539947
21
21.6690055
0
LINE
8
DEFAULT_255_1_388
10
22.539947
20
21.6690055
11
23.0188362
21
21.8488148
0
LINE
8
DEFAULT_255_1_388
10
23.0188362
20
21.8488148
11
23.0450396
21
21.8488148
0
LINE
8
DEFAULT_255_1_388
10
23.7778303
20
21.1295775
11
23.7778303
21
21.2660157
0
LINE
8
DEFAULT_255_1_388
10
23.7778303
20
21.2660157
11
23.9034258
21
21.2660157
0
LINE
8
DEFAULT_255_1_388
10
23.689281
20
21.4973282
11
23.5221216
21
21.4973282
0
LINE
8
DEFAULT_255_1_388
10
23.5103752
20
20.8738687
11
23.6784382
21
20.8738687
0
LINE
8
DEFAULT_255_1_388
10
23.9034258
20
21.1295775
11
23.7778303
21
21.1295775
0
ARC
8
DEFAULT_255_1_388
10
23.9001484
20
21.6476922
40
0.3816905
50
270.491971
51
281.8953028
0
ARC
8
DEFAULT_255_1_388
10
23.9272911
20
21.5237199
40
0.2547877
50
281.6690378
51
301.2943765
0
ARC
8
DEFAULT_255_1_388
10
23.9464362
20
21.4886926
40
0.2149197
50
301.7834992
51
311.754567
0
ARC
8
DEFAULT_255_1_388
10
23.9567404
20
21.477265
40
0.1995326
50
311.7325027
51
354.2803031
0
ARC
8
DEFAULT_255_1_388
10
23.874982
20
21.491328
40
0.2823461
50
353.0941646
51
0.1174696
0
ARC
8
DEFAULT_255_1_388
10
23.8231378
20
21.4966874
40
0.3342238
50
359.1804452
51
15.0452323
0
ARC
8
DEFAULT_255_1_388
10
23.9745436
20
21.5408546
40
0.1765747
50
13.957816
51
77.6713812
0
ARC
8
DEFAULT_255_1_388
10
23.9310672
20
21.3850464
40
0.3381982
50
76.111571
51
90.7028736
0
ARC
8
DEFAULT_255_1_388
10
23.9244084
20
21.415825
40
0.3074046
50
89.5321574
51
103.5319393
0
ARC
8
DEFAULT_255_1_388
10
23.9018468
20
21.5057443
40
0.2147041
50
103.2930114
51
133.5619756
0
ARC
8
DEFAULT_255_1_388
10
23.8968409
20
21.5124351
40
0.2064084
50
133.8349761
51
173.5343225
0
ARC
8
DEFAULT_255_1_388
10
23.9782067
20
21.4980144
40
0.2889266
50
172.5097183
51
180.1360699
0
ARC
8
DEFAULT_255_1_388
10
23.8711831
20
21.501888
40
0.3490913
50
155.3483706
51
180.7484035
0
ARC
8
DEFAULT_255_1_388
10
23.8656806
20
21.4986519
40
0.3454798
50
131.5745177
51
154.4799474
0
ARC
8
DEFAULT_255_1_388
10
23.9009089
20
21.4630422
40
0.3955058
50
96.9874487
51
131.9690874
0
ARC
8
DEFAULT_255_1_388
10
23.9255981
20
21.3229407
40
0.537622
50
89.8592909
51
97.7827481
0
ARC
8
DEFAULT_255_1_388
10
23.931009
20
21.293436
40
0.5671399
50
78.3654493
51
90.4132586
0
ARC
8
DEFAULT_255_1_388
10
23.9712732
20
21.4800918
40
0.3762034
50
56.6229818
51
78.6387103
0
ARC
8
DEFAULT_255_1_388
10
23.9954561
20
21.5223846
40
0.3275964
50
47.0254604
51
56.085558
0
ARC
8
DEFAULT_255_1_388
10
23.9976812
20
21.5268189
40
0.3228382
50
10.9207523
51
46.777927
0
ARC
8
DEFAULT_255_1_388
10
23.8442406
20
21.4913401
40
0.4802559
50
359.6364235
51
11.6087615
0
ARC
8
DEFAULT_255_1_388
10
24.0506571
20
21.4896404
40
0.273833
50
332.3549969
51
359.7179765
0
ARC
8
DEFAULT_255_1_388
10
23.9774972
20
21.5243285
40
0.3547505
50
325.2332381
51
332.8746682
0
ARC
8
DEFAULT_255_1_388
10
23.9946555
20
21.5123763
40
0.3338396
50
292.9803892
51
325.2391113
0
ARC
8
DEFAULT_255_1_388
10
23.9635751
20
21.5728679
40
0.4016959
50
292.542178
51
293.6931461
0
ARC
8
DEFAULT_255_1_388
10
24.0079323
20
20.8463036
40
0.372079
50
57.643292
51
72.8626085
0
ARC
8
DEFAULT_255_1_388
10
24.0478157
20
20.9109273
40
0.2961455
50
36.7246661
51
57.4701329
0
ARC
8
DEFAULT_255_1_388
10
24.0465314
20
20.912347
40
0.2963321
50
8.054535
51
36.3561529
0
ARC
8
DEFAULT_255_1_388
10
23.9494987
20
20.8949073
40
0.3948682
50
359.8316595
51
8.5873361
0
ARC
8
DEFAULT_255_1_388
10
23.9072461
20
20.889497
40
0.4371398
50
343.9831631
51
0.557075
0
ARC
8
DEFAULT_255_1_388
10
24.006951
20
20.8621963
40
0.3337749
50
311.6358204
51
343.7652116
0
ARC
8
DEFAULT_255_1_388
10
23.9643764
20
20.9101955
40
0.3979351
50
279.7829743
51
311.625622
0
ARC
8
DEFAULT_255_1_388
10
23.9304899
20
21.0718642
40
0.5630417
50
269.7285092
51
280.3857694
0
ARC
8
DEFAULT_255_1_388
10
23.9235212
20
21.0672241
40
0.5584119
50
256.6827433
51
270.4412869
0
ARC
8
DEFAULT_255_1_388
10
23.8854199
20
20.9114698
40
0.3980715
50
229.4223821
51
256.8554507
0
ARC
8
DEFAULT_255_1_388
10
23.8387752
20
20.8589683
40
0.3278564
50
181.8183354
51
229.6455015
0
ARC
8
DEFAULT_255_1_388
10
23.9557362
20
20.8736825
40
0.4453611
50
179.9760419
51
183.2330638
0
ARC
8
DEFAULT_255_1_388
10
23.9363914
20
20.8713781
40
0.2579652
50
179.4467996
51
196.2871626
0
ARC
8
DEFAULT_255_1_388
10
23.8815368
20
20.8563709
40
0.2011057
50
196.5661293
51
227.7059371
0
ARC
8
DEFAULT_255_1_388
10
23.8999975
20
20.8770155
40
0.2287994
50
227.7653015
51
257.8763321
0
ARC
8
DEFAULT_255_1_388
10
23.9253058
20
20.9830961
40
0.3378385
50
257.4583525
51
270.4267406
0
ARC
8
DEFAULT_255_1_388
10
23.9304308
20
21.015723
40
0.3704652
50
269.5965319
51
280.8788143
0
ARC
8
DEFAULT_255_1_388
10
23.9562536
20
20.8867529
40
0.2389415
50
280.6347277
51
299.8594068
0
ARC
8
DEFAULT_255_1_388
10
23.9777305
20
20.8459736
40
0.19289
50
300.3575552
51
314.5515667
0
ARC
8
DEFAULT_255_1_388
10
23.9683981
20
20.8528025
40
0.204312
50
315.0730962
51
345.0429362
0
ARC
8
DEFAULT_255_1_388
10
23.8645488
20
20.8830539
40
0.31246
50
344.598526
51
357.9270698
0
ARC
8
DEFAULT_255_1_388
10
23.7635793
20
20.8899705
40
0.4136265
50
357.4755098
51
0.0224936
0
ARC
8
DEFAULT_255_1_388
10
23.8788671
20
20.8927099
40
0.2983498
50
359.5051035
51
13.4236939
0
ARC
8
DEFAULT_255_1_388
10
23.9763761
20
20.9176637
40
0.1977186
50
12.9497905
51
48.7550905
0
ARC
8
DEFAULT_255_1_388
10
23.9558683
20
20.8896373
40
0.2323321
50
49.509109
51
72.1832965
0
ARC
8
DEFAULT_255_1_388
10
23.9156151
20
20.7701632
40
0.358397
50
71.9008458
51
84.3555134
0
ARC
8
DEFAULT_255_1_388
10
23.8974546
20
20.6169712
40
0.512641
50
84.019632
51
89.3326067
0
LINE
8
DEFAULT_255_1_388
10
20.1680903
20
29.7799898
11
20.1680903
21
28.6062596
0
LINE
8
DEFAULT_255_1_388
10
20.1680903
20
28.6062596
11
20.7915498
21
28.6062596
0
LINE
8
DEFAULT_255_1_388
10
20.7915498
20
28.6062596
11
20.7915498
21
28.4644
0
LINE
8
DEFAULT_255_1_388
10
20.7915498
20
28.4644
11
19.9937024
21
28.4644
0
LINE
8
DEFAULT_255_1_388
10
19.9937024
20
28.4644
11
19.9937024
21
29.7799898
0
LINE
8
DEFAULT_255_1_388
10
19.9937024
20
29.7799898
11
20.1680903
21
29.7799898
0
LINE
8
DEFAULT_255_1_388
10
21.8080598
20
28.6008382
11
21.8080598
21
28.4644
0
LINE
8
DEFAULT_255_1_388
10
21.8080598
20
28.4644
11
20.9460593
21
28.4644
0
LINE
8
DEFAULT_255_1_388
10
20.9460593
20
28.4644
11
20.9460593
21
28.5845741
0
LINE
8
DEFAULT_255_1_388
10
20.9460593
20
28.5845741
11
21.4014558
21
29.0905702
0
LINE
8
DEFAULT_255_1_388
10
21.0879189
20
29.3923607
11
20.9207595
21
29.3923607
0
LINE
8
DEFAULT_255_1_388
10
21.4999443
20
28.983046
11
21.1475542
21
28.6008382
0
LINE
8
DEFAULT_255_1_388
10
21.1475542
20
28.6008382
11
21.8080598
21
28.6008382
0
ARC
8
DEFAULT_255_1_388
10
19.8838618
20
30.4325983
40
2.0258655
50
318.5132526
51
320.7829045
0
ARC
8
DEFAULT_255_1_388
10
20.4786575
20
29.9484929
40
1.2589638
50
320.7372878
51
323.9739031
0
ARC
8
DEFAULT_255_1_388
10
20.9195506
20
29.6290554
40
0.7145141
50
323.8962701
51
328.64194
0
ARC
8
DEFAULT_255_1_388
10
21.1497764
20
29.4870545
40
0.4440242
50
328.8294576
51
331.7891185
0
ARC
8
DEFAULT_255_1_388
10
21.2620084
20
29.4291374
40
0.3177517
50
331.4254512
51
352.9365785
0
ARC
8
DEFAULT_255_1_388
10
21.2773084
20
29.425705
40
0.3021496
50
353.2257659
51
0.0166158
0
ARC
8
DEFAULT_255_1_388
10
21.3009845
20
29.4282894
40
0.2784847
50
359.486299
51
15.9343185
0
ARC
8
DEFAULT_255_1_388
10
21.3580111
20
29.4436269
40
0.2194403
50
16.1712913
51
43.5286088
0
ARC
8
DEFAULT_255_1_388
10
21.3667056
20
29.4523191
40
0.2071504
50
43.4417391
51
83.1661095
0
ARC
8
DEFAULT_255_1_388
10
21.3516217
20
29.3694316
40
0.2912888
50
82.160179
51
90.1505708
0
ARC
8
DEFAULT_255_1_388
10
21.3480699
20
29.3090279
40
0.3517025
50
89.5460741
51
102.5418361
0
ARC
8
DEFAULT_255_1_388
10
21.3207419
20
29.4249933
40
0.2325748
50
102.1738499
51
129.206123
0
ARC
8
DEFAULT_255_1_388
10
21.3118872
20
29.4389664
40
0.2161591
50
129.72865
51
135.753947
0
ARC
8
DEFAULT_255_1_388
10
21.3255354
20
29.4280728
40
0.2335433
50
136.1757367
51
166.3673339
0
ARC
8
DEFAULT_255_1_388
10
21.4388043
20
29.3977148
40
0.3507873
50
165.9090694
51
178.8684636
0
ARC
8
DEFAULT_255_1_388
10
21.5363814
20
29.3924263
40
0.4484624
50
178.4391136
51
180.0083808
0
ARC
8
DEFAULT_255_1_388
10
21.3784516
20
29.3968197
40
0.4577138
50
163.2878482
51
180.5581842
0
ARC
8
DEFAULT_255_1_388
10
21.2882557
20
29.4216393
40
0.3641968
50
133.4540601
51
162.947111
0
ARC
8
DEFAULT_255_1_388
10
21.3083438
20
29.4002789
40
0.3935189
50
100.7869829
51
133.4382499
0
ARC
8
DEFAULT_255_1_388
10
21.3474683
20
29.2260399
40
0.5720313
50
89.660664
51
101.3702276
0
ARC
8
DEFAULT_255_1_388
10
21.3549292
20
29.2329263
40
0.5651495
50
78.2172678
51
90.412935
0
ARC
8
DEFAULT_255_1_388
10
21.3948758
20
29.4156511
40
0.378122
50
55.9269121
51
78.4888449
0
ARC
8
DEFAULT_255_1_388
10
21.4169473
20
29.4537187
40
0.3342379
50
47.929771
51
55.4049217
0
ARC
8
DEFAULT_255_1_388
10
21.4284004
20
29.4653618
40
0.3179217
50
4.334829
51
48.0560205
0
ARC
8
DEFAULT_255_1_388
10
21.3051805
20
29.4462487
40
0.442341
50
359.9251713
51
5.5971671
0
ARC
8
DEFAULT_255_1_388
10
21.353396
20
29.4525728
40
0.3941854
50
337.8914027
51
358.9967534
0
ARC
8
DEFAULT_255_1_388
10
21.048153
20
29.5703295
40
0.7213271
50
326.9132501
51
338.3508308
0
ARC
8
DEFAULT_255_1_388
10
20.5997642
20
29.8577105
40
1.2538973
50
319.6471833
51
327.0959558
0
ARC
8
DEFAULT_255_1_388
10
20.16843
20
30.213505
40
1.8129975
50
317.2588228
51
319.9045804
0
LINE
8
DEFAULT_255_1_388
10
22.3501985
20
29.0914737
11
22.3501985
21
28.9550355
0
LINE
8
DEFAULT_255_1_388
10
22.3501985
20
28.9550355
11
21.909259
21
28.9550355
0
LINE
8
DEFAULT_255_1_388
10
21.909259
20
28.9550355
11
21.909259
21
29.0914737
0
LINE
8
DEFAULT_255_1_388
10
21.909259
20
29.0914737
11
22.3501985
21
29.0914737
0
LINE
8
DEFAULT_255_1_388
10
23.0450396
20
29.7863148
11
23.0450396
21
28.4644
0
LINE
8
DEFAULT_255_1_388
10
23.0450396
20
28.4644
11
22.8769766
21
28.4644
0
LINE
8
DEFAULT_255_1_388
10
22.8769766
20
28.4644
11
22.8769766
21
29.578495
0
LINE
8
DEFAULT_255_1_388
10
22.8769766
20
29.578495
11
22.539947
21
29.4547066
0
LINE
8
DEFAULT_255_1_388
10
22.539947
20
29.4547066
11
22.539947
21
29.6065055
0
LINE
8
DEFAULT_255_1_388
10
22.539947
20
29.6065055
11
23.0188362
21
29.7863148
0
LINE
8
DEFAULT_255_1_388
10
23.0188362
20
29.7863148
11
23.0450396
21
29.7863148
0
LINE
8
DEFAULT_255_1_388
10
24.396772
20
28.6008382
11
24.396772
21
28.4644
0
LINE
8
DEFAULT_255_1_388
10
24.396772
20
28.4644
11
23.5347715
21
28.4644
0
LINE
8
DEFAULT_255_1_388
10
23.5347715
20
28.4644
11
23.5347715
21
28.5845741
0
LINE
8
DEFAULT_255_1_388
10
23.5347715
20
28.5845741
11
23.990168
21
29.0905702
0
LINE
8
DEFAULT_255_1_388
10
23.6766311
20
29.3923607
11
23.5094717
21
29.3923607
0
LINE
8
DEFAULT_255_1_388
10
24.0886565
20
28.983046
11
23.7362664
21
28.6008382
0
LINE
8
DEFAULT_255_1_388
10
23.7362664
20
28.6008382
11
24.396772
21
28.6008382
0
ARC
8
DEFAULT_255_1_388
10
22.4725739
20
30.4325983
40
2.0258655
50
318.5132526
51
320.7829045
0
ARC
8
DEFAULT_255_1_388
10
23.0673696
20
29.9484929
40
1.2589638
50
320.7372878
51
323.9739031
0
ARC
8
DEFAULT_255_1_388
10
23.5082628
20
29.6290554
40
0.7145141
50
323.8962701
51
328.64194
0
ARC
8
DEFAULT_255_1_388
10
23.7384885
20
29.4870545
40
0.4440242
50
328.8294576
51
331.7891185
0
ARC
8
DEFAULT_255_1_388
10
23.8507206
20
29.4291374
40
0.3177517
50
331.4254512
51
352.9365785
0
ARC
8
DEFAULT_255_1_388
10
23.8660205
20
29.425705
40
0.3021496
50
353.2257659
51
0.0166158
0
ARC
8
DEFAULT_255_1_388
10
23.8896966
20
29.4282894
40
0.2784847
50
359.486299
51
15.9343185
0
ARC
8
DEFAULT_255_1_388
10
23.9467233
20
29.4436269
40
0.2194403
50
16.1712913
51
43.5286088
0
ARC
8
DEFAULT_255_1_388
10
23.9554177
20
29.4523191
40
0.2071504
50
43.4417391
51
83.1661095
0
ARC
8
DEFAULT_255_1_388
10
23.9403339
20
29.3694316
40
0.2912888
50
82.160179
51
90.1505708
0
ARC
8
DEFAULT_255_1_388
10
23.936782
20
29.3090279
40
0.3517025
50
89.5460741
51
102.5418361
0
ARC
8
DEFAULT_255_1_388
10
23.909454
20
29.4249933
40
0.2325748
50
102.1738499
51
129.206123
0
ARC
8
DEFAULT_255_1_388
10
23.9005994
20
29.4389664
40
0.2161591
50
129.72865
51
135.753947
0
ARC
8
DEFAULT_255_1_388
10
23.9142476
20
29.4280728
40
0.2335433
50
136.1757367
51
166.3673339
0
ARC
8
DEFAULT_255_1_388
10
24.0275164
20
29.3977148
40
0.3507873
50
165.9090694
51
178.8684636
0
ARC
8
DEFAULT_255_1_388
10
24.1250936
20
29.3924263
40
0.4484624
50
178.4391136
51
180.0083808
0
ARC
8
DEFAULT_255_1_388
10
23.9671637
20
29.3968197
40
0.4577138
50
163.2878482
51
180.5581842
0
ARC
8
DEFAULT_255_1_388
10
23.8769678
20
29.4216393
40
0.3641968
50
133.4540601
51
162.947111
0
ARC
8
DEFAULT_255_1_388
10
23.897056
20
29.4002789
40
0.3935189
50
100.7869829
51
133.4382499
0
ARC
8
DEFAULT_255_1_388
10
23.9361805
20
29.2260399
40
0.5720313
50
89.660664
51
101.3702276
0
ARC
8
DEFAULT_255_1_388
10
23.9436414
20
29.2329263
40
0.5651495
50
78.2172678
51
90.412935
0
ARC
8
DEFAULT_255_1_388
10
23.983588
20
29.4156511
40
0.378122
50
55.9269121
51
78.4888449
0
ARC
8
DEFAULT_255_1_388
10
24.0056595
20
29.4537187
40
0.3342379
50
47.929771
51
55.4049217
0
ARC
8
DEFAULT_255_1_388
10
24.0171125
20
29.4653618
40
0.3179217
50
4.334829
51
48.0560205
0
ARC
8
DEFAULT_255_1_388
10
23.8938927
20
29.4462487
40
0.442341
50
359.9251713
51
5.5971671
0
ARC
8
DEFAULT_255_1_388
10
23.9421082
20
29.4525728
40
0.3941854
50
337.8914027
51
358.9967534
0
ARC
8
DEFAULT_255_1_388
10
23.6368652
20
29.5703295
40
0.7213271
50
326.9132501
51
338.3508308
0
ARC
8
DEFAULT_255_1_388
10
23.1884764
20
29.8577105
40
1.2538973
50
319.6471833
51
327.0959558
0
ARC
8
DEFAULT_255_1_388
10
22.7571422
20
30.213505
40
1.8129975
50
317.2588228
51
319.9045804
0
LINE
8
DEFAULT_255_1_388
10
20.1758903
20
37.7174898
11
20.1758903
21
36.5437596
0
LINE
8
DEFAULT_255_1_388
10
20.1758903
20
36.5437596
11
20.7993498
21
36.5437596
0
LINE
8
DEFAULT_255_1_388
10
20.7993498
20
36.5437596
11
20.7993498
21
36.4019
0
LINE
8
DEFAULT_255_1_388
10
20.7993498
20
36.4019
11
20.0015024
21
36.4019
0
LINE
8
DEFAULT_255_1_388
10
20.0015024
20
36.4019
11
20.0015024
21
37.7174898
0
LINE
8
DEFAULT_255_1_388
10
20.0015024
20
37.7174898
11
20.1758903
21
37.7174898
0
LINE
8
DEFAULT_255_1_388
10
21.8158598
20
36.5383382
11
21.8158598
21
36.4019
0
LINE
8
DEFAULT_255_1_388
10
21.8158598
20
36.4019
11
20.9538593
21
36.4019
0
LINE
8
DEFAULT_255_1_388
10
20.9538593
20
36.4019
11
20.9538593
21
36.5220741
0
LINE
8
DEFAULT_255_1_388
10
20.9538593
20
36.5220741
11
21.4092558
21
37.0280702
0
LINE
8
DEFAULT_255_1_388
10
21.0957189
20
37.3298607
11
20.9285595
21
37.3298607
0
LINE
8
DEFAULT_255_1_388
10
21.5077443
20
36.920546
11
21.1553542
21
36.5383382
0
LINE
8
DEFAULT_255_1_388
10
21.1553542
20
36.5383382
11
21.8158598
21
36.5383382
0
ARC
8
DEFAULT_255_1_388
10
19.8916618
20
38.3700983
40
2.0258655
50
318.5132526
51
320.7829045
0
ARC
8
DEFAULT_255_1_388
10
20.4864575
20
37.8859929
40
1.2589638
50
320.7372878
51
323.9739031
0
ARC
8
DEFAULT_255_1_388
10
20.9273506
20
37.5665554
40
0.7145141
50
323.8962701
51
328.64194
0
ARC
8
DEFAULT_255_1_388
10
21.1575764
20
37.4245545
40
0.4440242
50
328.8294576
51
331.7891185
0
ARC
8
DEFAULT_255_1_388
10
21.2698084
20
37.3666374
40
0.3177517
50
331.4254512
51
352.9365785
0
ARC
8
DEFAULT_255_1_388
10
21.2851084
20
37.363205
40
0.3021496
50
353.2257659
51
0.0166158
0
ARC
8
DEFAULT_255_1_388
10
21.3087845
20
37.3657894
40
0.2784847
50
359.486299
51
15.9343185
0
ARC
8
DEFAULT_255_1_388
10
21.3658111
20
37.3811269
40
0.2194403
50
16.1712913
51
43.5286088
0
ARC
8
DEFAULT_255_1_388
10
21.3745056
20
37.3898191
40
0.2071504
50
43.4417391
51
83.1661095
0
ARC
8
DEFAULT_255_1_388
10
21.3594217
20
37.3069316
40
0.2912888
50
82.160179
51
90.1505708
0
ARC
8
DEFAULT_255_1_388
10
21.3558699
20
37.2465279
40
0.3517025
50
89.5460741
51
102.5418361
0
ARC
8
DEFAULT_255_1_388
10
21.3285419
20
37.3624933
40
0.2325748
50
102.1738499
51
129.206123
0
ARC
8
DEFAULT_255_1_388
10
21.3196872
20
37.3764664
40
0.2161591
50
129.72865
51
135.753947
0
ARC
8
DEFAULT_255_1_388
10
21.3333354
20
37.3655728
40
0.2335433
50
136.1757367
51
166.3673339
0
ARC
8
DEFAULT_255_1_388
10
21.4466043
20
37.3352148
40
0.3507873
50
165.9090694
51
178.8684636
0
ARC
8
DEFAULT_255_1_388
10
21.5441814
20
37.3299263
40
0.4484624
50
178.4391136
51
180.0083808
0
ARC
8
DEFAULT_255_1_388
10
21.3862516
20
37.3343197
40
0.4577138
50
163.2878482
51
180.5581842
0
ARC
8
DEFAULT_255_1_388
10
21.2960557
20
37.3591393
40
0.3641968
50
133.4540601
51
162.947111
0
ARC
8
DEFAULT_255_1_388
10
21.3161438
20
37.3377789
40
0.3935189
50
100.7869829
51
133.4382499
0
ARC
8
DEFAULT_255_1_388
10
21.3552683
20
37.1635399
40
0.5720313
50
89.660664
51
101.3702276
0
ARC
8
DEFAULT_255_1_388
10
21.3627292
20
37.1704263
40
0.5651495
50
78.2172678
51
90.412935
0
ARC
8
DEFAULT_255_1_388
10
21.4026758
20
37.3531511
40
0.378122
50
55.9269121
51
78.4888449
0
ARC
8
DEFAULT_255_1_388
10
21.4247473
20
37.3912187
40
0.3342379
50
47.929771
51
55.4049217
0
ARC
8
DEFAULT_255_1_388
10
21.4362004
20
37.4028618
40
0.3179217
50
4.334829
51
48.0560205
0
ARC
8
DEFAULT_255_1_388
10
21.3129805
20
37.3837487
40
0.442341
50
359.9251713
51
5.5971671
0
ARC
8
DEFAULT_255_1_388
10
21.361196
20
37.3900728
40
0.3941854
50
337.8914027
51
358.9967534
0
ARC
8
DEFAULT_255_1_388
10
21.055953
20
37.5078295
40
0.7213271
50
326.9132501
51
338.3508308
0
ARC
8
DEFAULT_255_1_388
10
20.6075642
20
37.7952105
40
1.2538973
50
319.6471833
51
327.0959558
0
ARC
8
DEFAULT_255_1_388
10
20.17623
20
38.151005
40
1.8129975
50
317.2588228
51
319.9045804
0
LINE
8
DEFAULT_255_1_388
10
22.3579985
20
37.0289737
11
22.3579985
21
36.8925355
0
LINE
8
DEFAULT_255_1_388
10
22.3579985
20
36.8925355
11
21.917059
21
36.8925355
0
LINE
8
DEFAULT_255_1_388
10
21.917059
20
36.8925355
11
21.917059
21
37.0289737
0
LINE
8
DEFAULT_255_1_388
10
21.917059
20
37.0289737
11
22.3579985
21
37.0289737
0
LINE
8
DEFAULT_255_1_388
10
23.0528396
20
37.7238148
11
23.0528396
21
36.4019
0
LINE
8
DEFAULT_255_1_388
10
23.0528396
20
36.4019
11
22.8847766
21
36.4019
0
LINE
8
DEFAULT_255_1_388
10
22.8847766
20
36.4019
11
22.8847766
21
37.515995
0
LINE
8
DEFAULT_255_1_388
10
22.8847766
20
37.515995
11
22.547747
21
37.3922066
0
LINE
8
DEFAULT_255_1_388
10
22.547747
20
37.3922066
11
22.547747
21
37.5440055
0
LINE
8
DEFAULT_255_1_388
10
22.547747
20
37.5440055
11
23.0266362
21
37.7238148
0
LINE
8
DEFAULT_255_1_388
10
23.0266362
20
37.7238148
11
23.0528396
21
37.7238148
0
LINE
8
DEFAULT_255_1_388
10
24.0919387
20
37.7238148
11
24.0919387
21
36.4019
0
LINE
8
DEFAULT_255_1_388
10
24.0919387
20
36.4019
11
23.9238757
21
36.4019
0
LINE
8
DEFAULT_255_1_388
10
23.9238757
20
36.4019
11
23.9238757
21
37.515995
0
LINE
8
DEFAULT_255_1_388
10
23.9238757
20
37.515995
11
23.5868461
21
37.3922066
0
LINE
8
DEFAULT_255_1_388
10
23.5868461
20
37.3922066
11
23.5868461
21
37.5440055
0
LINE
8
DEFAULT_255_1_388
10
23.5868461
20
37.5440055
11
24.0657353
21
37.7238148
0
LINE
8
DEFAULT_255_1_388
10
24.0657353
20
37.7238148
11
24.0919387
21
37.7238148
0
LINE
8
DEFAULT_255_1_388
10
20.1680903
20
45.6549898
11
20.1680903
21
44.4812596
0
LINE
8
DEFAULT_255_1_388
10
20.1680903
20
44.4812596
11
20.7915498
21
44.4812596
0
LINE
8
DEFAULT_255_1_388
10
20.7915498
20
44.4812596
11
20.7915498
21
44.3394
0
LINE
8
DEFAULT_255_1_388
10
20.7915498
20
44.3394
11
19.9937024
21
44.3394
0
LINE
8
DEFAULT_255_1_388
10
19.9937024
20
44.3394
11
19.9937024
21
45.6549898
0
LINE
8
DEFAULT_255_1_388
10
19.9937024
20
45.6549898
11
20.1680903
21
45.6549898
0
LINE
8
DEFAULT_255_1_388
10
21.8080598
20
44.4758382
11
21.8080598
21
44.3394
0
LINE
8
DEFAULT_255_1_388
10
21.8080598
20
44.3394
11
20.9460593
21
44.3394
0
LINE
8
DEFAULT_255_1_388
10
20.9460593
20
44.3394
11
20.9460593
21
44.4595741
0
LINE
8
DEFAULT_255_1_388
10
20.9460593
20
44.4595741
11
21.4014558
21
44.9655702
0
LINE
8
DEFAULT_255_1_388
10
21.0879189
20
45.2673607
11
20.9207595
21
45.2673607
0
LINE
8
DEFAULT_255_1_388
10
21.4999443
20
44.858046
11
21.1475542
21
44.4758382
0
LINE
8
DEFAULT_255_1_388
10
21.1475542
20
44.4758382
11
21.8080598
21
44.4758382
0
ARC
8
DEFAULT_255_1_388
10
19.8838618
20
46.3075983
40
2.0258655
50
318.5132526
51
320.7829045
0
ARC
8
DEFAULT_255_1_388
10
20.4786575
20
45.8234929
40
1.2589638
50
320.7372878
51
323.9739031
0
ARC
8
DEFAULT_255_1_388
10
20.9195506
20
45.5040554
40
0.7145141
50
323.8962701
51
328.64194
0
ARC
8
DEFAULT_255_1_388
10
21.1497764
20
45.3620545
40
0.4440242
50
328.8294576
51
331.7891185
0
ARC
8
DEFAULT_255_1_388
10
21.2620084
20
45.3041374
40
0.3177517
50
331.4254512
51
352.9365785
0
ARC
8
DEFAULT_255_1_388
10
21.2773084
20
45.300705
40
0.3021496
50
353.2257659
51
0.0166158
0
ARC
8
DEFAULT_255_1_388
10
21.3009845
20
45.3032894
40
0.2784847
50
359.486299
51
15.9343185
0
ARC
8
DEFAULT_255_1_388
10
21.3580111
20
45.3186269
40
0.2194403
50
16.1712913
51
43.5286088
0
ARC
8
DEFAULT_255_1_388
10
21.3667056
20
45.3273191
40
0.2071504
50
43.4417391
51
83.1661095
0
ARC
8
DEFAULT_255_1_388
10
21.3516217
20
45.2444316
40
0.2912888
50
82.160179
51
90.1505708
0
ARC
8
DEFAULT_255_1_388
10
21.3480699
20
45.1840279
40
0.3517025
50
89.5460741
51
102.5418361
0
ARC
8
DEFAULT_255_1_388
10
21.3207419
20
45.2999933
40
0.2325748
50
102.1738499
51
129.206123
0
ARC
8
DEFAULT_255_1_388
10
21.3118872
20
45.3139664
40
0.2161591
50
129.72865
51
135.753947
0
ARC
8
DEFAULT_255_1_388
10
21.3255354
20
45.3030728
40
0.2335433
50
136.1757367
51
166.3673339
0
ARC
8
DEFAULT_255_1_388
10
21.4388043
20
45.2727148
40
0.3507873
50
165.9090694
51
178.8684636
0
ARC
8
DEFAULT_255_1_388
10
21.5363814
20
45.2674263
40
0.4484624
50
178.4391136
51
180.0083808
0
ARC
8
DEFAULT_255_1_388
10
21.3784516
20
45.2718197
40
0.4577138
50
163.2878482
51
180.5581842
0
ARC
8
DEFAULT_255_1_388
10
21.2882557
20
45.2966393
40
0.3641968
50
133.4540601
51
162.947111
0
ARC
8
DEFAULT_255_1_388
10
21.3083438
20
45.2752789
40
0.3935189
50
100.7869829
51
133.4382499
0
ARC
8
DEFAULT_255_1_388
10
21.3474683
20
45.1010399
40
0.5720313
50
89.660664
51
101.3702276
0
ARC
8
DEFAULT_255_1_388
10
21.3549292
20
45.1079263
40
0.5651495
50
78.2172678
51
90.412935
0
ARC
8
DEFAULT_255_1_388
10
21.3948758
20
45.2906511
40
0.378122
50
55.9269121
51
78.4888449
0
ARC
8
DEFAULT_255_1_388
10
21.4169473
20
45.3287187
40
0.3342379
50
47.929771
51
55.4049217
0
ARC
8
DEFAULT_255_1_388
10
21.4284004
20
45.3403618
40
0.3179217
50
4.334829
51
48.0560205
0
ARC
8
DEFAULT_255_1_388
10
21.3051805
20
45.3212487
40
0.442341
50
359.9251713
51
5.5971671
0
ARC
8
DEFAULT_255_1_388
10
21.353396
20
45.3275728
40
0.3941854
50
337.8914027
51
358.9967534
0
ARC
8
DEFAULT_255_1_388
10
21.048153
20
45.4453295
40
0.7213271
50
326.9132501
51
338.3508308
0
ARC
8
DEFAULT_255_1_388
10
20.5997642
20
45.7327105
40
1.2538973
50
319.6471833
51
327.0959558
0
ARC
8
DEFAULT_255_1_388
10
20.16843
20
46.088505
40
1.8129975
50
317.2588228
51
319.9045804
0
LINE
8
DEFAULT_255_1_388
10
22.3501985
20
44.9664737
11
22.3501985
21
44.8300355
0
LINE
8
DEFAULT_255_1_388
10
22.3501985
20
44.8300355
11
21.909259
21
44.8300355
0
LINE
8
DEFAULT_255_1_388
10
21.909259
20
44.8300355
11
21.909259
21
44.9664737
0
LINE
8
DEFAULT_255_1_388
10
21.909259
20
44.9664737
11
22.3501985
21
44.9664737
0
LINE
8
DEFAULT_255_1_388
10
23.0450396
20
45.6613148
11
23.0450396
21
44.3394
0
LINE
8
DEFAULT_255_1_388
10
23.0450396
20
44.3394
11
22.8769766
21
44.3394
0
LINE
8
DEFAULT_255_1_388
10
22.8769766
20
44.3394
11
22.8769766
21
45.453495
0
LINE
8
DEFAULT_255_1_388
10
22.8769766
20
45.453495
11
22.539947
21
45.3297066
0
LINE
8
DEFAULT_255_1_388
10
22.539947
20
45.3297066
11
22.539947
21
45.4815055
0
LINE
8
DEFAULT_255_1_388
10
22.539947
20
45.4815055
11
23.0188362
21
45.6613148
0
LINE
8
DEFAULT_255_1_388
10
23.0188362
20
45.6613148
11
23.0450396
21
45.6613148
0
LINE
8
DEFAULT_255_1_388
10
24.3597258
20
45.117369
11
24.3597258
21
44.9005135
0
LINE
8
DEFAULT_255_1_388
10
23.5293501
20
44.8779244
11
23.5293501
21
45.1011048
0
LINE
8
DEFAULT_255_1_388
10
24.1925664
20
44.8553353
11
24.1925664
21
45.1291153
0
LINE
8
DEFAULT_255_1_388
10
23.6965095
20
45.1417652
11
23.6965095
21
44.8743102
0
ARC
8
DEFAULT_255_1_388
10
22.9819592
20
44.8950118
40
1.3777776
50
353.8440855
51
0.2287917
0
ARC
8
DEFAULT_255_1_388
10
23.503861
20
44.8367414
40
0.852639
50
344.4934746
51
353.9763743
0
ARC
8
DEFAULT_255_1_388
10
23.8405417
20
44.7410191
40
0.5026273
50
329.2803599
51
344.7473406
0
ARC
8
DEFAULT_255_1_388
10
23.9520913
20
44.6798038
40
0.3754848
50
324.9361395
51
328.6153007
0
ARC
8
DEFAULT_255_1_388
10
23.9946562
20
44.6500586
40
0.3235566
50
280.5801797
51
324.9173226
0
ARC
8
DEFAULT_255_1_388
10
23.9495191
20
44.8380236
40
0.5167077
50
269.5979457
51
281.6732777
0
ARC
8
DEFAULT_255_1_388
10
23.9414095
20
44.8245113
40
0.5032026
50
256.6228565
51
270.5105488
0
ARC
8
DEFAULT_255_1_388
10
23.8961837
20
44.6503345
40
0.3233092
50
215.8618351
51
257.2787793
0
ARC
8
DEFAULT_255_1_388
10
24.0110544
20
44.7274106
40
0.4615831
50
197.9695203
51
215.2622745
0
ARC
8
DEFAULT_255_1_388
10
24.290622
20
44.8217641
40
0.7566307
50
187.8816486
51
198.2346584
0
ARC
8
DEFAULT_255_1_388
10
24.7359458
20
44.8860453
40
1.2065653
50
180.8977266
51
188.0054894
0
ARC
8
DEFAULT_255_1_388
10
25.0409672
20
44.89754
40
1.5117443
50
180.7434591
51
181.152202
0
ARC
8
DEFAULT_255_1_388
10
24.8734668
20
45.1065371
40
1.3441277
50
173.7674302
51
180.2315596
0
ARC
8
DEFAULT_255_1_388
10
24.3652537
20
45.1639779
40
0.8326847
50
164.3058537
51
173.9000553
0
ARC
8
DEFAULT_255_1_388
10
24.0376537
20
45.2583652
40
0.4917711
50
148.7922028
51
164.5682288
0
ARC
8
DEFAULT_255_1_388
10
23.9307274
20
45.3180457
40
0.3694204
50
144.5883979
51
148.1161588
0
ARC
8
DEFAULT_255_1_388
10
23.8920019
20
45.3450667
40
0.322202
50
101.6440149
51
144.5142619
0
ARC
8
DEFAULT_255_1_388
10
23.9398212
20
45.1550337
40
0.5180451
50
89.528284
51
102.5820197
0
ARC
8
DEFAULT_255_1_388
10
23.9487204
20
45.1506376
40
0.5224441
50
77.0437914
51
90.508231
0
ARC
8
DEFAULT_255_1_388
10
23.9939457
20
45.3354272
40
0.3322297
50
48.2777708
51
77.4996087
0
ARC
8
DEFAULT_255_1_388
10
24.0021197
20
45.3499557
40
0.315966
50
36.3141586
51
47.6307332
0
ARC
8
DEFAULT_255_1_388
10
23.9043919
20
45.2841159
40
0.4337313
50
18.2931065
51
35.6770203
0
ARC
8
DEFAULT_255_1_388
10
23.618276
20
45.1859107
40
0.7362203
50
8.0246996
51
18.5605636
0
ARC
8
DEFAULT_255_1_388
10
23.1499116
20
45.1167432
40
1.2096583
50
1.127539
51
8.1718423
0
ARC
8
DEFAULT_255_1_388
10
22.7850249
20
45.1024374
40
1.5747719
50
0.5432713
51
1.38669
0
ARC
8
DEFAULT_255_1_388
10
22.9907628
20
45.1331163
40
1.2018103
50
359.8092569
51
4.9408001
0
ARC
8
DEFAULT_255_1_388
10
23.4644209
20
45.17539
40
0.7262727
50
4.8364937
51
12.2906017
0
ARC
8
DEFAULT_255_1_388
10
23.7743674
20
45.2444485
40
0.4087324
50
12.0806994
51
23.8171225
0
ARC
8
DEFAULT_255_1_388
10
23.906407
20
45.3003508
40
0.2653719
50
24.2874621
51
31.3934353
0
ARC
8
DEFAULT_255_1_388
10
23.9654506
20
45.3389822
40
0.1948607
50
30.7407708
51
82.4658033
0
ARC
8
DEFAULT_255_1_388
10
23.9452167
20
45.2396017
40
0.2961198
50
81.1057101
51
90.2187368
0
ARC
8
DEFAULT_255_1_388
10
23.9411979
20
45.2686421
40
0.2670929
50
89.380395
51
105.6763916
0
ARC
8
DEFAULT_255_1_388
10
23.9205701
20
45.343632
40
0.1893189
50
105.7980655
51
149.7387869
0
ARC
8
DEFAULT_255_1_388
10
24.0402841
20
45.2716719
40
0.3289892
50
149.4208441
51
163.628295
0
ARC
8
DEFAULT_255_1_388
10
24.275507
20
45.1999345
40
0.5749004
50
163.3764549
51
172.141138
0
ARC
8
DEFAULT_255_1_388
10
24.6467792
20
45.1467582
40
0.9499585
50
172.0258462
51
178.0705453
0
ARC
8
DEFAULT_255_1_388
10
24.9889344
20
45.1305682
40
1.2924734
50
177.8639301
51
179.5036263
0
ARC
8
DEFAULT_255_1_388
10
24.8670363
20
44.8702151
40
1.170534
50
179.7995545
51
185.246089
0
ARC
8
DEFAULT_255_1_388
10
24.4121956
20
44.8271404
40
0.7136613
50
185.1411911
51
193.0082205
0
ARC
8
DEFAULT_255_1_388
10
24.1148217
20
44.7568441
40
0.4080987
50
192.7897338
51
205.2507384
0
ARC
8
DEFAULT_255_1_388
10
23.9970427
20
44.7042538
40
0.2791522
50
205.8001921
51
211.2545876
0
ARC
8
DEFAULT_255_1_388
10
23.9381966
20
44.6648132
40
0.2084074
50
210.3789935
51
238.4007996
0
ARC
8
DEFAULT_255_1_388
10
23.9360052
20
44.6700786
40
0.2117943
50
239.6521916
51
265.9793852
0
ARC
8
DEFAULT_255_1_388
10
23.9455901
20
44.7457358
40
0.2879689
50
265.1324455
51
270.0603288
0
ARC
8
DEFAULT_255_1_388
10
23.9488278
20
44.7092418
40
0.2514919
50
269.3314378
51
287.2180039
0
ARC
8
DEFAULT_255_1_388
10
23.964336
20
44.6526291
40
0.1928357
50
287.7957942
51
329.0808983
0
ARC
8
DEFAULT_255_1_388
10
23.8566117
20
44.7198651
40
0.319808
50
328.6635261
51
343.3325043
0
ARC
8
DEFAULT_255_1_388
10
23.6121576
20
44.7960195
40
0.5758408
50
343.0498092
51
351.9392499
0
ARC
8
DEFAULT_255_1_388
10
23.2220897
20
44.8535205
40
0.9701202
50
351.8071632
51
357.7957897
0
ARC
8
DEFAULT_255_1_388
10
22.8586375
20
44.8723724
40
1.3340376
50
357.5870923
51
359.2682493
0
LINE
8
DEFAULT_255_1_388
10
21.2082903
20
53.5924898
11
21.2082903
21
52.4187596
0
LINE
8
DEFAULT_255_1_388
10
21.2082903
20
52.4187596
11
21.8317498
21
52.4187596
0
LINE
8
DEFAULT_255_1_388
10
21.8317498
20
52.4187596
11
21.8317498
21
52.2769
0
LINE
8
DEFAULT_255_1_388
10
21.8317498
20
52.2769
11
21.0339024
21
52.2769
0
LINE
8
DEFAULT_255_1_388
10
21.0339024
20
52.2769
11
21.0339024
21
53.5924898
0
LINE
8
DEFAULT_255_1_388
10
21.0339024
20
53.5924898
11
21.2082903
21
53.5924898
0
LINE
8
DEFAULT_255_1_388
10
22.8482598
20
52.4133382
11
22.8482598
21
52.2769
0
LINE
8
DEFAULT_255_1_388
10
22.8482598
20
52.2769
11
21.9862593
21
52.2769
0
LINE
8
DEFAULT_255_1_388
10
21.9862593
20
52.2769
11
21.9862593
21
52.3970741
0
LINE
8
DEFAULT_255_1_388
10
21.9862593
20
52.3970741
11
22.4416558
21
52.9030702
0
LINE
8
DEFAULT_255_1_388
10
22.1281189
20
53.2048607
11
21.9609595
21
53.2048607
0
LINE
8
DEFAULT_255_1_388
10
22.5401443
20
52.795546
11
22.1877542
21
52.4133382
0
LINE
8
DEFAULT_255_1_388
10
22.1877542
20
52.4133382
11
22.8482598
21
52.4133382
0
ARC
8
DEFAULT_255_1_388
10
20.9240618
20
54.2450983
40
2.0258655
50
318.5132526
51
320.7829045
0
ARC
8
DEFAULT_255_1_388
10
21.5188575
20
53.7609929
40
1.2589638
50
320.7372878
51
323.9739031
0
ARC
8
DEFAULT_255_1_388
10
21.9597506
20
53.4415554
40
0.7145141
50
323.8962701
51
328.64194
0
ARC
8
DEFAULT_255_1_388
10
22.1899764
20
53.2995545
40
0.4440242
50
328.8294576
51
331.7891185
0
ARC
8
DEFAULT_255_1_388
10
22.3022084
20
53.2416374
40
0.3177517
50
331.4254512
51
352.9365785
0
ARC
8
DEFAULT_255_1_388
10
22.3175084
20
53.238205
40
0.3021496
50
353.2257659
51
0.0166158
0
ARC
8
DEFAULT_255_1_388
10
22.3411845
20
53.2407894
40
0.2784847
50
359.486299
51
15.9343185
0
ARC
8
DEFAULT_255_1_388
10
22.3982111
20
53.2561269
40
0.2194403
50
16.1712913
51
43.5286088
0
ARC
8
DEFAULT_255_1_388
10
22.4069056
20
53.2648191
40
0.2071504
50
43.4417391
51
83.1661095
0
ARC
8
DEFAULT_255_1_388
10
22.3918217
20
53.1819316
40
0.2912888
50
82.160179
51
90.1505708
0
ARC
8
DEFAULT_255_1_388
10
22.3882699
20
53.1215279
40
0.3517025
50
89.5460741
51
102.5418361
0
ARC
8
DEFAULT_255_1_388
10
22.3609419
20
53.2374933
40
0.2325748
50
102.1738499
51
129.206123
0
ARC
8
DEFAULT_255_1_388
10
22.3520872
20
53.2514664
40
0.2161591
50
129.72865
51
135.753947
0
ARC
8
DEFAULT_255_1_388
10
22.3657354
20
53.2405728
40
0.2335433
50
136.1757367
51
166.3673339
0
ARC
8
DEFAULT_255_1_388
10
22.4790043
20
53.2102148
40
0.3507873
50
165.9090694
51
178.8684636
0
ARC
8
DEFAULT_255_1_388
10
22.5765814
20
53.2049263
40
0.4484624
50
178.4391136
51
180.0083808
0
ARC
8
DEFAULT_255_1_388
10
22.4186516
20
53.2093197
40
0.4577138
50
163.2878482
51
180.5581842
0
ARC
8
DEFAULT_255_1_388
10
22.3284557
20
53.2341393
40
0.3641968
50
133.4540601
51
162.947111
0
ARC
8
DEFAULT_255_1_388
10
22.3485438
20
53.2127789
40
0.3935189
50
100.7869829
51
133.4382499
0
ARC
8
DEFAULT_255_1_388
10
22.3876683
20
53.0385399
40
0.5720313
50
89.660664
51
101.3702276
0
ARC
8
DEFAULT_255_1_388
10
22.3951292
20
53.0454263
40
0.5651495
50
78.2172678
51
90.412935
0
ARC
8
DEFAULT_255_1_388
10
22.4350758
20
53.2281511
40
0.378122
50
55.9269121
51
78.4888449
0
ARC
8
DEFAULT_255_1_388
10
22.4571473
20
53.2662187
40
0.3342379
50
47.929771
51
55.4049217
0
ARC
8
DEFAULT_255_1_388
10
22.4686004
20
53.2778618
40
0.3179217
50
4.334829
51
48.0560205
0
ARC
8
DEFAULT_255_1_388
10
22.3453805
20
53.2587487
40
0.442341
50
359.9251713
51
5.5971671
0
ARC
8
DEFAULT_255_1_388
10
22.393596
20
53.2650728
40
0.3941854
50
337.8914027
51
358.9967534
0
ARC
8
DEFAULT_255_1_388
10
22.088353
20
53.3828295
40
0.7213271
50
326.9132501
51
338.3508308
0
ARC
8
DEFAULT_255_1_388
10
21.6399642
20
53.6702105
40
1.2538973
50
319.6471833
51
327.0959558
0
ARC
8
DEFAULT_255_1_388
10
21.20863
20
54.026005
40
1.8129975
50
317.2588228
51
319.9045804
0
LINE
8
DEFAULT_255_1_388
10
23.3903985
20
52.9039737
11
23.3903985
21
52.7675355
0
LINE
8
DEFAULT_255_1_388
10
23.3903985
20
52.7675355
11
22.949459
21
52.7675355
0
LINE
8
DEFAULT_255_1_388
10
22.949459
20
52.7675355
11
22.949459
21
52.9039737
0
LINE
8
DEFAULT_255_1_388
10
22.949459
20
52.9039737
11
23.3903985
21
52.9039737
0
LINE
8
DEFAULT_255_1_388
10
24.3445625
20
53.0666153
11
24.3445625
21
53.0178229
0
LINE
8
DEFAULT_255_1_388
10
23.7346565
20
52.2759964
11
23.7021282
21
52.2759964
0
LINE
8
DEFAULT_255_1_388
10
23.7021282
20
52.2759964
11
23.7021282
21
52.4169525
0
LINE
8
DEFAULT_255_1_388
10
23.7021282
20
52.4169525
11
23.7373672
21
52.4169525
0
LINE
8
DEFAULT_255_1_388
10
24.1774031
20
53.034087
11
24.1774031
21
53.1009508
0
ARC
8
DEFAULT_255_1_388
10
23.8631123
20
53.1179877
40
0.4089973
50
297.4036461
51
320.0168133
0
ARC
8
DEFAULT_255_1_388
10
23.8957303
20
53.0553072
40
0.3383378
50
270.2631886
51
297.3852322
0
ARC
8
DEFAULT_255_1_388
10
23.8918979
20
53.1090343
40
0.3920983
50
269.9969069
51
270.7871389
0
ARC
8
DEFAULT_255_1_388
10
23.8890303
20
53.1072737
40
0.3903482
50
254.5997295
51
270.4178147
0
ARC
8
DEFAULT_255_1_388
10
23.8729834
20
53.0437693
40
0.3248657
50
236.4717231
51
254.3539376
0
ARC
8
DEFAULT_255_1_388
10
23.8905566
20
53.0673999
40
0.3542746
50
208.4727261
51
236.2134628
0
ARC
8
DEFAULT_255_1_388
10
23.9624329
20
53.1113676
40
0.4384402
50
204.3450776
51
209.0455365
0
ARC
8
DEFAULT_255_1_388
10
24.0388705
20
53.14378
40
0.5214459
50
183.9375459
51
204.1275509
0
ARC
8
DEFAULT_255_1_388
10
24.1411011
20
53.1547863
40
0.6242037
50
179.9652726
51
184.3010611
0
ARC
8
DEFAULT_255_1_388
10
24.1140557
20
53.1585004
40
0.5971675
50
166.7585952
51
180.3200491
0
ARC
8
DEFAULT_255_1_388
10
24.0188365
20
53.1791979
40
0.4997418
50
154.6954866
51
166.5679151
0
ARC
8
DEFAULT_255_1_388
10
23.9228605
20
53.2275411
40
0.3923208
50
136.3325251
51
155.0871367
0
ARC
8
DEFAULT_255_1_388
10
23.8912524
20
53.2546271
40
0.3507618
50
121.2365985
51
135.9680081
0
ARC
8
DEFAULT_255_1_388
10
23.9070589
20
53.2253541
40
0.3839917
50
96.8454764
51
120.9881329
0
ARC
8
DEFAULT_255_1_388
10
23.9234395
20
53.1200942
40
0.4904679
50
89.887204
51
97.2797758
0
ARC
8
DEFAULT_255_1_388
10
23.9293368
20
53.1918652
40
0.418725
50
70.6505767
51
90.6748382
0
ARC
8
DEFAULT_255_1_388
10
23.9441065
20
53.2496091
40
0.3593866
50
36.7493297
51
69.8220487
0
ARC
8
DEFAULT_255_1_388
10
23.8317412
20
53.1620446
40
0.5018201
50
15.3958155
51
37.0841102
0
ARC
8
DEFAULT_255_1_388
10
23.5921697
20
53.0922111
40
0.7513436
50
3.9487796
51
15.6798517
0
ARC
8
DEFAULT_255_1_388
10
23.3220339
20
53.067881
40
1.0225293
50
359.9290791
51
4.266464
0
ARC
8
DEFAULT_255_1_388
10
22.8039256
20
53.0103372
40
1.5406551
50
352.8365702
51
0.2783851
0
ARC
8
DEFAULT_255_1_388
10
23.3987487
20
52.9330664
40
0.9408425
50
341.8359339
51
352.9884057
0
ARC
8
DEFAULT_255_1_388
10
23.7608474
20
52.8110144
40
0.5587481
50
322.8579243
51
342.1527461
0
ARC
8
DEFAULT_255_1_388
10
23.8580166
20
52.744735
40
0.4413099
50
319.3348471
51
322.100194
0
ARC
8
DEFAULT_255_1_388
10
23.8232097
20
52.7796814
40
0.4904992
50
285.954114
51
318.8878716
0
ARC
8
DEFAULT_255_1_388
10
23.7414535
20
53.0395865
40
0.7628991
50
272.9280841
51
286.4924389
0
ARC
8
DEFAULT_255_1_388
10
23.7200839
20
53.293024
40
1.017132
50
270.8209173
51
273.4010121
0
ARC
8
DEFAULT_255_1_388
10
23.7300862
20
53.0882073
40
0.6712943
50
270.6214576
51
281.4062333
0
ARC
8
DEFAULT_255_1_388
10
23.7784586
20
52.856925
40
0.4350167
50
281.1852583
51
299.0622058
0
ARC
8
DEFAULT_255_1_388
10
23.8204831
20
52.7758138
40
0.3437146
50
299.5068171
51
313.1200142
0
ARC
8
DEFAULT_255_1_388
10
23.8229569
20
52.7668959
40
0.3355418
50
313.8525725
51
338.5989631
0
ARC
8
DEFAULT_255_1_388
10
23.6402697
20
52.8419576
40
0.5330317
50
338.2523315
51
351.2431701
0
ARC
8
DEFAULT_255_1_388
10
23.3690448
20
52.8880494
40
0.8081235
50
350.940933
51
357.6690137
0
ARC
8
DEFAULT_255_1_388
10
23.9192328
20
53.1133048
40
0.2581236
50
269.9447107
51
306.8249644
0
ARC
8
DEFAULT_255_1_388
10
23.892563
20
53.160906
40
0.3122948
50
305.5071046
51
327.0773808
0
ARC
8
DEFAULT_255_1_388
10
23.9058681
20
53.1502445
40
0.2953369
50
327.4106457
51
336.8396801
0
ARC
8
DEFAULT_255_1_388
10
23.5578395
20
53.1045932
40
0.6195743
50
359.663158
51
10.1176387
0
ARC
8
DEFAULT_255_1_388
10
23.7551158
20
53.1410922
40
0.4189561
50
9.9431549
51
26.7699242
0
ARC
8
DEFAULT_255_1_388
10
23.8223144
20
53.1720796
40
0.3450125
50
27.2018067
51
34.6833639
0
ARC
8
DEFAULT_255_1_388
10
23.8773757
20
53.213456
40
0.2762035
50
34.124913
51
50.30709
0
ARC
8
DEFAULT_255_1_388
10
23.927624
20
53.2735741
40
0.1978518
50
50.3850304
51
90.6705051
0
ARC
8
DEFAULT_255_1_388
10
23.9223633
20
53.2393074
40
0.2321235
50
89.2729817
51
111.9140267
0
ARC
8
DEFAULT_255_1_388
10
23.9201721
20
53.2551308
40
0.2166604
50
112.9381864
51
142.5320936
0
ARC
8
DEFAULT_255_1_388
10
23.981621
20
53.2052392
40
0.2957902
50
142.1024021
51
166.3835244
0
ARC
8
DEFAULT_255_1_388
10
24.114518
20
53.1709213
40
0.4330361
50
166.1100968
51
178.6653563
0
ARC
8
DEFAULT_255_1_388
10
24.2327105
20
53.1643061
40
0.5513642
50
178.2641888
51
180.010994
0
ARC
8
DEFAULT_255_1_388
10
24.1421607
20
53.1611136
40
0.4608248
50
179.6162225
51
191.8786013
0
ARC
8
DEFAULT_255_1_388
10
24.0048917
20
53.130759
40
0.3202502
50
191.6192934
51
215.2970746
0
ARC
8
DEFAULT_255_1_388
10
23.9809572
20
53.1164963
40
0.2924827
50
215.7258926
51
216.5355437
0
ARC
8
DEFAULT_255_1_388
10
23.9221192
20
53.0691919
40
0.2170661
50
215.7486606
51
239.9728403
0
ARC
8
DEFAULT_255_1_388
10
23.9142358
20
53.0634838
40
0.208217
50
241.065081
51
269.280972
0
ARC
8
DEFAULT_255_1_388
10
23.9189516
20
53.1190327
40
0.2638514
50
268.4083352
51
270.0069622
0
LINE
8
DEFAULT_255_1_388
10
21.2082903
20
61.5299898
11
21.2082903
21
60.3562596
0
LINE
8
DEFAULT_255_1_388
10
21.2082903
20
60.3562596
11
21.8317498
21
60.3562596
0
LINE
8
DEFAULT_255_1_388
10
21.8317498
20
60.3562596
11
21.8317498
21
60.2144
0
LINE
8
DEFAULT_255_1_388
10
21.8317498
20
60.2144
11
21.0339024
21
60.2144
0
LINE
8
DEFAULT_255_1_388
10
21.0339024
20
60.2144
11
21.0339024
21
61.5299898
0
LINE
8
DEFAULT_255_1_388
10
21.0339024
20
61.5299898
11
21.2082903
21
61.5299898
0
LINE
8
DEFAULT_255_1_388
10
22.8482598
20
60.3508382
11
22.8482598
21
60.2144
0
LINE
8
DEFAULT_255_1_388
10
22.8482598
20
60.2144
11
21.9862593
21
60.2144
0
LINE
8
DEFAULT_255_1_388
10
21.9862593
20
60.2144
11
21.9862593
21
60.3345741
0
LINE
8
DEFAULT_255_1_388
10
21.9862593
20
60.3345741
11
22.4416558
21
60.8405702
0
LINE
8
DEFAULT_255_1_388
10
22.1281189
20
61.1423607
11
21.9609595
21
61.1423607
0
LINE
8
DEFAULT_255_1_388
10
22.5401443
20
60.733046
11
22.1877542
21
60.3508382
0
LINE
8
DEFAULT_255_1_388
10
22.1877542
20
60.3508382
11
22.8482598
21
60.3508382
0
ARC
8
DEFAULT_255_1_388
10
20.9240618
20
62.1825983
40
2.0258655
50
318.5132526
51
320.7829045
0
ARC
8
DEFAULT_255_1_388
10
21.5188575
20
61.6984929
40
1.2589638
50
320.7372878
51
323.9739031
0
ARC
8
DEFAULT_255_1_388
10
21.9597506
20
61.3790554
40
0.7145141
50
323.8962701
51
328.64194
0
ARC
8
DEFAULT_255_1_388
10
22.1899764
20
61.2370545
40
0.4440242
50
328.8294576
51
331.7891185
0
ARC
8
DEFAULT_255_1_388
10
22.3022084
20
61.1791374
40
0.3177517
50
331.4254512
51
352.9365785
0
ARC
8
DEFAULT_255_1_388
10
22.3175084
20
61.175705
40
0.3021496
50
353.2257659
51
0.0166158
0
ARC
8
DEFAULT_255_1_388
10
22.3411845
20
61.1782894
40
0.2784847
50
359.486299
51
15.9343185
0
ARC
8
DEFAULT_255_1_388
10
22.3982111
20
61.1936269
40
0.2194403
50
16.1712913
51
43.5286088
0
ARC
8
DEFAULT_255_1_388
10
22.4069056
20
61.2023191
40
0.2071504
50
43.4417391
51
83.1661095
0
ARC
8
DEFAULT_255_1_388
10
22.3918217
20
61.1194316
40
0.2912888
50
82.160179
51
90.1505708
0
ARC
8
DEFAULT_255_1_388
10
22.3882699
20
61.0590279
40
0.3517025
50
89.5460741
51
102.5418361
0
ARC
8
DEFAULT_255_1_388
10
22.3609419
20
61.1749933
40
0.2325748
50
102.1738499
51
129.206123
0
ARC
8
DEFAULT_255_1_388
10
22.3520872
20
61.1889664
40
0.2161591
50
129.72865
51
135.753947
0
ARC
8
DEFAULT_255_1_388
10
22.3657354
20
61.1780728
40
0.2335433
50
136.1757367
51
166.3673339
0
ARC
8
DEFAULT_255_1_388
10
22.4790043
20
61.1477148
40
0.3507873
50
165.9090694
51
178.8684636
0
ARC
8
DEFAULT_255_1_388
10
22.5765814
20
61.1424263
40
0.4484624
50
178.4391136
51
180.0083808
0
ARC
8
DEFAULT_255_1_388
10
22.4186516
20
61.1468197
40
0.4577138
50
163.2878482
51
180.5581842
0
ARC
8
DEFAULT_255_1_388
10
22.3284557
20
61.1716393
40
0.3641968
50
133.4540601
51
162.947111
0
ARC
8
DEFAULT_255_1_388
10
22.3485438
20
61.1502789
40
0.3935189
50
100.7869829
51
133.4382499
0
ARC
8
DEFAULT_255_1_388
10
22.3876683
20
60.9760399
40
0.5720313
50
89.660664
51
101.3702276
0
ARC
8
DEFAULT_255_1_388
10
22.3951292
20
60.9829263
40
0.5651495
50
78.2172678
51
90.412935
0
ARC
8
DEFAULT_255_1_388
10
22.4350758
20
61.1656511
40
0.378122
50
55.9269121
51
78.4888449
0
ARC
8
DEFAULT_255_1_388
10
22.4571473
20
61.2037187
40
0.3342379
50
47.929771
51
55.4049217
0
ARC
8
DEFAULT_255_1_388
10
22.4686004
20
61.2153618
40
0.3179217
50
4.334829
51
48.0560205
0
ARC
8
DEFAULT_255_1_388
10
22.3453805
20
61.1962487
40
0.442341
50
359.9251713
51
5.5971671
0
ARC
8
DEFAULT_255_1_388
10
22.393596
20
61.2025728
40
0.3941854
50
337.8914027
51
358.9967534
0
ARC
8
DEFAULT_255_1_388
10
22.088353
20
61.3203295
40
0.7213271
50
326.9132501
51
338.3508308
0
ARC
8
DEFAULT_255_1_388
10
21.6399642
20
61.6077105
40
1.2538973
50
319.6471833
51
327.0959558
0
ARC
8
DEFAULT_255_1_388
10
21.20863
20
61.963505
40
1.8129975
50
317.2588228
51
319.9045804
0
LINE
8
DEFAULT_255_1_388
10
23.3903985
20
60.8414737
11
23.3903985
21
60.7050355
0
LINE
8
DEFAULT_255_1_388
10
23.3903985
20
60.7050355
11
22.949459
21
60.7050355
0
LINE
8
DEFAULT_255_1_388
10
22.949459
20
60.7050355
11
22.949459
21
60.8414737
0
LINE
8
DEFAULT_255_1_388
10
22.949459
20
60.8414737
11
23.3903985
21
60.8414737
0
ARC
8
DEFAULT_255_1_388
10
24.0162229
20
61.183772
40
0.3175098
50
338.8762533
51
0.5167111
0
ARC
8
DEFAULT_255_1_388
10
24.0351823
20
61.17866
40
0.2979894
50
325.8415285
51
338.4793574
0
ARC
8
DEFAULT_255_1_388
10
23.9912456
20
61.2091242
40
0.351452
50
296.7587686
51
325.7536481
0
ARC
8
DEFAULT_255_1_388
10
23.9584084
20
61.2645363
40
0.4157374
50
296.0927901
51
297.3613472
0
ARC
8
DEFAULT_255_1_388
10
23.987828
20
60.5262593
40
0.395855
50
47.9007294
51
67.1948823
0
ARC
8
DEFAULT_255_1_388
10
24.0098922
20
60.5539599
40
0.360516
50
35.2363914
51
47.551141
0
ARC
8
DEFAULT_255_1_388
10
24.0393325
20
60.5736093
40
0.3251343
50
359.2759765
51
35.4014143
0
ARC
8
DEFAULT_255_1_388
10
23.9555252
20
60.5653787
40
0.4089365
50
343.1293083
51
0.5775513
0
ARC
8
DEFAULT_255_1_388
10
24.0370365
20
60.5429336
40
0.3244269
50
310.8496669
51
342.7449331
0
ARC
8
DEFAULT_255_1_388
10
23.990024
20
60.5965913
40
0.3957651
50
281.5472888
51
310.9170406
0
ARC
8
DEFAULT_255_1_388
10
23.9499115
20
60.7712814
40
0.5749654
50
269.619248
51
281.9789564
0
ARC
8
DEFAULT_255_1_388
10
23.9417892
20
60.7713776
40
0.5750649
50
257.4585678
51
270.4285689
0
ARC
8
DEFAULT_255_1_388
10
23.8989412
20
60.5909741
40
0.389671
50
228.7554326
51
257.8484789
0
ARC
8
DEFAULT_255_1_388
10
23.8640898
20
60.5490228
40
0.335154
50
184.0104975
51
228.5071184
0
ARC
8
DEFAULT_255_1_388
10
23.994929
20
60.568943
40
0.4671891
50
179.9315832
51
185.3253753
0
ARC
8
DEFAULT_255_1_388
10
23.8625803
20
60.5731592
40
0.33486
50
145.6796023
51
180.6259786
0
ARC
8
DEFAULT_255_1_388
10
23.8809569
20
60.5603271
40
0.3572723
50
115.5537685
51
145.6415986
0
ARC
8
DEFAULT_255_1_388
10
23.9192613
20
60.4917087
40
0.4357296
50
113.243307
51
116.2057839
0
ARC
8
DEFAULT_255_1_388
10
23.9021264
20
61.2114379
40
0.3549126
50
222.9549744
51
244.1370481
0
ARC
8
DEFAULT_255_1_388
10
23.8883908
20
61.1960378
40
0.3343711
50
213.3436887
51
222.6274467
0
ARC
8
DEFAULT_255_1_388
10
23.8667977
20
61.1813653
40
0.3082678
50
180.431584
51
213.271499
0
ARC
8
DEFAULT_255_1_388
10
23.9302976
20
61.1866296
40
0.3718363
50
179.9991191
51
181.1690594
0
ARC
8
DEFAULT_255_1_388
10
23.9775432
20
61.1905072
40
0.4190996
50
164.6186169
51
180.529336
0
ARC
8
DEFAULT_255_1_388
10
23.8765081
20
61.217678
40
0.3144772
50
132.2455553
51
164.5090724
0
ARC
8
DEFAULT_255_1_388
10
23.9088059
20
61.181107
40
0.3632644
50
100.7053914
51
132.1386381
0
ARC
8
DEFAULT_255_1_388
10
23.943112
20
61.0261118
40
0.5219578
50
89.6730358
51
101.2451698
0
ARC
8
DEFAULT_255_1_388
10
23.9501111
20
61.0457648
40
0.5023124
50
76.287748
51
90.4586006
0
ARC
8
DEFAULT_255_1_388
10
23.9845613
20
61.1832671
40
0.3605639
50
47.8240511
51
76.4266241
0
ARC
8
DEFAULT_255_1_388
10
24.0095998
20
61.2125599
40
0.3220463
50
6.9168387
51
47.6262497
0
ARC
8
DEFAULT_255_1_388
10
23.8761451
20
61.1879004
40
0.4575765
50
359.8415968
51
7.9697453
0
ARC
8
DEFAULT_255_1_388
10
23.914572
20
60.5758519
40
0.2827228
50
359.445363
51
16.9256873
0
ARC
8
DEFAULT_255_1_388
10
23.9673154
20
60.5903781
40
0.2280396
50
17.2920767
51
45.4630727
0
ARC
8
DEFAULT_255_1_388
10
23.961229
20
60.5851324
40
0.2360485
50
45.30305
51
83.1920945
0
ARC
8
DEFAULT_255_1_388
10
23.9451035
20
60.4949473
40
0.3275527
50
82.2612665
51
90.1434275
0
ARC
8
DEFAULT_255_1_388
10
23.9416311
20
60.5211869
40
0.3013237
50
89.4956434
51
104.8580688
0
ARC
8
DEFAULT_255_1_388
10
23.92175
20
60.5965455
40
0.2233867
50
104.8856641
51
135.244616
0
ARC
8
DEFAULT_255_1_388
10
23.9273489
20
60.5915352
40
0.2308906
50
135.3399546
51
172.1044062
0
ARC
8
DEFAULT_255_1_388
10
24.0181014
20
60.5741667
40
0.3232034
50
171.2645637
51
180.186429
0
ARC
8
DEFAULT_255_1_388
10
23.9991019
20
60.5705426
40
0.304213
50
179.5154935
51
193.6464289
0
ARC
8
DEFAULT_255_1_388
10
23.9072694
20
60.5471473
40
0.209456
50
193.3540274
51
225.8258581
0
ARC
8
DEFAULT_255_1_388
10
23.9118567
20
60.5551076
40
0.2183738
50
226.4180634
51
255.8552336
0
ARC
8
DEFAULT_255_1_388
10
23.9407033
20
60.6604521
40
0.3275812
50
255.4654104
51
268.7987425
0
ARC
8
DEFAULT_255_1_388
10
23.946021
20
60.7546545
40
0.4218877
50
268.3449238
51
270.0094605
0
ARC
8
DEFAULT_255_1_388
10
23.9486443
20
60.6778094
40
0.3450519
50
269.5759586
51
282.0820163
0
ARC
8
DEFAULT_255_1_388
10
23.9739479
20
60.5659363
40
0.2303642
50
281.752014
51
306.6056188
0
ARC
8
DEFAULT_255_1_388
10
23.9850287
20
60.5477802
40
0.2091906
50
307.1346085
51
314.027845
0
ARC
8
DEFAULT_255_1_388
10
23.9809799
20
60.5507459
40
0.2141385
50
314.2552483
51
350.1694025
0
ARC
8
DEFAULT_255_1_388
10
23.8852036
20
60.5715175
40
0.312082
50
349.4140529
51
0.2933014
0
ARC
8
DEFAULT_255_1_388
10
23.9437313
20
61.1518924
40
0.2588377
50
89.477747
51
105.729729
0
ARC
8
DEFAULT_255_1_388
10
23.9284233
20
61.2087367
40
0.1999733
50
105.9233417
51
135.1660906
0
ARC
8
DEFAULT_255_1_388
10
23.9307264
20
61.2071412
40
0.2027322
50
135.3052302
51
168.9883645
0
ARC
8
DEFAULT_255_1_388
10
24.0238281
20
61.1857996
40
0.2982129
50
168.3801673
51
180.3602268
0
ARC
8
DEFAULT_255_1_388
10
23.9981397
20
61.1815622
40
0.2725291
50
179.5033122
51
194.9125571
0
ARC
8
DEFAULT_255_1_388
10
23.9322804
20
61.1642427
40
0.204431
50
194.9720816
51
224.194444
0
ARC
8
DEFAULT_255_1_388
10
23.929117
20
61.1616635
40
0.2003651
50
224.2962453
51
262.015664
0
ARC
8
DEFAULT_255_1_388
10
23.9451174
20
61.2439315
40
0.2840925
50
261.1245923
51
270.1962896
0
ARC
8
DEFAULT_255_1_388
10
23.9484655
20
61.2228859
40
0.2630559
50
269.4827276
51
285.0987215
0
ARC
8
DEFAULT_255_1_388
10
23.9658091
20
61.1578175
40
0.1957162
50
285.1585357
51
315.9484501
0
ARC
8
DEFAULT_255_1_388
10
23.9557965
20
61.1670315
40
0.2093195
50
316.0413965
51
351.916092
0
ARC
8
DEFAULT_255_1_388
10
23.8733339
20
61.1829323
40
0.2932279
50
351.105835
51
0.1939062
0
ARC
8
DEFAULT_255_1_388
10
23.9028973
20
61.1863224
40
0.2636739
50
359.4789618
51
16.0678224
0
ARC
8
DEFAULT_255_1_388
10
23.9564445
20
61.2007721
40
0.2082215
50
16.3252067
51
44.7913869
0
ARC
8
DEFAULT_255_1_388
10
23.9544507
20
61.200832
40
0.2095992
50
44.3957814
51
88.2499162
0
ARC
8
DEFAULT_255_1_388
10
23.9461841
20
61.1320006
40
0.2787189
50
86.9833854
51
90.0192215
0
LINE
8
DEFAULT_255_1_388
10
21.2082903
20
69.4674898
11
21.2082903
21
68.2937596
0
LINE
8
DEFAULT_255_1_388
10
21.2082903
20
68.2937596
11
21.8317498
21
68.2937596
0
LINE
8
DEFAULT_255_1_388
10
21.8317498
20
68.2937596
11
21.8317498
21
68.1519
0
LINE
8
DEFAULT_255_1_388
10
21.8317498
20
68.1519
11
21.0339024
21
68.1519
0
LINE
8
DEFAULT_255_1_388
10
21.0339024
20
68.1519
11
21.0339024
21
69.4674898
0
LINE
8
DEFAULT_255_1_388
10
21.0339024
20
69.4674898
11
21.2082903
21
69.4674898
0
LINE
8
DEFAULT_255_1_388
10
22.8482598
20
68.2883382
11
22.8482598
21
68.1519
0
LINE
8
DEFAULT_255_1_388
10
22.8482598
20
68.1519
11
21.9862593
21
68.1519
0
LINE
8
DEFAULT_255_1_388
10
21.9862593
20
68.1519
11
21.9862593
21
68.2720741
0
LINE
8
DEFAULT_255_1_388
10
21.9862593
20
68.2720741
11
22.4416558
21
68.7780702
0
LINE
8
DEFAULT_255_1_388
10
22.1281189
20
69.0798607
11
21.9609595
21
69.0798607
0
LINE
8
DEFAULT_255_1_388
10
22.5401443
20
68.670546
11
22.1877542
21
68.2883382
0
LINE
8
DEFAULT_255_1_388
10
22.1877542
20
68.2883382
11
22.8482598
21
68.2883382
0
ARC
8
DEFAULT_255_1_388
10
20.9240618
20
70.1200983
40
2.0258655
50
318.5132526
51
320.7829045
0
ARC
8
DEFAULT_255_1_388
10
21.5188575
20
69.6359929
40
1.2589638
50
320.7372878
51
323.9739031
0
ARC
8
DEFAULT_255_1_388
10
21.9597506
20
69.3165554
40
0.7145141
50
323.8962701
51
328.64194
0
ARC
8
DEFAULT_255_1_388
10
22.1899764
20
69.1745545
40
0.4440242
50
328.8294576
51
331.7891185
0
ARC
8
DEFAULT_255_1_388
10
22.3022084
20
69.1166374
40
0.3177517
50
331.4254512
51
352.9365785
0
ARC
8
DEFAULT_255_1_388
10
22.3175084
20
69.113205
40
0.3021496
50
353.2257659
51
0.0166158
0
ARC
8
DEFAULT_255_1_388
10
22.3411845
20
69.1157894
40
0.2784847
50
359.486299
51
15.9343185
0
ARC
8
DEFAULT_255_1_388
10
22.3982111
20
69.1311269
40
0.2194403
50
16.1712913
51
43.5286088
0
ARC
8
DEFAULT_255_1_388
10
22.4069056
20
69.1398191
40
0.2071504
50
43.4417391
51
83.1661095
0
ARC
8
DEFAULT_255_1_388
10
22.3918217
20
69.0569316
40
0.2912888
50
82.160179
51
90.1505708
0
ARC
8
DEFAULT_255_1_388
10
22.3882699
20
68.9965279
40
0.3517025
50
89.5460741
51
102.5418361
0
ARC
8
DEFAULT_255_1_388
10
22.3609419
20
69.1124933
40
0.2325748
50
102.1738499
51
129.206123
0
ARC
8
DEFAULT_255_1_388
10
22.3520872
20
69.1264664
40
0.2161591
50
129.72865
51
135.753947
0
ARC
8
DEFAULT_255_1_388
10
22.3657354
20
69.1155728
40
0.2335433
50
136.1757367
51
166.3673339
0
ARC
8
DEFAULT_255_1_388
10
22.4790043
20
69.0852148
40
0.3507873
50
165.9090694
51
178.8684636
0
ARC
8
DEFAULT_255_1_388
10
22.5765814
20
69.0799263
40
0.4484624
50
178.4391136
51
180.0083808
0
ARC
8
DEFAULT_255_1_388
10
22.4186516
20
69.0843197
40
0.4577138
50
163.2878482
51
180.5581842
0
ARC
8
DEFAULT_255_1_388
10
22.3284557
20
69.1091393
40
0.3641968
50
133.4540601
51
162.947111
0
ARC
8
DEFAULT_255_1_388
10
22.3485438
20
69.0877789
40
0.3935189
50
100.7869829
51
133.4382499
0
ARC
8
DEFAULT_255_1_388
10
22.3876683
20
68.9135399
40
0.5720313
50
89.660664
51
101.3702276
0
ARC
8
DEFAULT_255_1_388
10
22.3951292
20
68.9204263
40
0.5651495
50
78.2172678
51
90.412935
0
ARC
8
DEFAULT_255_1_388
10
22.4350758
20
69.1031511
40
0.378122
50
55.9269121
51
78.4888449
0
ARC
8
DEFAULT_255_1_388
10
22.4571473
20
69.1412187
40
0.3342379
50
47.929771
51
55.4049217
0
ARC
8
DEFAULT_255_1_388
10
22.4686004
20
69.1528618
40
0.3179217
50
4.334829
51
48.0560205
0
ARC
8
DEFAULT_255_1_388
10
22.3453805
20
69.1337487
40
0.442341
50
359.9251713
51
5.5971671
0
ARC
8
DEFAULT_255_1_388
10
22.393596
20
69.1400728
40
0.3941854
50
337.8914027
51
358.9967534
0
ARC
8
DEFAULT_255_1_388
10
22.088353
20
69.2578295
40
0.7213271
50
326.9132501
51
338.3508308
0
ARC
8
DEFAULT_255_1_388
10
21.6399642
20
69.5452105
40
1.2538973
50
319.6471833
51
327.0959558
0
ARC
8
DEFAULT_255_1_388
10
21.20863
20
69.901005
40
1.8129975
50
317.2588228
51
319.9045804
0
LINE
8
DEFAULT_255_1_388
10
23.3903985
20
68.7789737
11
23.3903985
21
68.6425355
0
LINE
8
DEFAULT_255_1_388
10
23.3903985
20
68.6425355
11
22.949459
21
68.6425355
0
LINE
8
DEFAULT_255_1_388
10
22.949459
20
68.6425355
11
22.949459
21
68.7789737
0
LINE
8
DEFAULT_255_1_388
10
22.949459
20
68.7789737
11
23.3903985
21
68.7789737
0
LINE
8
DEFAULT_255_1_388
10
24.3852229
20
69.4674898
11
24.3852229
21
69.3735191
0
LINE
8
DEFAULT_255_1_388
10
24.3852229
20
69.3735191
11
23.8403736
21
68.1519
0
LINE
8
DEFAULT_255_1_388
10
23.8403736
20
68.1519
11
23.6650821
21
68.1519
0
LINE
8
DEFAULT_255_1_388
10
23.6650821
20
68.1519
11
24.2081243
21
69.330148
0
LINE
8
DEFAULT_255_1_388
10
24.2081243
20
69.330148
11
23.4961155
21
69.330148
0
LINE
8
DEFAULT_255_1_388
10
23.4961155
20
69.330148
11
23.4961155
21
69.4674898
0
LINE
8
DEFAULT_255_1_388
10
23.4961155
20
69.4674898
11
24.3852229
21
69.4674898
0
LINE
8
DEFAULT_255_1_388
10
21.2082903
20
77.4049898
11
21.2082903
21
76.2312596
0
LINE
8
DEFAULT_255_1_388
10
21.2082903
20
76.2312596
11
21.8317498
21
76.2312596
0
LINE
8
DEFAULT_255_1_388
10
21.8317498
20
76.2312596
11
21.8317498
21
76.0894
0
LINE
8
DEFAULT_255_1_388
10
21.8317498
20
76.0894
11
21.0339024
21
76.0894
0
LINE
8
DEFAULT_255_1_388
10
21.0339024
20
76.0894
11
21.0339024
21
77.4049898
0
LINE
8
DEFAULT_255_1_388
10
21.0339024
20
77.4049898
11
21.2082903
21
77.4049898
0
LINE
8
DEFAULT_255_1_388
10
22.8482598
20
76.2258382
11
22.8482598
21
76.0894
0
LINE
8
DEFAULT_255_1_388
10
22.8482598
20
76.0894
11
21.9862593
21
76.0894
0
LINE
8
DEFAULT_255_1_388
10
21.9862593
20
76.0894
11
21.9862593
21
76.2095741
0
LINE
8
DEFAULT_255_1_388
10
21.9862593
20
76.2095741
11
22.4416558
21
76.7155702
0
LINE
8
DEFAULT_255_1_388
10
22.1281189
20
77.0173607
11
21.9609595
21
77.0173607
0
LINE
8
DEFAULT_255_1_388
10
22.5401443
20
76.608046
11
22.1877542
21
76.2258382
0
LINE
8
DEFAULT_255_1_388
10
22.1877542
20
76.2258382
11
22.8482598
21
76.2258382
0
ARC
8
DEFAULT_255_1_388
10
20.9240618
20
78.0575983
40
2.0258655
50
318.5132526
51
320.7829045
0
ARC
8
DEFAULT_255_1_388
10
21.5188575
20
77.5734929
40
1.2589638
50
320.7372878
51
323.9739031
0
ARC
8
DEFAULT_255_1_388
10
21.9597506
20
77.2540554
40
0.7145141
50
323.8962701
51
328.64194
0
ARC
8
DEFAULT_255_1_388
10
22.1899764
20
77.1120545
40
0.4440242
50
328.8294576
51
331.7891185
0
ARC
8
DEFAULT_255_1_388
10
22.3022084
20
77.0541374
40
0.3177517
50
331.4254512
51
352.9365785
0
ARC
8
DEFAULT_255_1_388
10
22.3175084
20
77.050705
40
0.3021496
50
353.2257659
51
0.0166158
0
ARC
8
DEFAULT_255_1_388
10
22.3411845
20
77.0532894
40
0.2784847
50
359.486299
51
15.9343185
0
ARC
8
DEFAULT_255_1_388
10
22.3982111
20
77.0686269
40
0.2194403
50
16.1712913
51
43.5286088
0
ARC
8
DEFAULT_255_1_388
10
22.4069056
20
77.0773191
40
0.2071504
50
43.4417391
51
83.1661095
0
ARC
8
DEFAULT_255_1_388
10
22.3918217
20
76.9944316
40
0.2912888
50
82.160179
51
90.1505708
0
ARC
8
DEFAULT_255_1_388
10
22.3882699
20
76.9340279
40
0.3517025
50
89.5460741
51
102.5418361
0
ARC
8
DEFAULT_255_1_388
10
22.3609419
20
77.0499933
40
0.2325748
50
102.1738499
51
129.206123
0
ARC
8
DEFAULT_255_1_388
10
22.3520872
20
77.0639664
40
0.2161591
50
129.72865
51
135.753947
0
ARC
8
DEFAULT_255_1_388
10
22.3657354
20
77.0530728
40
0.2335433
50
136.1757367
51
166.3673339
0
ARC
8
DEFAULT_255_1_388
10
22.4790043
20
77.0227148
40
0.3507873
50
165.9090694
51
178.8684636
0
ARC
8
DEFAULT_255_1_388
10
22.5765814
20
77.0174263
40
0.4484624
50
178.4391136
51
180.0083808
0
ARC
8
DEFAULT_255_1_388
10
22.4186516
20
77.0218197
40
0.4577138
50
163.2878482
51
180.5581842
0
ARC
8
DEFAULT_255_1_388
10
22.3284557
20
77.0466393
40
0.3641968
50
133.4540601
51
162.947111
0
ARC
8
DEFAULT_255_1_388
10
22.3485438
20
77.0252789
40
0.3935189
50
100.7869829
51
133.4382499
0
ARC
8
DEFAULT_255_1_388
10
22.3876683
20
76.8510399
40
0.5720313
50
89.660664
51
101.3702276
0
ARC
8
DEFAULT_255_1_388
10
22.3951292
20
76.8579263
40
0.5651495
50
78.2172678
51
90.412935
0
ARC
8
DEFAULT_255_1_388
10
22.4350758
20
77.0406511
40
0.378122
50
55.9269121
51
78.4888449
0
ARC
8
DEFAULT_255_1_388
10
22.4571473
20
77.0787187
40
0.3342379
50
47.929771
51
55.4049217
0
ARC
8
DEFAULT_255_1_388
10
22.4686004
20
77.0903618
40
0.3179217
50
4.334829
51
48.0560205
0
ARC
8
DEFAULT_255_1_388
10
22.3453805
20
77.0712487
40
0.442341
50
359.9251713
51
5.5971671
0
ARC
8
DEFAULT_255_1_388
10
22.393596
20
77.0775728
40
0.3941854
50
337.8914027
51
358.9967534
0
ARC
8
DEFAULT_255_1_388
10
22.088353
20
77.1953295
40
0.7213271
50
326.9132501
51
338.3508308
0
ARC
8
DEFAULT_255_1_388
10
21.6399642
20
77.4827105
40
1.2538973
50
319.6471833
51
327.0959558
0
ARC
8
DEFAULT_255_1_388
10
21.20863
20
77.838505
40
1.8129975
50
317.2588228
51
319.9045804
0
LINE
8
DEFAULT_255_1_388
10
23.3903985
20
76.7164737
11
23.3903985
21
76.5800355
0
LINE
8
DEFAULT_255_1_388
10
23.3903985
20
76.5800355
11
22.949459
21
76.5800355
0
LINE
8
DEFAULT_255_1_388
10
22.949459
20
76.5800355
11
22.949459
21
76.7164737
0
LINE
8
DEFAULT_255_1_388
10
22.949459
20
76.7164737
11
23.3903985
21
76.7164737
0
LINE
8
DEFAULT_255_1_388
10
24.1620425
20
77.4058934
11
24.1918602
21
77.4058934
0
LINE
8
DEFAULT_255_1_388
10
24.1918602
20
77.4058934
11
24.1918602
21
77.2640338
0
LINE
8
DEFAULT_255_1_388
10
24.1918602
20
77.2640338
11
24.161139
21
77.2640338
0
LINE
8
DEFAULT_255_1_388
10
23.5458116
20
76.5899747
11
23.5458116
21
76.6541278
0
LINE
8
DEFAULT_255_1_388
10
23.7138746
20
76.6324422
11
23.7138746
21
76.5709999
0
ARC
8
DEFAULT_255_1_388
10
24.1670281
20
76.7017826
40
0.562282
50
90.6001079
51
104.5146616
0
ARC
8
DEFAULT_255_1_388
10
24.1233241
20
76.86431
40
0.3939917
50
104.2855758
51
133.8630124
0
ARC
8
DEFAULT_255_1_388
10
24.1417493
20
76.8521243
40
0.4155734
50
134.5304124
51
161.6210222
0
ARC
8
DEFAULT_255_1_388
10
24.3277426
20
76.7865421
40
0.6127682
50
161.2850533
51
174.2074364
0
ARC
8
DEFAULT_255_1_388
10
24.4866992
20
76.7646437
40
0.7731446
50
173.7817938
51
174.9251711
0
ARC
8
DEFAULT_255_1_388
10
23.9741186
20
76.609127
40
0.3412588
50
95.8332067
51
138.995412
0
ARC
8
DEFAULT_255_1_388
10
23.9992466
20
76.4652695
40
0.4870358
50
89.8755506
51
97.0540979
0
ARC
8
DEFAULT_255_1_388
10
24.0045855
20
76.5592841
40
0.3930432
50
71.6407016
51
90.6240821
0
ARC
8
DEFAULT_255_1_388
10
24.0215249
20
76.6216433
40
0.3285421
50
39.6368051
51
71.0190743
0
ARC
8
DEFAULT_255_1_388
10
23.9499156
20
76.5597586
40
0.4231706
50
10.6588054
51
39.9044509
0
ARC
8
DEFAULT_255_1_388
10
23.7757702
20
76.5219223
40
0.60133
50
359.6827842
51
11.1326896
0
ARC
8
DEFAULT_255_1_388
10
23.7713038
20
76.5139715
40
0.6058047
50
347.2485908
51
0.4371098
0
ARC
8
DEFAULT_255_1_388
10
23.9588823
20
76.4688379
40
0.4128987
50
318.1408565
51
347.6118497
0
ARC
8
DEFAULT_255_1_388
10
23.995442
20
76.4387903
40
0.3656244
50
275.6342406
51
317.824739
0
ARC
8
DEFAULT_255_1_388
10
23.9705941
20
76.5849827
40
0.513655
50
269.8872513
51
276.7916069
0
ARC
8
DEFAULT_255_1_388
10
23.9644134
20
76.4696181
40
0.398323
50
246.9139443
51
270.7436787
0
ARC
8
DEFAULT_255_1_388
10
23.965133
20
76.4536044
40
0.3839368
50
218.1665534
51
245.8780431
0
ARC
8
DEFAULT_255_1_388
10
24.0640702
20
76.5363903
40
0.5128958
50
191.4115343
51
218.6077624
0
ARC
8
DEFAULT_255_1_388
10
24.2821018
20
76.5852777
40
0.7363054
50
179.6344971
51
191.7836758
0
ARC
8
DEFAULT_255_1_388
10
24.9100892
20
76.6616495
40
1.3642984
50
171.4523743
51
180.3158856
0
ARC
8
DEFAULT_255_1_388
10
24.4156619
20
76.7385895
40
0.8639311
50
157.9802296
51
171.6246761
0
ARC
8
DEFAULT_255_1_388
10
24.166597
20
76.8379038
40
0.5958004
50
141.4299236
51
157.8541251
0
ARC
8
DEFAULT_255_1_388
10
24.0944053
20
76.8889746
40
0.5075416
50
102.871586
51
140.8564533
0
ARC
8
DEFAULT_255_1_388
10
24.1672606
20
76.6144943
40
0.7914163
50
90.377773
51
103.5868422
0
ARC
8
DEFAULT_255_1_388
10
23.9717127
20
76.5464543
40
0.2667015
50
89.8751238
51
126.2072139
0
ARC
8
DEFAULT_255_1_388
10
23.9768598
20
76.5290847
40
0.2838229
50
124.9742447
51
144.8960197
0
ARC
8
DEFAULT_255_1_388
10
23.9570843
20
76.5451981
40
0.2583845
50
145.2974778
51
160.2660922
0
ARC
8
DEFAULT_255_1_388
10
24.3027332
20
76.5674151
40
0.5888695
50
179.6512124
51
190.285571
0
ARC
8
DEFAULT_255_1_388
10
24.1121811
20
76.5314968
40
0.3949683
50
190.0944895
51
207.5099647
0
ARC
8
DEFAULT_255_1_388
10
24.0485393
20
76.5012177
40
0.3245464
50
207.9585471
51
216.325377
0
ARC
8
DEFAULT_255_1_388
10
24.010303
20
76.4697712
40
0.2751259
50
215.7661336
51
232.5457193
0
ARC
8
DEFAULT_255_1_388
10
23.9672146
20
76.4150273
40
0.2054668
50
232.8005815
51
270.6605497
0
ARC
8
DEFAULT_255_1_388
10
23.972357
20
76.4559853
40
0.2464268
50
269.3550767
51
288.474612
0
ARC
8
DEFAULT_255_1_388
10
23.9828077
20
76.4166721
40
0.2058436
50
289.1831976
51
322.9685307
0
ARC
8
DEFAULT_255_1_388
10
23.9140179
20
76.4709279
40
0.2934408
50
322.6007085
51
346.5183319
0
ARC
8
DEFAULT_255_1_388
10
23.7837935
20
76.5041434
40
0.4278249
50
346.2584622
51
358.7739592
0
ARC
8
DEFAULT_255_1_388
10
23.668651
20
76.5103829
40
0.5430876
50
358.3757628
51
0.0082477
0
ARC
8
DEFAULT_255_1_388
10
23.7543329
20
76.5134856
40
0.4574157
50
359.6211417
51
11.28403
0
ARC
8
DEFAULT_255_1_388
10
23.8979935
20
76.5434535
40
0.3106708
50
11.0483152
51
31.8145585
0
ARC
8
DEFAULT_255_1_388
10
23.932764
20
76.5623045
40
0.2711963
50
32.3028554
51
38.0820598
0
ARC
8
DEFAULT_255_1_388
10
23.9800873
20
76.6051717
40
0.2075566
50
36.8249851
51
85.741667
0
ARC
8
DEFAULT_255_1_388
10
23.9725286
20
76.5488065
40
0.2643487
50
85.0150021
51
90.050843
0
LINE
8
DEFAULT_255_1_388
10
21.2082903
20
85.3424898
11
21.2082903
21
84.1687596
0
LINE
8
DEFAULT_255_1_388
10
21.2082903
20
84.1687596
11
21.8317498
21
84.1687596
0
LINE
8
DEFAULT_255_1_388
10
21.8317498
20
84.1687596
11
21.8317498
21
84.0269
0
LINE
8
DEFAULT_255_1_388
10
21.8317498
20
84.0269
11
21.0339024
21
84.0269
0
LINE
8
DEFAULT_255_1_388
10
21.0339024
20
84.0269
11
21.0339024
21
85.3424898
0
LINE
8
DEFAULT_255_1_388
10
21.0339024
20
85.3424898
11
21.2082903
21
85.3424898
0
LINE
8
DEFAULT_255_1_388
10
22.8482598
20
84.1633382
11
22.8482598
21
84.0269
0
LINE
8
DEFAULT_255_1_388
10
22.8482598
20
84.0269
11
21.9862593
21
84.0269
0
LINE
8
DEFAULT_255_1_388
10
21.9862593
20
84.0269
11
21.9862593
21
84.1470741
0
LINE
8
DEFAULT_255_1_388
10
21.9862593
20
84.1470741
11
22.4416558
21
84.6530702
0
LINE
8
DEFAULT_255_1_388
10
22.1281189
20
84.9548607
11
21.9609595
21
84.9548607
0
LINE
8
DEFAULT_255_1_388
10
22.5401443
20
84.545546
11
22.1877542
21
84.1633382
0
LINE
8
DEFAULT_255_1_388
10
22.1877542
20
84.1633382
11
22.8482598
21
84.1633382
0
ARC
8
DEFAULT_255_1_388
10
20.9240618
20
85.9950983
40
2.0258655
50
318.5132526
51
320.7829045
0
ARC
8
DEFAULT_255_1_388
10
21.5188575
20
85.5109929
40
1.2589638
50
320.7372878
51
323.9739031
0
ARC
8
DEFAULT_255_1_388
10
21.9597506
20
85.1915554
40
0.7145141
50
323.8962701
51
328.64194
0
ARC
8
DEFAULT_255_1_388
10
22.1899764
20
85.0495545
40
0.4440242
50
328.8294576
51
331.7891185
0
ARC
8
DEFAULT_255_1_388
10
22.3022084
20
84.9916374
40
0.3177517
50
331.4254512
51
352.9365785
0
ARC
8
DEFAULT_255_1_388
10
22.3175084
20
84.988205
40
0.3021496
50
353.2257659
51
0.0166158
0
ARC
8
DEFAULT_255_1_388
10
22.3411845
20
84.9907894
40
0.2784847
50
359.486299
51
15.9343185
0
ARC
8
DEFAULT_255_1_388
10
22.3982111
20
85.0061269
40
0.2194403
50
16.1712913
51
43.5286088
0
ARC
8
DEFAULT_255_1_388
10
22.4069056
20
85.0148191
40
0.2071504
50
43.4417391
51
83.1661095
0
ARC
8
DEFAULT_255_1_388
10
22.3918217
20
84.9319316
40
0.2912888
50
82.160179
51
90.1505708
0
ARC
8
DEFAULT_255_1_388
10
22.3882699
20
84.8715279
40
0.3517025
50
89.5460741
51
102.5418361
0
ARC
8
DEFAULT_255_1_388
10
22.3609419
20
84.9874933
40
0.2325748
50
102.1738499
51
129.206123
0
ARC
8
DEFAULT_255_1_388
10
22.3520872
20
85.0014664
40
0.2161591
50
129.72865
51
135.753947
0
ARC
8
DEFAULT_255_1_388
10
22.3657354
20
84.9905728
40
0.2335433
50
136.1757367
51
166.3673339
0
ARC
8
DEFAULT_255_1_388
10
22.4790043
20
84.9602148
40
0.3507873
50
165.9090694
51
178.8684636
0
ARC
8
DEFAULT_255_1_388
10
22.5765814
20
84.9549263
40
0.4484624
50
178.4391136
51
180.0083808
0
ARC
8
DEFAULT_255_1_388
10
22.4186516
20
84.9593197
40
0.4577138
50
163.2878482
51
180.5581842
0
ARC
8
DEFAULT_255_1_388
10
22.3284557
20
84.9841393
40
0.3641968
50
133.4540601
51
162.947111
0
ARC
8
DEFAULT_255_1_388
10
22.3485438
20
84.9627789
40
0.3935189
50
100.7869829
51
133.4382499
0
ARC
8
DEFAULT_255_1_388
10
22.3876683
20
84.7885399
40
0.5720313
50
89.660664
51
101.3702276
0
ARC
8
DEFAULT_255_1_388
10
22.3951292
20
84.7954263
40
0.5651495
50
78.2172678
51
90.412935
0
ARC
8
DEFAULT_255_1_388
10
22.4350758
20
84.9781511
40
0.378122
50
55.9269121
51
78.4888449
0
ARC
8
DEFAULT_255_1_388
10
22.4571473
20
85.0162187
40
0.3342379
50
47.929771
51
55.4049217
0
ARC
8
DEFAULT_255_1_388
10
22.4686004
20
85.0278618
40
0.3179217
50
4.334829
51
48.0560205
0
ARC
8
DEFAULT_255_1_388
10
22.3453805
20
85.0087487
40
0.442341
50
359.9251713
51
5.5971671
0
ARC
8
DEFAULT_255_1_388
10
22.393596
20
85.0150728
40
0.3941854
50
337.8914027
51
358.9967534
0
ARC
8
DEFAULT_255_1_388
10
22.088353
20
85.1328295
40
0.7213271
50
326.9132501
51
338.3508308
0
ARC
8
DEFAULT_255_1_388
10
21.6399642
20
85.4202105
40
1.2538973
50
319.6471833
51
327.0959558
0
ARC
8
DEFAULT_255_1_388
10
21.20863
20
85.776005
40
1.8129975
50
317.2588228
51
319.9045804
0
LINE
8
DEFAULT_255_1_388
10
23.3903985
20
84.6539737
11
23.3903985
21
84.5175355
0
LINE
8
DEFAULT_255_1_388
10
23.3903985
20
84.5175355
11
22.949459
21
84.5175355
0
LINE
8
DEFAULT_255_1_388
10
22.949459
20
84.5175355
11
22.949459
21
84.6539737
0
LINE
8
DEFAULT_255_1_388
10
22.949459
20
84.6539737
11
23.3903985
21
84.6539737
0
LINE
8
DEFAULT_255_1_388
10
23.7464029
20
84.6521666
11
23.6126753
21
84.6865021
0
LINE
8
DEFAULT_255_1_388
10
23.6126753
20
84.6865021
11
23.6795391
21
85.3424898
0
LINE
8
DEFAULT_255_1_388
10
23.6795391
20
85.3424898
11
24.3535982
21
85.3424898
0
LINE
8
DEFAULT_255_1_388
10
24.3535982
20
85.3424898
11
24.3535982
21
85.1879803
0
LINE
8
DEFAULT_255_1_388
10
24.3535982
20
85.1879803
11
23.8213987
21
85.1879803
0
LINE
8
DEFAULT_255_1_388
10
23.8213987
20
85.1879803
11
23.7816419
21
84.8292652
0
LINE
8
DEFAULT_255_1_388
10
23.56569
20
84.3729652
11
23.7238138
21
84.3729652
0
LINE
8
DEFAULT_255_1_388
10
23.7906775
20
84.6883092
11
23.7464029
21
84.6521666
0
ARC
8
DEFAULT_255_1_388
10
23.9903032
20
84.4715241
40
0.4141476
50
93.7181681
51
120.253934
0
ARC
8
DEFAULT_255_1_388
10
24.0009085
20
84.3806284
40
0.5055616
50
89.9660471
51
94.2495185
0
ARC
8
DEFAULT_255_1_388
10
24.0054907
20
84.4469154
40
0.4392953
50
73.8045384
51
90.5585736
0
ARC
8
DEFAULT_255_1_388
10
24.0319164
20
84.543452
40
0.3392225
50
41.3071072
51
73.543002
0
ARC
8
DEFAULT_255_1_388
10
23.9850984
20
84.5031461
40
0.4009977
50
13.5075837
51
41.2174839
0
ARC
8
DEFAULT_255_1_388
10
23.8004082
20
84.4547907
40
0.5918864
50
1.1330171
51
13.8830737
0
ARC
8
DEFAULT_255_1_388
10
23.6407727
20
84.4462522
40
0.7516787
50
359.9925091
51
1.5431298
0
ARC
8
DEFAULT_255_1_388
10
23.7852342
20
84.4416027
40
0.6072343
50
347.8572712
51
0.4294349
0
ARC
8
DEFAULT_255_1_388
10
23.9821477
20
84.3969898
40
0.4053482
50
323.6727442
51
348.1674594
0
ARC
8
DEFAULT_255_1_388
10
24.0152442
20
84.3768175
40
0.3667495
50
316.8171818
51
323.1486802
0
ARC
8
DEFAULT_255_1_388
10
24.0221565
20
84.3726612
40
0.358869
50
281.839603
51
316.5458142
0
ARC
8
DEFAULT_255_1_388
10
23.9798853
20
84.5476363
40
0.5388223
50
269.5770964
51
282.4214641
0
ARC
8
DEFAULT_255_1_388
10
23.9718774
20
84.523593
40
0.5147801
50
256.2425863
51
270.4486481
0
ARC
8
DEFAULT_255_1_388
10
23.9382301
20
84.3886124
40
0.3756708
50
228.9024379
51
256.33135
0
ARC
8
DEFAULT_255_1_388
10
23.9299282
20
84.3755054
40
0.360344
50
193.7536029
51
228.5272638
0
ARC
8
DEFAULT_255_1_388
10
24.0691847
20
84.4163463
40
0.5053599
50
184.9244437
51
194.4976052
0
ARC
8
DEFAULT_255_1_388
10
24.0908488
20
84.4203722
40
0.3700839
50
187.3596909
51
198.6733728
0
ARC
8
DEFAULT_255_1_388
10
23.9727731
20
84.3794373
40
0.2451195
50
198.4453795
51
217.7945479
0
ARC
8
DEFAULT_255_1_388
10
23.9394904
20
84.3558563
40
0.2043754
50
218.2887146
51
228.5613203
0
ARC
8
DEFAULT_255_1_388
10
23.9504911
20
84.3706902
40
0.2227819
50
228.9652423
51
258.1237049
0
ARC
8
DEFAULT_255_1_388
10
23.9736348
20
84.4697964
40
0.3245374
50
257.7260585
51
270.4013717
0
ARC
8
DEFAULT_255_1_388
10
23.9786846
20
84.4197255
40
0.2744726
50
269.4204315
51
286.420998
0
ARC
8
DEFAULT_255_1_388
10
23.9953902
20
84.3590705
40
0.2115721
50
286.7250065
51
320.6004665
0
ARC
8
DEFAULT_255_1_388
10
23.9522817
20
84.3940527
40
0.2670878
50
320.6712228
51
344.5440474
0
ARC
8
DEFAULT_255_1_388
10
23.8221531
20
84.4322394
40
0.4026927
50
344.241448
51
356.735803
0
ARC
8
DEFAULT_255_1_388
10
23.6817838
20
84.4438656
40
0.5435085
50
356.3547471
51
0.0507222
0
ARC
8
DEFAULT_255_1_388
10
23.8320103
20
84.4473812
40
0.3932934
50
359.5579289
51
12.9534322
0
ARC
8
DEFAULT_255_1_388
10
23.9506943
20
84.4761586
40
0.2711827
50
12.6489751
51
41.608121
0
ARC
8
DEFAULT_255_1_388
10
23.9766103
20
84.4981946
40
0.2371737
50
41.7851122
51
85.9892156
0
ARC
8
DEFAULT_255_1_388
10
23.9627413
20
84.4066738
40
0.3295244
50
84.6965848
51
90.0672125
0
ARC
8
DEFAULT_255_1_388
10
23.9600981
20
84.3315118
40
0.4046926
50
89.6804991
51
99.161352
0
ARC
8
DEFAULT_255_1_388
10
23.936999
20
84.4695848
40
0.2647044
50
98.9836248
51
113.8905702
0
ARC
8
DEFAULT_255_1_388
10
23.9111665
20
84.5305118
40
0.1985386
50
114.195234
51
127.3641866
0
LINE
8
DEFAULT_255_1_388
10
21.0759903
20
93.2799898
11
21.0759903
21
92.1062596
0
LINE
8
DEFAULT_255_1_388
10
21.0759903
20
92.1062596
11
21.6994498
21
92.1062596
0
LINE
8
DEFAULT_255_1_388
10
21.6994498
20
92.1062596
11
21.6994498
21
91.9644
0
LINE
8
DEFAULT_255_1_388
10
21.6994498
20
91.9644
11
20.9016024
21
91.9644
0
LINE
8
DEFAULT_255_1_388
10
20.9016024
20
91.9644
11
20.9016024
21
93.2799898
0
LINE
8
DEFAULT_255_1_388
10
20.9016024
20
93.2799898
11
21.0759903
21
93.2799898
0
LINE
8
DEFAULT_255_1_388
10
22.7159598
20
92.1008382
11
22.7159598
21
91.9644
0
LINE
8
DEFAULT_255_1_388
10
22.7159598
20
91.9644
11
21.8539593
21
91.9644
0
LINE
8
DEFAULT_255_1_388
10
21.8539593
20
91.9644
11
21.8539593
21
92.0845741
0
LINE
8
DEFAULT_255_1_388
10
21.8539593
20
92.0845741
11
22.3093558
21
92.5905702
0
LINE
8
DEFAULT_255_1_388
10
21.9958189
20
92.8923607
11
21.8286595
21
92.8923607
0
LINE
8
DEFAULT_255_1_388
10
22.4078443
20
92.483046
11
22.0554542
21
92.1008382
0
LINE
8
DEFAULT_255_1_388
10
22.0554542
20
92.1008382
11
22.7159598
21
92.1008382
0
ARC
8
DEFAULT_255_1_388
10
20.7917618
20
93.9325983
40
2.0258655
50
318.5132526
51
320.7829045
0
ARC
8
DEFAULT_255_1_388
10
21.3865575
20
93.4484929
40
1.2589638
50
320.7372878
51
323.9739031
0
ARC
8
DEFAULT_255_1_388
10
21.8274506
20
93.1290554
40
0.7145141
50
323.8962701
51
328.64194
0
ARC
8
DEFAULT_255_1_388
10
22.0576764
20
92.9870545
40
0.4440242
50
328.8294576
51
331.7891185
0
ARC
8
DEFAULT_255_1_388
10
22.1699084
20
92.9291374
40
0.3177517
50
331.4254512
51
352.9365785
0
ARC
8
DEFAULT_255_1_388
10
22.1852084
20
92.925705
40
0.3021496
50
353.2257659
51
0.0166158
0
ARC
8
DEFAULT_255_1_388
10
22.2088845
20
92.9282894
40
0.2784847
50
359.486299
51
15.9343185
0
ARC
8
DEFAULT_255_1_388
10
22.2659111
20
92.9436269
40
0.2194403
50
16.1712913
51
43.5286088
0
ARC
8
DEFAULT_255_1_388
10
22.2746056
20
92.9523191
40
0.2071504
50
43.4417391
51
83.1661095
0
ARC
8
DEFAULT_255_1_388
10
22.2595217
20
92.8694316
40
0.2912888
50
82.160179
51
90.1505708
0
ARC
8
DEFAULT_255_1_388
10
22.2559699
20
92.8090279
40
0.3517025
50
89.5460741
51
102.5418361
0
ARC
8
DEFAULT_255_1_388
10
22.2286419
20
92.9249933
40
0.2325748
50
102.1738499
51
129.206123
0
ARC
8
DEFAULT_255_1_388
10
22.2197872
20
92.9389664
40
0.2161591
50
129.72865
51
135.753947
0
ARC
8
DEFAULT_255_1_388
10
22.2334354
20
92.9280728
40
0.2335433
50
136.1757367
51
166.3673339
0
ARC
8
DEFAULT_255_1_388
10
22.3467043
20
92.8977148
40
0.3507873
50
165.9090694
51
178.8684636
0
ARC
8
DEFAULT_255_1_388
10
22.4442814
20
92.8924263
40
0.4484624
50
178.4391136
51
180.0083808
0
ARC
8
DEFAULT_255_1_388
10
22.2863516
20
92.8968197
40
0.4577138
50
163.2878482
51
180.5581842
0
ARC
8
DEFAULT_255_1_388
10
22.1961557
20
92.9216393
40
0.3641968
50
133.4540601
51
162.947111
0
ARC
8
DEFAULT_255_1_388
10
22.2162438
20
92.9002789
40
0.3935189
50
100.7869829
51
133.4382499
0
ARC
8
DEFAULT_255_1_388
10
22.2553683
20
92.7260399
40
0.5720313
50
89.660664
51
101.3702276
0
ARC
8
DEFAULT_255_1_388
10
22.2628292
20
92.7329263
40
0.5651495
50
78.2172678
51
90.412935
0
ARC
8
DEFAULT_255_1_388
10
22.3027758
20
92.9156511
40
0.378122
50
55.9269121
51
78.4888449
0
ARC
8
DEFAULT_255_1_388
10
22.3248473
20
92.9537187
40
0.3342379
50
47.929771
51
55.4049217
0
ARC
8
DEFAULT_255_1_388
10
22.3363004
20
92.9653618
40
0.3179217
50
4.334829
51
48.0560205
0
ARC
8
DEFAULT_255_1_388
10
22.2130805
20
92.9462487
40
0.442341
50
359.9251713
51
5.5971671
0
ARC
8
DEFAULT_255_1_388
10
22.261296
20
92.9525728
40
0.3941854
50
337.8914027
51
358.9967534
0
ARC
8
DEFAULT_255_1_388
10
21.956053
20
93.0703295
40
0.7213271
50
326.9132501
51
338.3508308
0
ARC
8
DEFAULT_255_1_388
10
21.5076642
20
93.3577105
40
1.2538973
50
319.6471833
51
327.0959558
0
ARC
8
DEFAULT_255_1_388
10
21.07633
20
93.713505
40
1.8129975
50
317.2588228
51
319.9045804
0
LINE
8
DEFAULT_255_1_388
10
23.2580985
20
92.5914737
11
23.2580985
21
92.4550355
0
LINE
8
DEFAULT_255_1_388
10
23.2580985
20
92.4550355
11
22.817159
21
92.4550355
0
LINE
8
DEFAULT_255_1_388
10
22.817159
20
92.4550355
11
22.817159
21
92.5914737
0
LINE
8
DEFAULT_255_1_388
10
22.817159
20
92.5914737
11
23.2580985
21
92.5914737
0
LINE
8
DEFAULT_255_1_388
10
24.1092562
20
93.2799898
11
24.1092562
21
92.406243
0
LINE
8
DEFAULT_255_1_388
10
24.1092562
20
92.406243
11
24.2917762
21
92.406243
0
LINE
8
DEFAULT_255_1_388
10
24.2917762
20
92.406243
11
24.2917762
21
92.2698048
0
LINE
8
DEFAULT_255_1_388
10
24.2917762
20
92.2698048
11
24.1092562
21
92.2698048
0
LINE
8
DEFAULT_255_1_388
10
24.1092562
20
92.2698048
11
24.1092562
21
91.9644
0
LINE
8
DEFAULT_255_1_388
10
24.1092562
20
91.9644
11
23.9411932
21
91.9644
0
LINE
8
DEFAULT_255_1_388
10
23.9411932
20
91.9644
11
23.9411932
21
92.2698048
0
LINE
8
DEFAULT_255_1_388
10
23.9411932
20
92.2698048
11
23.34213
21
92.2698048
0
LINE
8
DEFAULT_255_1_388
10
23.34213
20
92.2698048
11
23.34213
21
92.3682933
0
LINE
8
DEFAULT_255_1_388
10
23.34213
20
92.3682933
11
23.931254
21
93.2799898
0
LINE
8
DEFAULT_255_1_388
10
23.931254
20
93.2799898
11
24.1092562
21
93.2799898
0
LINE
8
DEFAULT_255_1_388
10
23.9213148
20
93.0152455
11
23.5318785
21
92.406243
0
LINE
8
DEFAULT_255_1_388
10
23.5318785
20
92.406243
11
23.9411932
21
92.406243
0
LINE
8
DEFAULT_255_1_388
10
23.9411932
20
92.406243
11
23.9411932
21
93.051388
0
LINE
8
DEFAULT_255_1_388
10
23.9411932
20
93.051388
11
23.9213148
21
93.0152455
0
LINE
8
DEFAULT_255_1_388
10
21.2082903
20
101.2174898
11
21.2082903
21
100.0437596
0
LINE
8
DEFAULT_255_1_388
10
21.2082903
20
100.0437596
11
21.8317498
21
100.0437596
0
LINE
8
DEFAULT_255_1_388
10
21.8317498
20
100.0437596
11
21.8317498
21
99.9019
0
LINE
8
DEFAULT_255_1_388
10
21.8317498
20
99.9019
11
21.0339024
21
99.9019
0
LINE
8
DEFAULT_255_1_388
10
21.0339024
20
99.9019
11
21.0339024
21
101.2174898
0
LINE
8
DEFAULT_255_1_388
10
21.0339024
20
101.2174898
11
21.2082903
21
101.2174898
0
LINE
8
DEFAULT_255_1_388
10
22.8482598
20
100.0383382
11
22.8482598
21
99.9019
0
LINE
8
DEFAULT_255_1_388
10
22.8482598
20
99.9019
11
21.9862593
21
99.9019
0
LINE
8
DEFAULT_255_1_388
10
21.9862593
20
99.9019
11
21.9862593
21
100.0220741
0
LINE
8
DEFAULT_255_1_388
10
21.9862593
20
100.0220741
11
22.4416558
21
100.5280702
0
LINE
8
DEFAULT_255_1_388
10
22.1281189
20
100.8298607
11
21.9609595
21
100.8298607
0
LINE
8
DEFAULT_255_1_388
10
22.5401443
20
100.420546
11
22.1877542
21
100.0383382
0
LINE
8
DEFAULT_255_1_388
10
22.1877542
20
100.0383382
11
22.8482598
21
100.0383382
0
ARC
8
DEFAULT_255_1_388
10
20.9240618
20
101.8700983
40
2.0258655
50
318.5132526
51
320.7829045
0
ARC
8
DEFAULT_255_1_388
10
21.5188575
20
101.3859929
40
1.2589638
50
320.7372878
51
323.9739031
0
ARC
8
DEFAULT_255_1_388
10
21.9597506
20
101.0665554
40
0.7145141
50
323.8962701
51
328.64194
0
ARC
8
DEFAULT_255_1_388
10
22.1899764
20
100.9245545
40
0.4440242
50
328.8294576
51
331.7891185
0
ARC
8
DEFAULT_255_1_388
10
22.3022084
20
100.8666374
40
0.3177517
50
331.4254512
51
352.9365785
0
ARC
8
DEFAULT_255_1_388
10
22.3175084
20
100.863205
40
0.3021496
50
353.2257659
51
0.0166158
0
ARC
8
DEFAULT_255_1_388
10
22.3411845
20
100.8657894
40
0.2784847
50
359.486299
51
15.9343185
0
ARC
8
DEFAULT_255_1_388
10
22.3982111
20
100.8811269
40
0.2194403
50
16.1712913
51
43.5286088
0
ARC
8
DEFAULT_255_1_388
10
22.4069056
20
100.8898191
40
0.2071504
50
43.4417391
51
83.1661095
0
ARC
8
DEFAULT_255_1_388
10
22.3918217
20
100.8069316
40
0.2912888
50
82.160179
51
90.1505708
0
ARC
8
DEFAULT_255_1_388
10
22.3882699
20
100.7465279
40
0.3517025
50
89.5460741
51
102.5418361
0
ARC
8
DEFAULT_255_1_388
10
22.3609419
20
100.8624933
40
0.2325748
50
102.1738499
51
129.206123
0
ARC
8
DEFAULT_255_1_388
10
22.3520872
20
100.8764664
40
0.2161591
50
129.72865
51
135.753947
0
ARC
8
DEFAULT_255_1_388
10
22.3657354
20
100.8655728
40
0.2335433
50
136.1757367
51
166.3673339
0
ARC
8
DEFAULT_255_1_388
10
22.4790043
20
100.8352148
40
0.3507873
50
165.9090694
51
178.8684636
0
ARC
8
DEFAULT_255_1_388
10
22.5765814
20
100.8299263
40
0.4484624
50
178.4391136
51
180.0083808
0
ARC
8
DEFAULT_255_1_388
10
22.4186516
20
100.8343197
40
0.4577138
50
163.2878482
51
180.5581842
0
ARC
8
DEFAULT_255_1_388
10
22.3284557
20
100.8591393
40
0.3641968
50
133.4540601
51
162.947111
0
ARC
8
DEFAULT_255_1_388
10
22.3485438
20
100.8377789
40
0.3935189
50
100.7869829
51
133.4382499
0
ARC
8
DEFAULT_255_1_388
10
22.3876683
20
100.6635399
40
0.5720313
50
89.660664
51
101.3702276
0
ARC
8
DEFAULT_255_1_388
10
22.3951292
20
100.6704263
40
0.5651495
50
78.2172678
51
90.412935
0
ARC
8
DEFAULT_255_1_388
10
22.4350758
20
100.8531511
40
0.378122
50
55.9269121
51
78.4888449
0
ARC
8
DEFAULT_255_1_388
10
22.4571473
20
100.8912187
40
0.3342379
50
47.929771
51
55.4049217
0
ARC
8
DEFAULT_255_1_388
10
22.4686004
20
100.9028618
40
0.3179217
50
4.334829
51
48.0560205
0
ARC
8
DEFAULT_255_1_388
10
22.3453805
20
100.8837487
40
0.442341
50
359.9251713
51
5.5971671
0
ARC
8
DEFAULT_255_1_388
10
22.393596
20
100.8900728
40
0.3941854
50
337.8914027
51
358.9967534
0
ARC
8
DEFAULT_255_1_388
10
22.088353
20
101.0078295
40
0.7213271
50
326.9132501
51
338.3508308
0
ARC
8
DEFAULT_255_1_388
10
21.6399642
20
101.2952105
40
1.2538973
50
319.6471833
51
327.0959558
0
ARC
8
DEFAULT_255_1_388
10
21.20863
20
101.651005
40
1.8129975
50
317.2588228
51
319.9045804
0
LINE
8
DEFAULT_255_1_388
10
23.3903985
20
100.5289737
11
23.3903985
21
100.3925355
0
LINE
8
DEFAULT_255_1_388
10
23.3903985
20
100.3925355
11
22.949459
21
100.3925355
0
LINE
8
DEFAULT_255_1_388
10
22.949459
20
100.3925355
11
22.949459
21
100.5289737
0
LINE
8
DEFAULT_255_1_388
10
22.949459
20
100.5289737
11
23.3903985
21
100.5289737
0
LINE
8
DEFAULT_255_1_388
10
23.7789312
20
100.5045775
11
23.7789312
21
100.6410157
0
LINE
8
DEFAULT_255_1_388
10
23.7789312
20
100.6410157
11
23.9045267
21
100.6410157
0
LINE
8
DEFAULT_255_1_388
10
23.6903819
20
100.8723282
11
23.5232225
21
100.8723282
0
LINE
8
DEFAULT_255_1_388
10
23.5114761
20
100.2488688
11
23.6795391
21
100.2488688
0
LINE
8
DEFAULT_255_1_388
10
23.9045267
20
100.5045775
11
23.7789312
21
100.5045775
0
ARC
8
DEFAULT_255_1_388
10
23.9012493
20
101.0226922
40
0.3816905
50
270.491971
51
281.8953028
0
ARC
8
DEFAULT_255_1_388
10
23.928392
20
100.8987199
40
0.2547877
50
281.6690378
51
301.2943765
0
ARC
8
DEFAULT_255_1_388
10
23.9475371
20
100.8636926
40
0.2149197
50
301.7834992
51
311.754567
0
ARC
8
DEFAULT_255_1_388
10
23.9578413
20
100.852265
40
0.1995326
50
311.7325027
51
354.2803031
0
ARC
8
DEFAULT_255_1_388
10
23.8760829
20
100.866328
40
0.2823461
50
353.0941646
51
0.1174696
0
ARC
8
DEFAULT_255_1_388
10
23.8242387
20
100.8716874
40
0.3342238
50
359.1804452
51
15.0452323
0
ARC
8
DEFAULT_255_1_388
10
23.9756445
20
100.9158546
40
0.1765747
50
13.957816
51
77.6713812
0
ARC
8
DEFAULT_255_1_388
10
23.9321681
20
100.7600464
40
0.3381982
50
76.111571
51
90.7028736
0
ARC
8
DEFAULT_255_1_388
10
23.9255093
20
100.790825
40
0.3074046
50
89.5321574
51
103.5319393
0
ARC
8
DEFAULT_255_1_388
10
23.9029476
20
100.8807443
40
0.2147041
50
103.2930114
51
133.5619756
0
ARC
8
DEFAULT_255_1_388
10
23.8979418
20
100.8874351
40
0.2064084
50
133.8349761
51
173.5343225
0
ARC
8
DEFAULT_255_1_388
10
23.9793076
20
100.8730144
40
0.2889266
50
172.5097183
51
180.1360699
0
ARC
8
DEFAULT_255_1_388
10
23.8722839
20
100.876888
40
0.3490913
50
155.3483706
51
180.7484035
0
ARC
8
DEFAULT_255_1_388
10
23.8667815
20
100.8736519
40
0.3454798
50
131.5745177
51
154.4799474
0
ARC
8
DEFAULT_255_1_388
10
23.9020098
20
100.8380422
40
0.3955058
50
96.9874487
51
131.9690874
0
ARC
8
DEFAULT_255_1_388
10
23.926699
20
100.6979407
40
0.537622
50
89.8592909
51
97.7827481
0
ARC
8
DEFAULT_255_1_388
10
23.9321099
20
100.668436
40
0.5671399
50
78.3654493
51
90.4132586
0
ARC
8
DEFAULT_255_1_388
10
23.972374
20
100.8550918
40
0.3762034
50
56.6229818
51
78.6387103
0
ARC
8
DEFAULT_255_1_388
10
23.996557
20
100.8973846
40
0.3275964
50
47.0254604
51
56.085558
0
ARC
8
DEFAULT_255_1_388
10
23.9987821
20
100.9018189
40
0.3228382
50
10.9207523
51
46.777927
0
ARC
8
DEFAULT_255_1_388
10
23.8453415
20
100.8663401
40
0.4802559
50
359.6364235
51
11.6087615
0
ARC
8
DEFAULT_255_1_388
10
24.051758
20
100.8646404
40
0.273833
50
332.3549969
51
359.7179765
0
ARC
8
DEFAULT_255_1_388
10
23.9785981
20
100.8993285
40
0.3547505
50
325.2332381
51
332.8746682
0
ARC
8
DEFAULT_255_1_388
10
23.9957564
20
100.8873763
40
0.3338396
50
292.9803892
51
325.2391113
0
ARC
8
DEFAULT_255_1_388
10
23.964676
20
100.9478679
40
0.4016959
50
292.542178
51
293.6931461
0
ARC
8
DEFAULT_255_1_388
10
24.0090332
20
100.2213036
40
0.372079
50
57.643292
51
72.8626085
0
ARC
8
DEFAULT_255_1_388
10
24.0489166
20
100.2859273
40
0.2961455
50
36.7246661
51
57.4701329
0
ARC
8
DEFAULT_255_1_388
10
24.0476323
20
100.287347
40
0.2963321
50
8.054535
51
36.3561529
0
ARC
8
DEFAULT_255_1_388
10
23.9505995
20
100.2699073
40
0.3948682
50
359.8316595
51
8.5873361
0
ARC
8
DEFAULT_255_1_388
10
23.908347
20
100.264497
40
0.4371398
50
343.9831631
51
0.557075
0
ARC
8
DEFAULT_255_1_388
10
24.0080519
20
100.2371963
40
0.3337749
50
311.6358204
51
343.7652116
0
ARC
8
DEFAULT_255_1_388
10
23.9654773
20
100.2851955
40
0.3979351
50
279.7829743
51
311.625622
0
ARC
8
DEFAULT_255_1_388
10
23.9315908
20
100.4468642
40
0.5630417
50
269.7285092
51
280.3857694
0
ARC
8
DEFAULT_255_1_388
10
23.9246221
20
100.4422241
40
0.5584119
50
256.6827433
51
270.4412869
0
ARC
8
DEFAULT_255_1_388
10
23.8865208
20
100.2864698
40
0.3980715
50
229.4223821
51
256.8554507
0
ARC
8
DEFAULT_255_1_388
10
23.8398761
20
100.2339683
40
0.3278564
50
181.8183354
51
229.6455015
0
ARC
8
DEFAULT_255_1_388
10
23.956837
20
100.2486825
40
0.4453611
50
179.9760419
51
183.2330638
0
ARC
8
DEFAULT_255_1_388
10
23.9374923
20
100.2463781
40
0.2579652
50
179.4467996
51
196.2871626
0
ARC
8
DEFAULT_255_1_388
10
23.8826377
20
100.2313709
40
0.2011057
50
196.5661293
51
227.7059371
0
ARC
8
DEFAULT_255_1_388
10
23.9010984
20
100.2520155
40
0.2287994
50
227.7653015
51
257.8763321
0
ARC
8
DEFAULT_255_1_388
10
23.9264067
20
100.3580961
40
0.3378385
50
257.4583525
51
270.4267406
0
ARC
8
DEFAULT_255_1_388
10
23.9315316
20
100.390723
40
0.3704652
50
269.5965319
51
280.8788143
0
ARC
8
DEFAULT_255_1_388
10
23.9573544
20
100.2617529
40
0.2389415
50
280.6347277
51
299.8594068
0
ARC
8
DEFAULT_255_1_388
10
23.9788314
20
100.2209736
40
0.19289
50
300.3575552
51
314.5515667
0
ARC
8
DEFAULT_255_1_388
10
23.969499
20
100.2278025
40
0.204312
50
315.0730962
51
345.0429362
0
ARC
8
DEFAULT_255_1_388
10
23.8656497
20
100.2580539
40
0.31246
50
344.598526
51
357.9270698
0
ARC
8
DEFAULT_255_1_388
10
23.7646802
20
100.2649705
40
0.4136265
50
357.4755098
51
0.0224936
0
ARC
8
DEFAULT_255_1_388
10
23.879968
20
100.2677099
40
0.2983498
50
359.5051035
51
13.4236939
0
ARC
8
DEFAULT_255_1_388
10
23.977477
20
100.2926637
40
0.1977186
50
12.9497905
51
48.7550905
0
ARC
8
DEFAULT_255_1_388
10
23.9569691
20
100.2646373
40
0.2323321
50
49.509109
51
72.1832965
0
ARC
8
DEFAULT_255_1_388
10
23.916716
20
100.1451632
40
0.358397
50
71.9008458
51
84.3555134
0
ARC
8
DEFAULT_255_1_388
10
23.8985554
20
99.9919712
40
0.512641
50
84.019632
51
89.3326067
0
LINE
8
DEFAULT_255_1_388
10
21.2082903
20
109.1549898
11
21.2082903
21
107.9812596
0
LINE
8
DEFAULT_255_1_388
10
21.2082903
20
107.9812596
11
21.8317498
21
107.9812596
0
LINE
8
DEFAULT_255_1_388
10
21.8317498
20
107.9812596
11
21.8317498
21
107.8394
0
LINE
8
DEFAULT_255_1_388
10
21.8317498
20
107.8394
11
21.0339024
21
107.8394
0
LINE
8
DEFAULT_255_1_388
10
21.0339024
20
107.8394
11
21.0339024
21
109.1549898
0
LINE
8
DEFAULT_255_1_388
10
21.0339024
20
109.1549898
11
21.2082903
21
109.1549898
0
LINE
8
DEFAULT_255_1_388
10
22.8482598
20
107.9758382
11
22.8482598
21
107.8394
0
LINE
8
DEFAULT_255_1_388
10
22.8482598
20
107.8394
11
21.9862593
21
107.8394
0
LINE
8
DEFAULT_255_1_388
10
21.9862593
20
107.8394
11
21.9862593
21
107.9595741
0
LINE
8
DEFAULT_255_1_388
10
21.9862593
20
107.9595741
11
22.4416558
21
108.4655702
0
LINE
8
DEFAULT_255_1_388
10
22.1281189
20
108.7673607
11
21.9609595
21
108.7673607
0
LINE
8
DEFAULT_255_1_388
10
22.5401443
20
108.358046
11
22.1877542
21
107.9758382
0
LINE
8
DEFAULT_255_1_388
10
22.1877542
20
107.9758382
11
22.8482598
21
107.9758382
0
ARC
8
DEFAULT_255_1_388
10
20.9240618
20
109.8075983
40
2.0258655
50
318.5132526
51
320.7829045
0
ARC
8
DEFAULT_255_1_388
10
21.5188575
20
109.3234929
40
1.2589638
50
320.7372878
51
323.9739031
0
ARC
8
DEFAULT_255_1_388
10
21.9597506
20
109.0040554
40
0.7145141
50
323.8962701
51
328.64194
0
ARC
8
DEFAULT_255_1_388
10
22.1899764
20
108.8620545
40
0.4440242
50
328.8294576
51
331.7891185
0
ARC
8
DEFAULT_255_1_388
10
22.3022084
20
108.8041374
40
0.3177517
50
331.4254512
51
352.9365785
0
ARC
8
DEFAULT_255_1_388
10
22.3175084
20
108.800705
40
0.3021496
50
353.2257659
51
0.0166158
0
ARC
8
DEFAULT_255_1_388
10
22.3411845
20
108.8032894
40
0.2784847
50
359.486299
51
15.9343185
0
ARC
8
DEFAULT_255_1_388
10
22.3982111
20
108.8186269
40
0.2194403
50
16.1712913
51
43.5286088
0
ARC
8
DEFAULT_255_1_388
10
22.4069056
20
108.8273191
40
0.2071504
50
43.4417391
51
83.1661095
0
ARC
8
DEFAULT_255_1_388
10
22.3918217
20
108.7444316
40
0.2912888
50
82.160179
51
90.1505708
0
ARC
8
DEFAULT_255_1_388
10
22.3882699
20
108.6840279
40
0.3517025
50
89.5460741
51
102.5418361
0
ARC
8
DEFAULT_255_1_388
10
22.3609419
20
108.7999933
40
0.2325748
50
102.1738499
51
129.206123
0
ARC
8
DEFAULT_255_1_388
10
22.3520872
20
108.8139664
40
0.2161591
50
129.72865
51
135.753947
0
ARC
8
DEFAULT_255_1_388
10
22.3657354
20
108.8030728
40
0.2335433
50
136.1757367
51
166.3673339
0
ARC
8
DEFAULT_255_1_388
10
22.4790043
20
108.7727148
40
0.3507873
50
165.9090694
51
178.8684636
0
ARC
8
DEFAULT_255_1_388
10
22.5765814
20
108.7674263
40
0.4484624
50
178.4391136
51
180.0083808
0
ARC
8
DEFAULT_255_1_388
10
22.4186516
20
108.7718197
40
0.4577138
50
163.2878482
51
180.5581842
0
ARC
8
DEFAULT_255_1_388
10
22.3284557
20
108.7966393
40
0.3641968
50
133.4540601
51
162.947111
0
ARC
8
DEFAULT_255_1_388
10
22.3485438
20
108.7752789
40
0.3935189
50
100.7869829
51
133.4382499
0
ARC
8
DEFAULT_255_1_388
10
22.3876683
20
108.6010399
40
0.5720313
50
89.660664
51
101.3702276
0
ARC
8
DEFAULT_255_1_388
10
22.3951292
20
108.6079263
40
0.5651495
50
78.2172678
51
90.412935
0
ARC
8
DEFAULT_255_1_388
10
22.4350758
20
108.7906511
40
0.378122
50
55.9269121
51
78.4888449
0
ARC
8
DEFAULT_255_1_388
10
22.4571473
20
108.8287187
40
0.3342379
50
47.929771
51
55.4049217
0
ARC
8
DEFAULT_255_1_388
10
22.4686004
20
108.8403618
40
0.3179217
50
4.334829
51
48.0560205
0
ARC
8
DEFAULT_255_1_388
10
22.3453805
20
108.8212487
40
0.442341
50
359.9251713
51
5.5971671
0
ARC
8
DEFAULT_255_1_388
10
22.393596
20
108.8275728
40
0.3941854
50
337.8914027
51
358.9967534
0
ARC
8
DEFAULT_255_1_388
10
22.088353
20
108.9453295
40
0.7213271
50
326.9132501
51
338.3508308
0
ARC
8
DEFAULT_255_1_388
10
21.6399642
20
109.2327105
40
1.2538973
50
319.6471833
51
327.0959558
0
ARC
8
DEFAULT_255_1_388
10
21.20863
20
109.588505
40
1.8129975
50
317.2588228
51
319.9045804
0
LINE
8
DEFAULT_255_1_388
10
23.3903985
20
108.4664737
11
23.3903985
21
108.3300355
0
LINE
8
DEFAULT_255_1_388
10
23.3903985
20
108.3300355
11
22.949459
21
108.3300355
0
LINE
8
DEFAULT_255_1_388
10
22.949459
20
108.3300355
11
22.949459
21
108.4664737
0
LINE
8
DEFAULT_255_1_388
10
22.949459
20
108.4664737
11
23.3903985
21
108.4664737
0
LINE
8
DEFAULT_255_1_388
10
24.3978729
20
107.9758382
11
24.3978729
21
107.8394
0
LINE
8
DEFAULT_255_1_388
10
24.3978729
20
107.8394
11
23.5358724
21
107.8394
0
LINE
8
DEFAULT_255_1_388
10
23.5358724
20
107.8394
11
23.5358724
21
107.9595741
0
LINE
8
DEFAULT_255_1_388
10
23.5358724
20
107.9595741
11
23.9912688
21
108.4655702
0
LINE
8
DEFAULT_255_1_388
10
23.677732
20
108.7673607
11
23.5105726
21
108.7673607
0
LINE
8
DEFAULT_255_1_388
10
24.0897574
20
108.358046
11
23.7373672
21
107.9758382
0
LINE
8
DEFAULT_255_1_388
10
23.7373672
20
107.9758382
11
24.3978729
21
107.9758382
0
ARC
8
DEFAULT_255_1_388
10
22.4736748
20
109.8075983
40
2.0258655
50
318.5132526
51
320.7829045
0
ARC
8
DEFAULT_255_1_388
10
23.0684705
20
109.3234929
40
1.2589638
50
320.7372878
51
323.9739031
0
ARC
8
DEFAULT_255_1_388
10
23.5093637
20
109.0040554
40
0.7145141
50
323.8962701
51
328.64194
0
ARC
8
DEFAULT_255_1_388
10
23.7395894
20
108.8620545
40
0.4440242
50
328.8294576
51
331.7891185
0
ARC
8
DEFAULT_255_1_388
10
23.8518214
20
108.8041374
40
0.3177517
50
331.4254512
51
352.9365785
0
ARC
8
DEFAULT_255_1_388
10
23.8671214
20
108.800705
40
0.3021496
50
353.2257659
51
0.0166158
0
ARC
8
DEFAULT_255_1_388
10
23.8907975
20
108.8032894
40
0.2784847
50
359.486299
51
15.9343185
0
ARC
8
DEFAULT_255_1_388
10
23.9478242
20
108.8186269
40
0.2194403
50
16.1712913
51
43.5286088
0
ARC
8
DEFAULT_255_1_388
10
23.9565186
20
108.8273191
40
0.2071504
50
43.4417391
51
83.1661095
0
ARC
8
DEFAULT_255_1_388
10
23.9414347
20
108.7444316
40
0.2912888
50
82.160179
51
90.1505708
0
ARC
8
DEFAULT_255_1_388
10
23.9378829
20
108.6840279
40
0.3517025
50
89.5460741
51
102.5418361
0
ARC
8
DEFAULT_255_1_388
10
23.9105549
20
108.7999933
40
0.2325748
50
102.1738499
51
129.206123
0
ARC
8
DEFAULT_255_1_388
10
23.9017002
20
108.8139664
40
0.2161591
50
129.72865
51
135.753947
0
ARC
8
DEFAULT_255_1_388
10
23.9153484
20
108.8030728
40
0.2335433
50
136.1757367
51
166.3673339
0
ARC
8
DEFAULT_255_1_388
10
24.0286173
20
108.7727148
40
0.3507873
50
165.9090694
51
178.8684636
0
ARC
8
DEFAULT_255_1_388
10
24.1261944
20
108.7674263
40
0.4484624
50
178.4391136
51
180.0083808
0
ARC
8
DEFAULT_255_1_388
10
23.9682646
20
108.7718197
40
0.4577138
50
163.2878482
51
180.5581842
0
ARC
8
DEFAULT_255_1_388
10
23.8780687
20
108.7966393
40
0.3641968
50
133.4540601
51
162.947111
0
ARC
8
DEFAULT_255_1_388
10
23.8981569
20
108.7752789
40
0.3935189
50
100.7869829
51
133.4382499
0
ARC
8
DEFAULT_255_1_388
10
23.9372814
20
108.6010399
40
0.5720313
50
89.660664
51
101.3702276
0
ARC
8
DEFAULT_255_1_388
10
23.9447423
20
108.6079263
40
0.5651495
50
78.2172678
51
90.412935
0
ARC
8
DEFAULT_255_1_388
10
23.9846888
20
108.7906511
40
0.378122
50
55.9269121
51
78.4888449
0
ARC
8
DEFAULT_255_1_388
10
24.0067604
20
108.8287187
40
0.3342379
50
47.929771
51
55.4049217
0
ARC
8
DEFAULT_255_1_388
10
24.0182134
20
108.8403618
40
0.3179217
50
4.334829
51
48.0560205
0
ARC
8
DEFAULT_255_1_388
10
23.8949936
20
108.8212487
40
0.442341
50
359.9251713
51
5.5971671
0
ARC
8
DEFAULT_255_1_388
10
23.943209
20
108.8275728
40
0.3941854
50
337.8914027
51
358.9967534
0
ARC
8
DEFAULT_255_1_388
10
23.637966
20
108.9453295
40
0.7213271
50
326.9132501
51
338.3508308
0
ARC
8
DEFAULT_255_1_388
10
23.1895772
20
109.2327105
40
1.2538973
50
319.6471833
51
327.0959558
0
ARC
8
DEFAULT_255_1_388
10
22.7582431
20
109.588505
40
1.8129975
50
317.2588228
51
319.9045804
0
LINE
8
DEFAULT_255_1_388
10
21.2169903
20
117.0924898
11
21.2169903
21
115.9187596
0
LINE
8
DEFAULT_255_1_388
10
21.2169903
20
115.9187596
11
21.8404498
21
115.9187596
0
LINE
8
DEFAULT_255_1_388
10
21.8404498
20
115.9187596
11
21.8404498
21
115.7769
0
LINE
8
DEFAULT_255_1_388
10
21.8404498
20
115.7769
11
21.0426024
21
115.7769
0
LINE
8
DEFAULT_255_1_388
10
21.0426024
20
115.7769
11
21.0426024
21
117.0924898
0
LINE
8
DEFAULT_255_1_388
10
21.0426024
20
117.0924898
11
21.2169903
21
117.0924898
0
LINE
8
DEFAULT_255_1_388
10
22.8569598
20
115.9133382
11
22.8569598
21
115.7769
0
LINE
8
DEFAULT_255_1_388
10
22.8569598
20
115.7769
11
21.9949593
21
115.7769
0
LINE
8
DEFAULT_255_1_388
10
21.9949593
20
115.7769
11
21.9949593
21
115.8970741
0
LINE
8
DEFAULT_255_1_388
10
21.9949593
20
115.8970741
11
22.4503558
21
116.4030702
0
LINE
8
DEFAULT_255_1_388
10
22.1368189
20
116.7048607
11
21.9696595
21
116.7048607
0
LINE
8
DEFAULT_255_1_388
10
22.5488443
20
116.295546
11
22.1964542
21
115.9133382
0
LINE
8
DEFAULT_255_1_388
10
22.1964542
20
115.9133382
11
22.8569598
21
115.9133382
0
ARC
8
DEFAULT_255_1_388
10
20.9327618
20
117.7450983
40
2.0258655
50
318.5132526
51
320.7829045
0
ARC
8
DEFAULT_255_1_388
10
21.5275575
20
117.2609929
40
1.2589638
50
320.7372878
51
323.9739031
0
ARC
8
DEFAULT_255_1_388
10
21.9684506
20
116.9415554
40
0.7145141
50
323.8962701
51
328.64194
0
ARC
8
DEFAULT_255_1_388
10
22.1986764
20
116.7995545
40
0.4440242
50
328.8294576
51
331.7891185
0
ARC
8
DEFAULT_255_1_388
10
22.3109084
20
116.7416374
40
0.3177517
50
331.4254512
51
352.9365785
0
ARC
8
DEFAULT_255_1_388
10
22.3262084
20
116.738205
40
0.3021496
50
353.2257659
51
0.0166158
0
ARC
8
DEFAULT_255_1_388
10
22.3498845
20
116.7407894
40
0.2784847
50
359.486299
51
15.9343185
0
ARC
8
DEFAULT_255_1_388
10
22.4069111
20
116.7561269
40
0.2194403
50
16.1712913
51
43.5286088
0
ARC
8
DEFAULT_255_1_388
10
22.4156056
20
116.7648191
40
0.2071504
50
43.4417391
51
83.1661095
0
ARC
8
DEFAULT_255_1_388
10
22.4005217
20
116.6819316
40
0.2912888
50
82.160179
51
90.1505708
0
ARC
8
DEFAULT_255_1_388
10
22.3969699
20
116.6215279
40
0.3517025
50
89.5460741
51
102.5418361
0
ARC
8
DEFAULT_255_1_388
10
22.3696419
20
116.7374933
40
0.2325748
50
102.1738499
51
129.206123
0
ARC
8
DEFAULT_255_1_388
10
22.3607872
20
116.7514664
40
0.2161591
50
129.72865
51
135.753947
0
ARC
8
DEFAULT_255_1_388
10
22.3744354
20
116.7405728
40
0.2335433
50
136.1757367
51
166.3673339
0
ARC
8
DEFAULT_255_1_388
10
22.4877043
20
116.7102148
40
0.3507873
50
165.9090694
51
178.8684636
0
ARC
8
DEFAULT_255_1_388
10
22.5852814
20
116.7049263
40
0.4484624
50
178.4391136
51
180.0083808
0
ARC
8
DEFAULT_255_1_388
10
22.4273516
20
116.7093197
40
0.4577138
50
163.2878482
51
180.5581842
0
ARC
8
DEFAULT_255_1_388
10
22.3371557
20
116.7341393
40
0.3641968
50
133.4540601
51
162.947111
0
ARC
8
DEFAULT_255_1_388
10
22.3572438
20
116.7127789
40
0.3935189
50
100.7869829
51
133.4382499
0
ARC
8
DEFAULT_255_1_388
10
22.3963683
20
116.5385399
40
0.5720313
50
89.660664
51
101.3702276
0
ARC
8
DEFAULT_255_1_388
10
22.4038292
20
116.5454263
40
0.5651495
50
78.2172678
51
90.412935
0
ARC
8
DEFAULT_255_1_388
10
22.4437758
20
116.7281511
40
0.378122
50
55.9269121
51
78.4888449
0
ARC
8
DEFAULT_255_1_388
10
22.4658473
20
116.7662187
40
0.3342379
50
47.929771
51
55.4049217
0
ARC
8
DEFAULT_255_1_388
10
22.4773004
20
116.7778618
40
0.3179217
50
4.334829
51
48.0560205
0
ARC
8
DEFAULT_255_1_388
10
22.3540805
20
116.7587487
40
0.442341
50
359.9251713
51
5.5971671
0
ARC
8
DEFAULT_255_1_388
10
22.402296
20
116.7650728
40
0.3941854
50
337.8914027
51
358.9967534
0
ARC
8
DEFAULT_255_1_388
10
22.097053
20
116.8828295
40
0.7213271
50
326.9132501
51
338.3508308
0
ARC
8
DEFAULT_255_1_388
10
21.6486642
20
117.1702105
40
1.2538973
50
319.6471833
51
327.0959558
0
ARC
8
DEFAULT_255_1_388
10
21.21733
20
117.526005
40
1.8129975
50
317.2588228
51
319.9045804
0
LINE
8
DEFAULT_255_1_388
10
23.3990985
20
116.4039737
11
23.3990985
21
116.2675355
0
LINE
8
DEFAULT_255_1_388
10
23.3990985
20
116.2675355
11
22.958159
21
116.2675355
0
LINE
8
DEFAULT_255_1_388
10
22.958159
20
116.2675355
11
22.958159
21
116.4039737
0
LINE
8
DEFAULT_255_1_388
10
22.958159
20
116.4039737
11
23.3990985
21
116.4039737
0
LINE
8
DEFAULT_255_1_388
10
24.0939396
20
117.0988148
11
24.0939396
21
115.7769
0
LINE
8
DEFAULT_255_1_388
10
24.0939396
20
115.7769
11
23.9258766
21
115.7769
0
LINE
8
DEFAULT_255_1_388
10
23.9258766
20
115.7769
11
23.9258766
21
116.890995
0
LINE
8
DEFAULT_255_1_388
10
23.9258766
20
116.890995
11
23.588847
21
116.7672066
0
LINE
8
DEFAULT_255_1_388
10
23.588847
20
116.7672066
11
23.588847
21
116.9190055
0
LINE
8
DEFAULT_255_1_388
10
23.588847
20
116.9190055
11
24.0677362
21
117.0988148
0
LINE
8
DEFAULT_255_1_388
10
24.0677362
20
117.0988148
11
24.0939396
21
117.0988148
0
LINE
8
DEFAULT_255_1_388
10
21.2082903
20
125.0299898
11
21.2082903
21
123.8562596
0
LINE
8
DEFAULT_255_1_388
10
21.2082903
20
123.8562596
11
21.8317498
21
123.8562596
0
LINE
8
DEFAULT_255_1_388
10
21.8317498
20
123.8562596
11
21.8317498
21
123.7144
0
LINE
8
DEFAULT_255_1_388
10
21.8317498
20
123.7144
11
21.0339024
21
123.7144
0
LINE
8
DEFAULT_255_1_388
10
21.0339024
20
123.7144
11
21.0339024
21
125.0299898
0
LINE
8
DEFAULT_255_1_388
10
21.0339024
20
125.0299898
11
21.2082903
21
125.0299898
0
LINE
8
DEFAULT_255_1_388
10
22.8482598
20
123.8508382
11
22.8482598
21
123.7144
0
LINE
8
DEFAULT_255_1_388
10
22.8482598
20
123.7144
11
21.9862593
21
123.7144
0
LINE
8
DEFAULT_255_1_388
10
21.9862593
20
123.7144
11
21.9862593
21
123.8345741
0
LINE
8
DEFAULT_255_1_388
10
21.9862593
20
123.8345741
11
22.4416558
21
124.3405702
0
LINE
8
DEFAULT_255_1_388
10
22.1281189
20
124.6423607
11
21.9609595
21
124.6423607
0
LINE
8
DEFAULT_255_1_388
10
22.5401443
20
124.233046
11
22.1877542
21
123.8508382
0
LINE
8
DEFAULT_255_1_388
10
22.1877542
20
123.8508382
11
22.8482598
21
123.8508382
0
ARC
8
DEFAULT_255_1_388
10
20.9240618
20
125.6825983
40
2.0258655
50
318.5132526
51
320.7829045
0
ARC
8
DEFAULT_255_1_388
10
21.5188575
20
125.1984929
40
1.2589638
50
320.7372878
51
323.9739031
0
ARC
8
DEFAULT_255_1_388
10
21.9597506
20
124.8790554
40
0.7145141
50
323.8962701
51
328.64194
0
ARC
8
DEFAULT_255_1_388
10
22.1899764
20
124.7370545
40
0.4440242
50
328.8294576
51
331.7891185
0
ARC
8
DEFAULT_255_1_388
10
22.3022084
20
124.6791374
40
0.3177517
50
331.4254512
51
352.9365785
0
ARC
8
DEFAULT_255_1_388
10
22.3175084
20
124.675705
40
0.3021496
50
353.2257659
51
0.0166158
0
ARC
8
DEFAULT_255_1_388
10
22.3411845
20
124.6782894
40
0.2784847
50
359.486299
51
15.9343185
0
ARC
8
DEFAULT_255_1_388
10
22.3982111
20
124.6936269
40
0.2194403
50
16.1712913
51
43.5286088
0
ARC
8
DEFAULT_255_1_388
10
22.4069056
20
124.7023191
40
0.2071504
50
43.4417391
51
83.1661095
0
ARC
8
DEFAULT_255_1_388
10
22.3918217
20
124.6194316
40
0.2912888
50
82.160179
51
90.1505708
0
ARC
8
DEFAULT_255_1_388
10
22.3882699
20
124.5590279
40
0.3517025
50
89.5460741
51
102.5418361
0
ARC
8
DEFAULT_255_1_388
10
22.3609419
20
124.6749933
40
0.2325748
50
102.1738499
51
129.206123
0
ARC
8
DEFAULT_255_1_388
10
22.3520872
20
124.6889664
40
0.2161591
50
129.72865
51
135.753947
0
ARC
8
DEFAULT_255_1_388
10
22.3657354
20
124.6780728
40
0.2335433
50
136.1757367
51
166.3673339
0
ARC
8
DEFAULT_255_1_388
10
22.4790043
20
124.6477148
40
0.3507873
50
165.9090694
51
178.8684636
0
ARC
8
DEFAULT_255_1_388
10
22.5765814
20
124.6424263
40
0.4484624
50
178.4391136
51
180.0083808
0
ARC
8
DEFAULT_255_1_388
10
22.4186516
20
124.6468197
40
0.4577138
50
163.2878482
51
180.5581842
0
ARC
8
DEFAULT_255_1_388
10
22.3284557
20
124.6716393
40
0.3641968
50
133.4540601
51
162.947111
0
ARC
8
DEFAULT_255_1_388
10
22.3485438
20
124.6502789
40
0.3935189
50
100.7869829
51
133.4382499
0
ARC
8
DEFAULT_255_1_388
10
22.3876683
20
124.4760399
40
0.5720313
50
89.660664
51
101.3702276
0
ARC
8
DEFAULT_255_1_388
10
22.3951292
20
124.4829263
40
0.5651495
50
78.2172678
51
90.412935
0
ARC
8
DEFAULT_255_1_388
10
22.4350758
20
124.6656511
40
0.378122
50
55.9269121
51
78.4888449
0
ARC
8
DEFAULT_255_1_388
10
22.4571473
20
124.7037187
40
0.3342379
50
47.929771
51
55.4049217
0
ARC
8
DEFAULT_255_1_388
10
22.4686004
20
124.7153618
40
0.3179217
50
4.334829
51
48.0560205
0
ARC
8
DEFAULT_255_1_388
10
22.3453805
20
124.6962487
40
0.442341
50
359.9251713
51
5.5971671
0
ARC
8
DEFAULT_255_1_388
10
22.393596
20
124.7025728
40
0.3941854
50
337.8914027
51
358.9967534
0
ARC
8
DEFAULT_255_1_388
10
22.088353
20
124.8203295
40
0.7213271
50
326.9132501
51
338.3508308
0
ARC
8
DEFAULT_255_1_388
10
21.6399642
20
125.1077105
40
1.2538973
50
319.6471833
51
327.0959558
0
ARC
8
DEFAULT_255_1_388
10
21.20863
20
125.463505
40
1.8129975
50
317.2588228
51
319.9045804
0
LINE
8
DEFAULT_255_1_388
10
23.3903985
20
124.3414737
11
23.3903985
21
124.2050355
0
LINE
8
DEFAULT_255_1_388
10
23.3903985
20
124.2050355
11
22.949459
21
124.2050355
0
LINE
8
DEFAULT_255_1_388
10
22.949459
20
124.2050355
11
22.949459
21
124.3414737
0
LINE
8
DEFAULT_255_1_388
10
22.949459
20
124.3414737
11
23.3903985
21
124.3414737
0
LINE
8
DEFAULT_255_1_388
10
24.3608267
20
124.492369
11
24.3608267
21
124.2755135
0
LINE
8
DEFAULT_255_1_388
10
23.530451
20
124.2529244
11
23.530451
21
124.4761048
0
LINE
8
DEFAULT_255_1_388
10
24.1936673
20
124.2303353
11
24.1936673
21
124.5041153
0
LINE
8
DEFAULT_255_1_388
10
23.6976104
20
124.5167652
11
23.6976104
21
124.2493102
0
ARC
8
DEFAULT_255_1_388
10
22.9830601
20
124.2700118
40
1.3777776
50
353.8440855
51
0.2287917
0
ARC
8
DEFAULT_255_1_388
10
23.5049618
20
124.2117414
40
0.852639
50
344.4934746
51
353.9763743
0
ARC
8
DEFAULT_255_1_388
10
23.8416426
20
124.1160191
40
0.5026273
50
329.2803599
51
344.7473406
0
ARC
8
DEFAULT_255_1_388
10
23.9531921
20
124.0548038
40
0.3754848
50
324.9361395
51
328.6153007
0
ARC
8
DEFAULT_255_1_388
10
23.9957571
20
124.0250586
40
0.3235566
50
280.5801797
51
324.9173226
0
ARC
8
DEFAULT_255_1_388
10
23.95062
20
124.2130236
40
0.5167077
50
269.5979457
51
281.6732777
0
ARC
8
DEFAULT_255_1_388
10
23.9425103
20
124.1995113
40
0.5032026
50
256.6228565
51
270.5105488
0
ARC
8
DEFAULT_255_1_388
10
23.8972846
20
124.0253345
40
0.3233092
50
215.8618351
51
257.2787793
0
ARC
8
DEFAULT_255_1_388
10
24.0121553
20
124.1024106
40
0.4615831
50
197.9695203
51
215.2622745
0
ARC
8
DEFAULT_255_1_388
10
24.2917229
20
124.1967641
40
0.7566307
50
187.8816486
51
198.2346584
0
ARC
8
DEFAULT_255_1_388
10
24.7370467
20
124.2610453
40
1.2065653
50
180.8977266
51
188.0054894
0
ARC
8
DEFAULT_255_1_388
10
25.0420681
20
124.27254
40
1.5117443
50
180.7434591
51
181.152202
0
ARC
8
DEFAULT_255_1_388
10
24.8745677
20
124.4815371
40
1.3441277
50
173.7674302
51
180.2315596
0
ARC
8
DEFAULT_255_1_388
10
24.3663545
20
124.5389779
40
0.8326847
50
164.3058537
51
173.9000553
0
ARC
8
DEFAULT_255_1_388
10
24.0387546
20
124.6333652
40
0.4917711
50
148.7922028
51
164.5682288
0
ARC
8
DEFAULT_255_1_388
10
23.9318283
20
124.6930457
40
0.3694204
50
144.5883979
51
148.1161588
0
ARC
8
DEFAULT_255_1_388
10
23.8931028
20
124.7200667
40
0.322202
50
101.6440149
51
144.5142619
0
ARC
8
DEFAULT_255_1_388
10
23.940922
20
124.5300337
40
0.5180451
50
89.528284
51
102.5820197
0
ARC
8
DEFAULT_255_1_388
10
23.9498212
20
124.5256376
40
0.5224441
50
77.0437914
51
90.508231
0
ARC
8
DEFAULT_255_1_388
10
23.9950466
20
124.7104272
40
0.3322297
50
48.2777708
51
77.4996087
0
ARC
8
DEFAULT_255_1_388
10
24.0032206
20
124.7249557
40
0.315966
50
36.3141586
51
47.6307332
0
ARC
8
DEFAULT_255_1_388
10
23.9054928
20
124.6591159
40
0.4337313
50
18.2931065
51
35.6770203
0
ARC
8
DEFAULT_255_1_388
10
23.6193769
20
124.5609107
40
0.7362203
50
8.0246996
51
18.5605636
0
ARC
8
DEFAULT_255_1_388
10
23.1510125
20
124.4917432
40
1.2096583
50
1.127539
51
8.1718423
0
ARC
8
DEFAULT_255_1_388
10
22.7861258
20
124.4774374
40
1.5747719
50
0.5432713
51
1.38669
0
ARC
8
DEFAULT_255_1_388
10
22.9918637
20
124.5081163
40
1.2018103
50
359.8092569
51
4.9408001
0
ARC
8
DEFAULT_255_1_388
10
23.4655218
20
124.55039
40
0.7262727
50
4.8364937
51
12.2906017
0
ARC
8
DEFAULT_255_1_388
10
23.7754683
20
124.6194485
40
0.4087324
50
12.0806994
51
23.8171225
0
ARC
8
DEFAULT_255_1_388
10
23.9075079
20
124.6753508
40
0.2653719
50
24.2874621
51
31.3934353
0
ARC
8
DEFAULT_255_1_388
10
23.9665515
20
124.7139822
40
0.1948607
50
30.7407708
51
82.4658033
0
ARC
8
DEFAULT_255_1_388
10
23.9463175
20
124.6146017
40
0.2961198
50
81.1057101
51
90.2187368
0
ARC
8
DEFAULT_255_1_388
10
23.9422987
20
124.6436421
40
0.2670929
50
89.380395
51
105.6763916
0
ARC
8
DEFAULT_255_1_388
10
23.9216709
20
124.718632
40
0.1893189
50
105.7980655
51
149.7387869
0
ARC
8
DEFAULT_255_1_388
10
24.0413849
20
124.6466719
40
0.3289892
50
149.4208441
51
163.628295
0
ARC
8
DEFAULT_255_1_388
10
24.2766079
20
124.5749345
40
0.5749004
50
163.3764549
51
172.141138
0
ARC
8
DEFAULT_255_1_388
10
24.64788
20
124.5217582
40
0.9499585
50
172.0258462
51
178.0705453
0
ARC
8
DEFAULT_255_1_388
10
24.9900353
20
124.5055682
40
1.2924734
50
177.8639301
51
179.5036263
0
ARC
8
DEFAULT_255_1_388
10
24.8681372
20
124.2452151
40
1.170534
50
179.7995545
51
185.246089
0
ARC
8
DEFAULT_255_1_388
10
24.4132965
20
124.2021404
40
0.7136613
50
185.1411911
51
193.0082205
0
ARC
8
DEFAULT_255_1_388
10
24.1159226
20
124.1318441
40
0.4080987
50
192.7897338
51
205.2507384
0
ARC
8
DEFAULT_255_1_388
10
23.9981436
20
124.0792538
40
0.2791522
50
205.8001921
51
211.2545876
0
ARC
8
DEFAULT_255_1_388
10
23.9392975
20
124.0398132
40
0.2084074
50
210.3789935
51
238.4007996
0
ARC
8
DEFAULT_255_1_388
10
23.9371061
20
124.0450786
40
0.2117943
50
239.6521916
51
265.9793852
0
ARC
8
DEFAULT_255_1_388
10
23.946691
20
124.1207358
40
0.2879689
50
265.1324455
51
270.0603288
0
ARC
8
DEFAULT_255_1_388
10
23.9499287
20
124.0842418
40
0.2514919
50
269.3314378
51
287.2180039
0
ARC
8
DEFAULT_255_1_388
10
23.9654369
20
124.0276291
40
0.1928357
50
287.7957942
51
329.0808983
0
ARC
8
DEFAULT_255_1_388
10
23.8577126
20
124.0948651
40
0.319808
50
328.6635261
51
343.3325043
0
ARC
8
DEFAULT_255_1_388
10
23.6132585
20
124.1710195
40
0.5758408
50
343.0498092
51
351.9392499
0
ARC
8
DEFAULT_255_1_388
10
23.2231906
20
124.2285205
40
0.9701202
50
351.8071632
51
357.7957897
0
ARC
8
DEFAULT_255_1_388
10
22.8597383
20
124.2473724
40
1.3340376
50
357.5870923
51
359.2682493
0
ENDSEC
0
EOF