0
SECTION
2
HEADER
9
$MEASUREMENT
70
1
0
ENDSEC
0
SECTION
2
TABLES
0
TABLE
2
LTYPE
0
LTYPE
72
65
70
64
2
CONTINUOUS
3
______
73
0
40
0
0
ENDTAB
0
TABLE
2
LAYER
0
LAYER
2
DEFAULT_255_2_778
70
0
62
255
6
CONTINUOUS
0
LAYER
2
DEFAULT_255_1_388
70
0
62
255
6
CONTINUOUS
0
ENDTAB
0
ENDSEC
0
SECTION
2
ENTITIES
0
ARC
8
DEFAULT_255_2_778
10
3.5700693
20
75.805203
40
0.7914215
50
129.1312896
51
180.1450914
0
ARC
8
DEFAULT_255_2_778
10
3.5703345
20
75.8056901
40
0.7912112
50
89.854026
51
129.1684493
0
ARC
8
DEFAULT_255_2_778
10
25.7993937
20
75.8053767
40
0.7915249
50
39.4792447
51
90.147911
0
ARC
8
DEFAULT_255_2_778
10
25.7999935
20
75.8052233
40
0.7911595
50
359.8533901
51
39.5154338
0
ARC
8
DEFAULT_255_2_778
10
25.7996693
20
-1.9863492
40
0.7914836
50
309.4761667
51
0.1482649
0
ARC
8
DEFAULT_255_2_778
10
25.799398
20
-1.9867803
40
0.7913235
50
269.8517415
51
309.511178
0
ARC
8
DEFAULT_255_2_778
10
3.570342
20
-1.9867221
40
0.7913815
50
219.1282118
51
270.1454017
0
ARC
8
DEFAULT_255_2_778
10
3.5700247
20
-1.9863397
40
0.7913769
50
179.8524075
51
219.1641908
0
LINE
8
DEFAULT_255_2_778
10
3.5723503
20
76.5968989
11
25.7973503
21
76.5968989
0
LINE
8
DEFAULT_255_2_778
10
26.5911503
20
75.8031989
11
26.5911503
21
-1.9843011
0
LINE
8
DEFAULT_255_2_778
10
25.7973503
20
-2.7781011
11
3.5723503
21
-2.7781011
0
LINE
8
DEFAULT_255_2_778
10
2.7786503
20
-1.9843011
11
2.7786503
21
75.8031989
0
LINE
8
DEFAULT_255_1_388
10
10.7319985
20
0.6821148
11
10.7319985
21
-0.6398
0
LINE
8
DEFAULT_255_1_388
10
10.7319985
20
-0.6398
11
10.5639355
21
-0.6398
0
LINE
8
DEFAULT_255_1_388
10
10.5639355
20
-0.6398
11
10.5639355
21
0.474295
0
LINE
8
DEFAULT_255_1_388
10
10.5639355
20
0.474295
11
10.226906
21
0.3505066
0
LINE
8
DEFAULT_255_1_388
10
10.226906
20
0.3505066
11
10.226906
21
0.5023055
0
LINE
8
DEFAULT_255_1_388
10
10.226906
20
0.5023055
11
10.7057951
21
0.6821148
0
LINE
8
DEFAULT_255_1_388
10
10.7057951
20
0.6821148
11
10.7319985
21
0.6821148
0
LINE
8
DEFAULT_255_1_388
10
12.071081
20
0.6757898
11
12.071081
21
0.5818191
0
LINE
8
DEFAULT_255_1_388
10
12.071081
20
0.5818191
11
11.5262316
21
-0.6398
0
LINE
8
DEFAULT_255_1_388
10
11.5262316
20
-0.6398
11
11.3509401
21
-0.6398
0
LINE
8
DEFAULT_255_1_388
10
11.3509401
20
-0.6398
11
11.8939824
21
0.538448
0
LINE
8
DEFAULT_255_1_388
10
11.8939824
20
0.538448
11
11.1819736
21
0.538448
0
LINE
8
DEFAULT_255_1_388
10
11.1819736
20
0.538448
11
11.1819736
21
0.6757898
0
LINE
8
DEFAULT_255_1_388
10
11.1819736
20
0.6757898
11
12.071081
21
0.6757898
0
LINE
8
DEFAULT_255_1_388
10
12.4713601
20
-0.0145334
11
12.3376325
21
0.0198021
0
LINE
8
DEFAULT_255_1_388
10
12.3376325
20
0.0198021
11
12.4044963
21
0.6757898
0
LINE
8
DEFAULT_255_1_388
10
12.4044963
20
0.6757898
11
13.0785554
21
0.6757898
0
LINE
8
DEFAULT_255_1_388
10
13.0785554
20
0.6757898
11
13.0785554
21
0.5212803
0
LINE
8
DEFAULT_255_1_388
10
13.0785554
20
0.5212803
11
12.5463559
21
0.5212803
0
LINE
8
DEFAULT_255_1_388
10
12.5463559
20
0.5212803
11
12.5065991
21
0.1625652
0
LINE
8
DEFAULT_255_1_388
10
12.2906472
20
-0.2937348
11
12.4487709
21
-0.2937348
0
LINE
8
DEFAULT_255_1_388
10
12.5156347
20
0.0216092
11
12.4713601
21
-0.0145334
0
ARC
8
DEFAULT_255_1_388
10
12.7152604
20
-0.1951759
40
0.4141476
50
93.7181681
51
120.253934
0
ARC
8
DEFAULT_255_1_388
10
12.7258656
20
-0.2860716
40
0.5055616
50
89.9660471
51
94.2495185
0
ARC
8
DEFAULT_255_1_388
10
12.7304478
20
-0.2197846
40
0.4392953
50
73.8045384
51
90.5585736
0
ARC
8
DEFAULT_255_1_388
10
12.7568736
20
-0.123248
40
0.3392225
50
41.3071072
51
73.543002
0
ARC
8
DEFAULT_255_1_388
10
12.7100556
20
-0.1635539
40
0.4009977
50
13.5075837
51
41.2174839
0
ARC
8
DEFAULT_255_1_388
10
12.5253653
20
-0.2119093
40
0.5918864
50
1.1330171
51
13.8830737
0
ARC
8
DEFAULT_255_1_388
10
12.3657299
20
-0.2204478
40
0.7516787
50
359.9925091
51
1.5431298
0
ARC
8
DEFAULT_255_1_388
10
12.5101914
20
-0.2250973
40
0.6072343
50
347.8572712
51
0.4294349
0
ARC
8
DEFAULT_255_1_388
10
12.7071049
20
-0.2697102
40
0.4053482
50
323.6727442
51
348.1674594
0
ARC
8
DEFAULT_255_1_388
10
12.7402013
20
-0.2898825
40
0.3667495
50
316.8171818
51
323.1486802
0
ARC
8
DEFAULT_255_1_388
10
12.7471137
20
-0.2940388
40
0.358869
50
281.839603
51
316.5458142
0
ARC
8
DEFAULT_255_1_388
10
12.7048425
20
-0.1190637
40
0.5388223
50
269.5770964
51
282.4214641
0
ARC
8
DEFAULT_255_1_388
10
12.6968345
20
-0.143107
40
0.5147801
50
256.2425863
51
270.4486481
0
ARC
8
DEFAULT_255_1_388
10
12.6631873
20
-0.2780876
40
0.3756708
50
228.9024379
51
256.33135
0
ARC
8
DEFAULT_255_1_388
10
12.6548853
20
-0.2911946
40
0.360344
50
193.7536029
51
228.5272638
0
ARC
8
DEFAULT_255_1_388
10
12.7941418
20
-0.2503537
40
0.5053599
50
184.9244437
51
194.4976052
0
ARC
8
DEFAULT_255_1_388
10
12.815806
20
-0.2463278
40
0.3700839
50
187.3596909
51
198.6733728
0
ARC
8
DEFAULT_255_1_388
10
12.6977303
20
-0.2872627
40
0.2451195
50
198.4453795
51
217.7945479
0
ARC
8
DEFAULT_255_1_388
10
12.6644476
20
-0.3108437
40
0.2043754
50
218.2887146
51
228.5613203
0
ARC
8
DEFAULT_255_1_388
10
12.6754482
20
-0.2960098
40
0.2227819
50
228.9652423
51
258.1237049
0
ARC
8
DEFAULT_255_1_388
10
12.698592
20
-0.1969036
40
0.3245374
50
257.7260585
51
270.4013717
0
ARC
8
DEFAULT_255_1_388
10
12.7036418
20
-0.2469745
40
0.2744726
50
269.4204315
51
286.420998
0
ARC
8
DEFAULT_255_1_388
10
12.7203474
20
-0.3076295
40
0.2115721
50
286.7250065
51
320.6004665
0
ARC
8
DEFAULT_255_1_388
10
12.6772389
20
-0.2726473
40
0.2670878
50
320.6712228
51
344.5440474
0
ARC
8
DEFAULT_255_1_388
10
12.5471103
20
-0.2344606
40
0.4026927
50
344.241448
51
356.735803
0
ARC
8
DEFAULT_255_1_388
10
12.406741
20
-0.2228344
40
0.5435085
50
356.3547471
51
0.0507222
0
ARC
8
DEFAULT_255_1_388
10
12.5569675
20
-0.2193188
40
0.3932934
50
359.5579289
51
12.9534322
0
ARC
8
DEFAULT_255_1_388
10
12.6756515
20
-0.1905414
40
0.2711827
50
12.6489751
51
41.608121
0
ARC
8
DEFAULT_255_1_388
10
12.7015675
20
-0.1685054
40
0.2371737
50
41.7851122
51
85.9892156
0
ARC
8
DEFAULT_255_1_388
10
12.6876985
20
-0.2600262
40
0.3295244
50
84.6965848
51
90.0672125
0
ARC
8
DEFAULT_255_1_388
10
12.6850553
20
-0.3351882
40
0.4046926
50
89.6804991
51
99.161352
0
ARC
8
DEFAULT_255_1_388
10
12.6619562
20
-0.1971152
40
0.2647044
50
98.9836248
51
113.8905702
0
ARC
8
DEFAULT_255_1_388
10
12.6361237
20
-0.1361882
40
0.1985386
50
114.195234
51
127.3641866
0
LINE
8
DEFAULT_255_1_388
10
13.9260988
20
0.6766934
11
13.9559165
21
0.6766934
0
LINE
8
DEFAULT_255_1_388
10
13.9559165
20
0.6766934
11
13.9559165
21
0.5348338
0
LINE
8
DEFAULT_255_1_388
10
13.9559165
20
0.5348338
11
13.9251953
21
0.5348338
0
LINE
8
DEFAULT_255_1_388
10
13.3098679
20
-0.1392253
11
13.3098679
21
-0.0750722
0
LINE
8
DEFAULT_255_1_388
10
13.4779309
20
-0.0967578
11
13.4779309
21
-0.1582001
0
ARC
8
DEFAULT_255_1_388
10
13.9310844
20
-0.0274174
40
0.562282
50
90.6001079
51
104.5146616
0
ARC
8
DEFAULT_255_1_388
10
13.8873804
20
0.13511
40
0.3939917
50
104.2855758
51
133.8630124
0
ARC
8
DEFAULT_255_1_388
10
13.9058056
20
0.1229243
40
0.4155734
50
134.5304124
51
161.6210222
0
ARC
8
DEFAULT_255_1_388
10
14.0917989
20
0.0573421
40
0.6127682
50
161.2850533
51
174.2074364
0
ARC
8
DEFAULT_255_1_388
10
14.2507555
20
0.0354437
40
0.7731446
50
173.7817938
51
174.9251711
0
ARC
8
DEFAULT_255_1_388
10
13.7381749
20
-0.120073
40
0.3412588
50
95.8332067
51
138.995412
0
ARC
8
DEFAULT_255_1_388
10
13.7633029
20
-0.2639305
40
0.4870358
50
89.8755506
51
97.0540979
0
ARC
8
DEFAULT_255_1_388
10
13.7686418
20
-0.1699159
40
0.3930432
50
71.6407016
51
90.6240821
0
ARC
8
DEFAULT_255_1_388
10
13.7855812
20
-0.1075567
40
0.3285421
50
39.6368051
51
71.0190743
0
ARC
8
DEFAULT_255_1_388
10
13.7139719
20
-0.1694414
40
0.4231706
50
10.6588054
51
39.9044509
0
ARC
8
DEFAULT_255_1_388
10
13.5398265
20
-0.2072777
40
0.60133
50
359.6827842
51
11.1326896
0
ARC
8
DEFAULT_255_1_388
10
13.5353601
20
-0.2152285
40
0.6058047
50
347.2485908
51
0.4371098
0
ARC
8
DEFAULT_255_1_388
10
13.7229386
20
-0.2603621
40
0.4128987
50
318.1408565
51
347.6118497
0
ARC
8
DEFAULT_255_1_388
10
13.7594983
20
-0.2904097
40
0.3656244
50
275.6342406
51
317.824739
0
ARC
8
DEFAULT_255_1_388
10
13.7346504
20
-0.1442173
40
0.513655
50
269.8872513
51
276.7916069
0
ARC
8
DEFAULT_255_1_388
10
13.7284697
20
-0.2595819
40
0.398323
50
246.9139443
51
270.7436787
0
ARC
8
DEFAULT_255_1_388
10
13.7291893
20
-0.2755956
40
0.3839368
50
218.1665534
51
245.8780431
0
ARC
8
DEFAULT_255_1_388
10
13.8281265
20
-0.1928097
40
0.5128958
50
191.4115343
51
218.6077624
0
ARC
8
DEFAULT_255_1_388
10
14.0461581
20
-0.1439223
40
0.7363054
50
179.6344971
51
191.7836758
0
ARC
8
DEFAULT_255_1_388
10
14.6741455
20
-0.0675505
40
1.3642984
50
171.4523743
51
180.3158856
0
ARC
8
DEFAULT_255_1_388
10
14.1797182
20
0.0093895
40
0.8639311
50
157.9802296
51
171.6246761
0
ARC
8
DEFAULT_255_1_388
10
13.9306533
20
0.1087038
40
0.5958004
50
141.4299236
51
157.8541251
0
ARC
8
DEFAULT_255_1_388
10
13.8584616
20
0.1597746
40
0.5075416
50
102.871586
51
140.8564533
0
ARC
8
DEFAULT_255_1_388
10
13.9313169
20
-0.1147057
40
0.7914163
50
90.377773
51
103.5868422
0
ARC
8
DEFAULT_255_1_388
10
13.735769
20
-0.1827457
40
0.2667015
50
89.8751238
51
126.2072139
0
ARC
8
DEFAULT_255_1_388
10
13.7409161
20
-0.2001153
40
0.2838229
50
124.9742447
51
144.8960197
0
ARC
8
DEFAULT_255_1_388
10
13.7211406
20
-0.1840019
40
0.2583845
50
145.2974778
51
160.2660922
0
ARC
8
DEFAULT_255_1_388
10
14.0667895
20
-0.1617849
40
0.5888695
50
179.6512124
51
190.285571
0
ARC
8
DEFAULT_255_1_388
10
13.8762374
20
-0.1977032
40
0.3949683
50
190.0944895
51
207.5099647
0
ARC
8
DEFAULT_255_1_388
10
13.8125956
20
-0.2279823
40
0.3245464
50
207.9585471
51
216.325377
0
ARC
8
DEFAULT_255_1_388
10
13.7743593
20
-0.2594288
40
0.2751259
50
215.7661336
51
232.5457193
0
ARC
8
DEFAULT_255_1_388
10
13.7312709
20
-0.3141727
40
0.2054668
50
232.8005815
51
270.6605497
0
ARC
8
DEFAULT_255_1_388
10
13.7364133
20
-0.2732147
40
0.2464268
50
269.3550767
51
288.474612
0
ARC
8
DEFAULT_255_1_388
10
13.746864
20
-0.3125279
40
0.2058436
50
289.1831976
51
322.9685307
0
ARC
8
DEFAULT_255_1_388
10
13.6780742
20
-0.2582721
40
0.2934408
50
322.6007085
51
346.5183319
0
ARC
8
DEFAULT_255_1_388
10
13.5478498
20
-0.2250566
40
0.4278249
50
346.2584622
51
358.7739592
0
ARC
8
DEFAULT_255_1_388
10
13.4327073
20
-0.2188171
40
0.5430876
50
358.3757628
51
0.0082477
0
ARC
8
DEFAULT_255_1_388
10
13.5183892
20
-0.2157144
40
0.4574157
50
359.6211417
51
11.28403
0
ARC
8
DEFAULT_255_1_388
10
13.6620498
20
-0.1857465
40
0.3106708
50
11.0483152
51
31.8145585
0
ARC
8
DEFAULT_255_1_388
10
13.6968203
20
-0.1668955
40
0.2711963
50
32.3028554
51
38.0820598
0
ARC
8
DEFAULT_255_1_388
10
13.7441436
20
-0.1240283
40
0.2075566
50
36.8249851
51
85.741667
0
ARC
8
DEFAULT_255_1_388
10
13.7365849
20
-0.1803935
40
0.2643487
50
85.0150021
51
90.050843
0
LINE
8
DEFAULT_255_1_388
10
14.7040678
20
-0.0127263
11
14.7040678
21
-0.1491645
0
LINE
8
DEFAULT_255_1_388
10
14.7040678
20
-0.1491645
11
14.2631284
21
-0.1491645
0
LINE
8
DEFAULT_255_1_388
10
14.2631284
20
-0.1491645
11
14.2631284
21
-0.0127263
0
LINE
8
DEFAULT_255_1_388
10
14.2631284
20
-0.0127263
11
14.7040678
21
-0.0127263
0
LINE
8
DEFAULT_255_1_388
10
15.904905
20
0.0586553
11
15.904905
21
-0.0244726
0
LINE
8
DEFAULT_255_1_388
10
14.846831
20
-0.0362189
11
14.846831
21
0.0586553
0
LINE
8
DEFAULT_255_1_388
10
15.7323242
20
-0.0371225
11
15.7323242
21
0.0604625
0
LINE
8
DEFAULT_255_1_388
10
15.0194118
20
0.0722088
11
15.0194118
21
-0.0244726
0
ARC
8
DEFAULT_255_1_388
10
14.9326788
20
-0.0289274
40
0.9722364
50
350.4878118
51
0.2625322
0
ARC
8
DEFAULT_255_1_388
10
15.1906748
20
-0.0733006
40
0.7104556
50
336.0277991
51
350.5787241
0
ARC
8
DEFAULT_255_1_388
10
15.3419855
20
-0.1416757
40
0.544417
50
319.887443
51
336.1331163
0
ARC
8
DEFAULT_255_1_388
10
15.4097667
20
-0.1959267
40
0.4576311
50
302.4806296
51
319.6144102
0
ARC
8
DEFAULT_255_1_388
10
15.3968288
20
-0.1709933
40
0.4856183
50
275.8196423
51
302.1885521
0
ARC
8
DEFAULT_255_1_388
10
15.378115
20
-0.0424534
40
0.6154183
50
269.9169897
51
276.339506
0
ARC
8
DEFAULT_255_1_388
10
15.373075
20
-0.119632
40
0.5382553
50
252.5221437
51
270.441579
0
ARC
8
DEFAULT_255_1_388
10
15.3569001
20
-0.1802954
40
0.4755426
50
237.5349961
51
252.1858334
0
ARC
8
DEFAULT_255_1_388
10
15.3669377
20
-0.167488
40
0.4917393
50
209.0632754
51
237.3492577
0
ARC
8
DEFAULT_255_1_388
10
15.4648703
20
-0.1059896
40
0.6072464
50
205.118533
51
209.6465345
0
ARC
8
DEFAULT_255_1_388
10
15.5544705
20
-0.0679826
40
0.7045164
50
188.7216633
51
204.8239753
0
ARC
8
DEFAULT_255_1_388
10
15.779148
20
-0.0301613
40
0.9323368
50
180.3722704
51
188.9253909
0
ARC
8
DEFAULT_255_1_388
10
15.7761042
20
0.0631416
40
0.929284
50
169.5253055
51
180.2766048
0
ARC
8
DEFAULT_255_1_388
10
15.5620841
20
0.1025024
40
0.7116745
50
155.8314601
51
169.5088611
0
ARC
8
DEFAULT_255_1_388
10
15.4180304
20
0.1693312
40
0.5528904
50
139.6259579
51
156.0379072
0
ARC
8
DEFAULT_255_1_388
10
15.3516838
20
0.2227143
40
0.4677708
50
122.6414784
51
139.3431662
0
ARC
8
DEFAULT_255_1_388
10
15.3630092
20
0.2020787
40
0.4912586
50
93.0224537
51
122.4556091
0
ARC
8
DEFAULT_255_1_388
10
15.3751613
20
0.0934776
40
0.6003837
50
89.9756766
51
93.6340839
0
ARC
8
DEFAULT_255_1_388
10
15.3795211
20
0.1383879
40
0.5554884
50
73.7463329
51
90.4234008
0
ARC
8
DEFAULT_255_1_388
10
15.3992684
20
0.2148772
40
0.4765353
50
57.663051
51
73.4516911
0
ARC
8
DEFAULT_255_1_388
10
15.3983722
20
0.2173108
40
0.4749629
50
29.1441355
51
57.4146687
0
ARC
8
DEFAULT_255_1_388
10
15.2931533
20
0.1516046
40
0.5988917
50
24.0985653
51
29.732054
0
ARC
8
DEFAULT_255_1_388
10
15.1769165
20
0.1034154
40
0.7246823
50
8.6654943
51
23.8241215
0
ARC
8
DEFAULT_255_1_388
10
14.9255583
20
0.0624037
40
0.9793537
50
359.7807044
51
8.8218476
0
ARC
8
DEFAULT_255_1_388
10
14.7965288
20
0.0652731
40
0.9358078
50
359.7054632
51
8.0359751
0
ARC
8
DEFAULT_255_1_388
10
15.1340339
20
0.1144252
40
0.5947474
50
7.8926278
51
20.2962188
0
ARC
8
DEFAULT_255_1_388
10
15.3171189
20
0.1819367
40
0.3996117
50
20.3231056
51
36.4990255
0
ARC
8
DEFAULT_255_1_388
10
15.3942487
20
0.2413399
40
0.3022818
50
36.1436715
51
85.6627846
0
ARC
8
DEFAULT_255_1_388
10
15.3759742
20
0.1243881
40
0.4203853
50
84.3845912
51
90.076054
0
ARC
8
DEFAULT_255_1_388
10
15.3712097
20
0.1986416
40
0.346157
50
89.3037228
51
109.9046209
0
ARC
8
DEFAULT_255_1_388
10
15.360793
20
0.2416379
40
0.3022217
50
110.8229774
51
143.917961
0
ARC
8
DEFAULT_255_1_388
10
15.4658289
20
0.1614455
40
0.434348
50
143.5289166
51
163.2980252
0
ARC
8
DEFAULT_255_1_388
10
15.6804576
20
0.0939685
40
0.659321
50
163.0418884
51
174.3139873
0
ARC
8
DEFAULT_255_1_388
10
15.9509541
20
0.0627378
40
0.9315905
50
174.050934
51
179.4174954
0
ARC
8
DEFAULT_255_1_388
10
15.8941485
20
-0.0291618
40
0.8747493
50
179.6928582
51
188.7908948
0
ARC
8
DEFAULT_255_1_388
10
15.5945285
20
-0.0770914
40
0.5713262
50
188.6328449
51
202.5630732
0
ARC
8
DEFAULT_255_1_388
10
15.4534122
20
-0.1337858
40
0.4192612
50
202.8078931
51
216.1195888
0
ARC
8
DEFAULT_255_1_388
10
15.3623639
20
-0.2070521
40
0.3025752
50
215.0755613
51
264.6379773
0
ARC
8
DEFAULT_255_1_388
10
15.3766476
20
-0.1135624
40
0.3970284
50
263.8464302
51
270.0830805
0
ARC
8
DEFAULT_255_1_388
10
15.3813021
20
-0.1426192
40
0.3679937
50
269.3649295
51
287.5149684
0
ARC
8
DEFAULT_255_1_388
10
15.4013462
20
-0.2154286
40
0.2925408
50
288.0629019
51
323.8115617
0
ARC
8
DEFAULT_255_1_388
10
15.3033438
20
-0.1423246
40
0.4148018
50
323.6546541
51
342.6591359
0
ARC
8
DEFAULT_255_1_388
10
15.0748096
20
-0.067972
40
0.6551163
50
342.4092446
51
353.6451501
0
ARC
8
DEFAULT_255_1_388
10
14.7562889
20
-0.0283435
40
0.9760748
50
353.4027553
51
359.4846611
0
LINE
8
DEFAULT_255_1_388
10
16.998218
20
-0.6398
11
16.8726225
21
-0.2964455
0
LINE
8
DEFAULT_255_1_388
10
16.8726225
20
-0.2964455
11
16.3214482
21
-0.2964455
0
LINE
8
DEFAULT_255_1_388
10
16.3214482
20
-0.2964455
11
16.1976599
21
-0.6398
0
LINE
8
DEFAULT_255_1_388
10
16.1976599
20
-0.6398
11
16.0187541
21
-0.6398
0
LINE
8
DEFAULT_255_1_388
10
16.0187541
20
-0.6398
11
16.5211359
21
0.6757898
0
LINE
8
DEFAULT_255_1_388
10
16.5211359
20
0.6757898
11
16.6729348
21
0.6757898
0
LINE
8
DEFAULT_255_1_388
10
16.6729348
20
0.6757898
11
17.1762202
21
-0.6398
0
LINE
8
DEFAULT_255_1_388
10
17.1762202
20
-0.6398
11
16.998218
21
-0.6398
0
LINE
8
DEFAULT_255_1_388
10
16.5970354
20
0.4616451
11
16.3738549
21
-0.1536823
0
LINE
8
DEFAULT_255_1_388
10
16.3738549
20
-0.1536823
11
16.8211193
21
-0.1536823
0
LINE
8
DEFAULT_255_1_388
10
16.8211193
20
-0.1536823
11
16.5970354
21
0.4616451
0
ARC
8
DEFAULT_255_1_388
10
17.7902982
20
0.329572
40
0.3175098
50
338.8762533
51
0.5167111
0
ARC
8
DEFAULT_255_1_388
10
17.8092576
20
0.32446
40
0.2979894
50
325.8415285
51
338.4793574
0
ARC
8
DEFAULT_255_1_388
10
17.765321
20
0.3549242
40
0.351452
50
296.7587686
51
325.7536481
0
ARC
8
DEFAULT_255_1_388
10
17.7324838
20
0.4103363
40
0.4157374
50
296.0927901
51
297.3613472
0
ARC
8
DEFAULT_255_1_388
10
17.7619033
20
-0.3279407
40
0.395855
50
47.9007294
51
67.1948823
0
ARC
8
DEFAULT_255_1_388
10
17.7839675
20
-0.3002401
40
0.360516
50
35.2363914
51
47.551141
0
ARC
8
DEFAULT_255_1_388
10
17.8134079
20
-0.2805907
40
0.3251343
50
359.2759765
51
35.4014143
0
ARC
8
DEFAULT_255_1_388
10
17.7296005
20
-0.2888213
40
0.4089365
50
343.1293083
51
0.5775513
0
ARC
8
DEFAULT_255_1_388
10
17.8111119
20
-0.3112664
40
0.3244269
50
310.8496669
51
342.7449331
0
ARC
8
DEFAULT_255_1_388
10
17.7640993
20
-0.2576087
40
0.3957651
50
281.5472888
51
310.9170406
0
ARC
8
DEFAULT_255_1_388
10
17.7239868
20
-0.0829186
40
0.5749654
50
269.619248
51
281.9789564
0
ARC
8
DEFAULT_255_1_388
10
17.7158646
20
-0.0828224
40
0.5750649
50
257.4585678
51
270.4285689
0
ARC
8
DEFAULT_255_1_388
10
17.6730166
20
-0.2632259
40
0.389671
50
228.7554326
51
257.8484789
0
ARC
8
DEFAULT_255_1_388
10
17.6381651
20
-0.3051772
40
0.335154
50
184.0104975
51
228.5071184
0
ARC
8
DEFAULT_255_1_388
10
17.7690044
20
-0.285257
40
0.4671891
50
179.9315832
51
185.3253753
0
ARC
8
DEFAULT_255_1_388
10
17.6366556
20
-0.2810408
40
0.33486
50
145.6796023
51
180.6259786
0
ARC
8
DEFAULT_255_1_388
10
17.6550322
20
-0.2938729
40
0.3572723
50
115.5537685
51
145.6415986
0
ARC
8
DEFAULT_255_1_388
10
17.6933366
20
-0.3624913
40
0.4357296
50
113.243307
51
116.2057839
0
ARC
8
DEFAULT_255_1_388
10
17.6762018
20
0.3572379
40
0.3549126
50
222.9549744
51
244.1370481
0
ARC
8
DEFAULT_255_1_388
10
17.6624661
20
0.3418378
40
0.3343711
50
213.3436887
51
222.6274467
0
ARC
8
DEFAULT_255_1_388
10
17.640873
20
0.3271653
40
0.3082678
50
180.431584
51
213.271499
0
ARC
8
DEFAULT_255_1_388
10
17.7043729
20
0.3324296
40
0.3718363
50
179.9991191
51
181.1690594
0
ARC
8
DEFAULT_255_1_388
10
17.7516185
20
0.3363072
40
0.4190996
50
164.6186169
51
180.529336
0
ARC
8
DEFAULT_255_1_388
10
17.6505834
20
0.363478
40
0.3144772
50
132.2455553
51
164.5090724
0
ARC
8
DEFAULT_255_1_388
10
17.6828813
20
0.326907
40
0.3632644
50
100.7053914
51
132.1386381
0
ARC
8
DEFAULT_255_1_388
10
17.7171874
20
0.1719118
40
0.5219578
50
89.6730358
51
101.2451698
0
ARC
8
DEFAULT_255_1_388
10
17.7241865
20
0.1915648
40
0.5023124
50
76.287748
51
90.4586006
0
ARC
8
DEFAULT_255_1_388
10
17.7586367
20
0.3290671
40
0.3605639
50
47.8240511
51
76.4266241
0
ARC
8
DEFAULT_255_1_388
10
17.7836751
20
0.3583599
40
0.3220463
50
6.9168387
51
47.6262497
0
ARC
8
DEFAULT_255_1_388
10
17.6502204
20
0.3337004
40
0.4575765
50
359.8415968
51
7.9697453
0
ARC
8
DEFAULT_255_1_388
10
17.6886474
20
-0.2783481
40
0.2827228
50
359.445363
51
16.9256873
0
ARC
8
DEFAULT_255_1_388
10
17.7413908
20
-0.2638219
40
0.2280396
50
17.2920767
51
45.4630727
0
ARC
8
DEFAULT_255_1_388
10
17.7353043
20
-0.2690676
40
0.2360485
50
45.30305
51
83.1920945
0
ARC
8
DEFAULT_255_1_388
10
17.7191788
20
-0.3592527
40
0.3275527
50
82.2612665
51
90.1434275
0
ARC
8
DEFAULT_255_1_388
10
17.7157064
20
-0.3330131
40
0.3013237
50
89.4956434
51
104.8580688
0
ARC
8
DEFAULT_255_1_388
10
17.6958254
20
-0.2576545
40
0.2233867
50
104.8856641
51
135.244616
0
ARC
8
DEFAULT_255_1_388
10
17.7014243
20
-0.2626648
40
0.2308906
50
135.3399546
51
172.1044062
0
ARC
8
DEFAULT_255_1_388
10
17.7921768
20
-0.2800333
40
0.3232034
50
171.2645637
51
180.186429
0
ARC
8
DEFAULT_255_1_388
10
17.7731772
20
-0.2836574
40
0.304213
50
179.5154935
51
193.6464289
0
ARC
8
DEFAULT_255_1_388
10
17.6813448
20
-0.3070527
40
0.209456
50
193.3540274
51
225.8258581
0
ARC
8
DEFAULT_255_1_388
10
17.685932
20
-0.2990924
40
0.2183738
50
226.4180634
51
255.8552336
0
ARC
8
DEFAULT_255_1_388
10
17.7147787
20
-0.1937479
40
0.3275812
50
255.4654104
51
268.7987425
0
ARC
8
DEFAULT_255_1_388
10
17.7200963
20
-0.0995455
40
0.4218877
50
268.3449238
51
270.0094605
0
ARC
8
DEFAULT_255_1_388
10
17.7227196
20
-0.1763906
40
0.3450519
50
269.5759586
51
282.0820163
0
ARC
8
DEFAULT_255_1_388
10
17.7480233
20
-0.2882637
40
0.2303642
50
281.752014
51
306.6056188
0
ARC
8
DEFAULT_255_1_388
10
17.7591041
20
-0.3064198
40
0.2091906
50
307.1346085
51
314.027845
0
ARC
8
DEFAULT_255_1_388
10
17.7550553
20
-0.3034541
40
0.2141385
50
314.2552483
51
350.1694025
0
ARC
8
DEFAULT_255_1_388
10
17.659279
20
-0.2826825
40
0.312082
50
349.4140529
51
0.2933014
0
ARC
8
DEFAULT_255_1_388
10
17.7178067
20
0.2976924
40
0.2588377
50
89.477747
51
105.729729
0
ARC
8
DEFAULT_255_1_388
10
17.7024987
20
0.3545367
40
0.1999733
50
105.9233417
51
135.1660906
0
ARC
8
DEFAULT_255_1_388
10
17.7048018
20
0.3529412
40
0.2027322
50
135.3052302
51
168.9883645
0
ARC
8
DEFAULT_255_1_388
10
17.7979034
20
0.3315996
40
0.2982129
50
168.3801673
51
180.3602268
0
ARC
8
DEFAULT_255_1_388
10
17.7722151
20
0.3273622
40
0.2725291
50
179.5033122
51
194.9125571
0
ARC
8
DEFAULT_255_1_388
10
17.7063558
20
0.3100427
40
0.204431
50
194.9720816
51
224.194444
0
ARC
8
DEFAULT_255_1_388
10
17.7031923
20
0.3074635
40
0.2003651
50
224.2962453
51
262.015664
0
ARC
8
DEFAULT_255_1_388
10
17.7191927
20
0.3897315
40
0.2840925
50
261.1245923
51
270.1962896
0
ARC
8
DEFAULT_255_1_388
10
17.7225408
20
0.3686859
40
0.2630559
50
269.4827276
51
285.0987215
0
ARC
8
DEFAULT_255_1_388
10
17.7398845
20
0.3036175
40
0.1957162
50
285.1585357
51
315.9484501
0
ARC
8
DEFAULT_255_1_388
10
17.7298718
20
0.3128315
40
0.2093195
50
316.0413965
51
351.916092
0
ARC
8
DEFAULT_255_1_388
10
17.6474092
20
0.3287323
40
0.2932279
50
351.105835
51
0.1939062
0
ARC
8
DEFAULT_255_1_388
10
17.6769727
20
0.3321224
40
0.2636739
50
359.4789618
51
16.0678224
0
ARC
8
DEFAULT_255_1_388
10
17.7305198
20
0.3465721
40
0.2082215
50
16.3252067
51
44.7913869
0
ARC
8
DEFAULT_255_1_388
10
17.7285261
20
0.346632
40
0.2095992
50
44.3957814
51
88.2499162
0
ARC
8
DEFAULT_255_1_388
10
17.7202595
20
0.2778006
40
0.2787189
50
86.9833854
51
90.0192215
0
LINE
8
DEFAULT_255_2_778
10
11.0359937
20
72.8056525
11
10.9838937
21
73.1429525
0
LINE
8
DEFAULT_255_2_778
10
10.9838937
20
73.1429525
11
10.4068937
21
73.1429525
0
LINE
8
DEFAULT_255_2_778
10
10.4068937
20
73.1429525
11
10.2364937
21
72.8056525
0
LINE
8
DEFAULT_255_2_778
10
10.2364937
20
72.8056525
11
9.8694937
21
72.8056525
0
LINE
8
DEFAULT_255_2_778
10
9.8694937
20
72.8056525
11
10.7531937
21
74.4431525
0
LINE
8
DEFAULT_255_2_778
10
10.7531937
20
74.4431525
11
11.0608937
21
74.4431525
0
LINE
8
DEFAULT_255_2_778
10
11.0608937
20
74.4431525
11
11.3754937
21
72.8056525
0
LINE
8
DEFAULT_255_2_778
10
11.3754937
20
72.8056525
11
11.0357937
21
72.8056525
0
LINE
8
DEFAULT_255_2_778
10
11.0357937
20
72.8056525
11
11.0359937
21
72.8056525
0
LINE
8
DEFAULT_255_2_778
10
10.8486937
20
74.0259525
11
10.5430937
21
73.4163525
0
LINE
8
DEFAULT_255_2_778
10
10.5430937
20
73.4163525
11
10.9418937
21
73.4163525
0
LINE
8
DEFAULT_255_2_778
10
10.9418937
20
73.4163525
11
10.8486937
21
74.0259525
0
LINE
8
DEFAULT_255_2_778
10
10.8486937
20
74.0259525
11
10.8486937
21
74.0259525
0
LINE
8
DEFAULT_255_2_778
10
12.1615563
20
74.5331644
11
11.8593563
21
72.8054644
0
LINE
8
DEFAULT_255_2_778
10
11.8593563
20
72.8054644
11
11.5368563
21
72.8054644
0
LINE
8
DEFAULT_255_2_778
10
11.5368563
20
72.8054644
11
11.8400563
21
74.5331644
0
LINE
8
DEFAULT_255_2_778
10
11.8400563
20
74.5331644
11
12.1615563
21
74.5331644
0
LINE
8
DEFAULT_255_2_778
10
12.1615563
20
74.5331644
11
12.1615563
21
74.5331644
0
LINE
8
DEFAULT_255_2_778
10
12.7717604
20
74.5331644
11
12.4695604
21
72.8054644
0
LINE
8
DEFAULT_255_2_778
10
12.4695604
20
72.8054644
11
12.1470604
21
72.8054644
0
LINE
8
DEFAULT_255_2_778
10
12.1470604
20
72.8054644
11
12.4502604
21
74.5331644
0
LINE
8
DEFAULT_255_2_778
10
12.4502604
20
74.5331644
11
12.7717604
21
74.5331644
0
LINE
8
DEFAULT_255_2_778
10
12.7717604
20
74.5331644
11
12.7717604
21
74.5331644
0
ARC
8
DEFAULT_255_2_778
10
13.3179366
20
73.3207548
40
0.5378315
50
238.7482666
51
270.7109536
0
ARC
8
DEFAULT_255_2_778
10
13.286767
20
73.2659517
40
0.4748131
50
204.061185
51
238.5328679
0
ARC
8
DEFAULT_255_2_778
10
13.3692148
20
73.305498
40
0.5662261
50
179.4927176
51
204.3136716
0
ARC
8
DEFAULT_255_2_778
10
13.4925723
20
73.3100071
40
0.6895616
50
175.1202382
51
179.9581224
0
ARC
8
DEFAULT_255_2_778
10
13.5850524
20
73.3450148
40
0.7790728
50
149.5392097
51
174.9446897
0
ARC
8
DEFAULT_255_2_778
10
13.4591885
20
73.4285209
40
0.628301
50
120.7003982
51
150.2846053
0
ARC
8
DEFAULT_255_2_778
10
13.4196896
20
73.488202
40
0.556829
50
89.4236852
51
120.3409826
0
ARC
8
DEFAULT_255_2_778
10
13.4252397
20
73.3894668
40
0.6555361
50
88.4553682
51
89.9955718
0
ARC
8
DEFAULT_255_2_778
10
13.4483886
20
73.5751663
40
0.4696303
50
58.00918
51
90.668398
0
ARC
8
DEFAULT_255_2_778
10
13.4737532
20
73.6362648
40
0.4045188
50
35.6383534
51
56.4712999
0
ARC
8
DEFAULT_255_2_778
10
13.3641928
20
73.5632054
40
0.5361477
50
0.6851965
51
35.1616077
0
ARC
8
DEFAULT_255_2_778
10
13.1616358
20
73.5428226
40
0.7391521
50
359.9888194
51
2.0774415
0
ARC
8
DEFAULT_255_2_778
10
13.048007
20
73.5445245
40
0.852783
50
353.383538
51
359.8759623
0
ARC
8
DEFAULT_255_2_778
10
13.5342255
20
73.2921115
40
0.4107176
50
177.8018731
51
179.9839782
0
ARC
8
DEFAULT_255_2_778
10
13.3756263
20
73.2806236
40
0.2523852
50
177.3650374
51
219.8309448
0
ARC
8
DEFAULT_255_2_778
10
13.3462113
20
73.2673398
40
0.2214564
50
222.0668323
51
271.55222
0
ARC
8
DEFAULT_255_2_778
10
13.3632047
20
73.4721286
40
0.4263057
50
268.5221572
51
269.9980687
0
ARC
8
DEFAULT_255_2_778
10
13.3616046
20
73.4425214
40
0.3967017
50
270.2290309
51
318.5203973
0
ARC
8
DEFAULT_255_2_778
10
13.4309183
20
73.2593033
40
0.4555793
50
292.5203086
51
325.2867508
0
ARC
8
DEFAULT_255_2_778
10
13.3411537
20
73.4385291
40
0.6556743
50
269.6199197
51
293.7677355
0
ARC
8
DEFAULT_255_2_778
10
13.3368073
20
73.5247425
40
0.7418734
50
269.0811318
51
269.9997688
0
ARC
8
DEFAULT_255_2_778
10
13.4205293
20
73.517692
40
0.2651471
50
88.6426469
51
89.9972013
0
ARC
8
DEFAULT_255_2_778
10
13.4187438
20
73.5526017
40
0.2302444
50
89.5524386
51
130.4678957
0
ARC
8
DEFAULT_255_2_778
10
13.5177956
20
73.4527549
40
0.3706419
50
132.099436
51
154.4479603
0
ARC
8
DEFAULT_255_2_778
10
13.9202814
20
73.2346946
40
0.8281414
50
152.8476017
51
159.2006434
0
ARC
8
DEFAULT_255_2_778
10
13.2837195
20
73.6062265
40
0.3137404
50
351.1327381
51
359.8552777
0
ARC
8
DEFAULT_255_2_778
10
13.3301789
20
73.605827
40
0.2672803
50
359.9157472
51
8.073482
0
ARC
8
DEFAULT_255_2_778
10
13.4328771
20
73.6211273
40
0.1634528
50
7.8192239
51
49.4174523
0
ARC
8
DEFAULT_255_2_778
10
13.4309381
20
73.6079374
40
0.174876
50
51.746929
51
91.3525911
0
LINE
8
DEFAULT_255_2_778
10
12.8055101
20
73.3686647
11
12.8090101
21
73.4136647
0
LINE
8
DEFAULT_255_2_778
10
13.8951101
20
73.4462647
11
13.8768101
21
73.3078647
0
LINE
8
DEFAULT_255_2_778
10
13.8768101
20
73.3078647
11
13.1238101
21
73.3078647
0
LINE
8
DEFAULT_255_2_778
10
13.6588101
20
73.1797647
11
13.8054101
21
72.9998647
0
LINE
8
DEFAULT_255_2_778
10
13.3249101
20
72.7829647
11
13.3246101
21
72.7829647
0
LINE
8
DEFAULT_255_2_778
10
13.1461101
20
73.5287647
11
13.5868101
21
73.5287647
0
LINE
8
DEFAULT_255_2_778
10
13.5868101
20
73.5287647
11
13.5937101
21
73.5578647
0
LINE
8
DEFAULT_255_2_778
10
13.4268101
20
73.7827647
11
13.4268101
21
73.7827647
0
ARC
8
DEFAULT_255_2_778
10
14.7973639
20
73.6013787
40
0.4439397
50
89.8554796
51
141.1589213
0
ARC
8
DEFAULT_255_2_778
10
14.7984623
20
73.5404434
40
0.5048737
50
88.7717605
51
89.9975792
0
ARC
8
DEFAULT_255_2_778
10
14.8177986
20
73.7293073
40
0.3160085
50
50.4886222
51
91.5439082
0
ARC
8
DEFAULT_255_2_778
10
14.8336497
20
73.7633334
40
0.279831
50
33.8736836
51
48.5596173
0
ARC
8
DEFAULT_255_2_778
10
14.7319901
20
73.7048291
40
0.3969262
50
4.3932888
51
32.7062485
0
ARC
8
DEFAULT_255_2_778
10
14.4819116
20
73.6694305
40
0.6491822
50
359.8769204
51
5.8177478
0
ARC
8
DEFAULT_255_2_778
10
14.2701855
20
73.6703886
40
0.8609097
50
353.9399056
51
359.8434284
0
ARC
8
DEFAULT_255_2_778
10
14.4164098
20
73.6360971
40
0.3954956
50
352.2407688
51
359.7520116
0
ARC
8
DEFAULT_255_2_778
10
14.5202048
20
73.6349046
40
0.2916973
50
359.8980094
51
5.448398
0
ARC
8
DEFAULT_255_2_778
10
14.6813818
20
73.6519921
40
0.1296374
50
4.6940531
51
97.2220795
0
ARC
8
DEFAULT_255_2_778
10
14.6560011
20
73.5263535
40
0.2544097
50
87.9539208
51
89.9945997
0
ARC
8
DEFAULT_255_2_778
10
14.6629498
20
73.5107672
40
0.2700847
50
91.4691634
51
141.078713
0
ARC
8
DEFAULT_255_2_778
10
14.7966427
20
73.3689305
40
0.4639576
50
137.8219849
51
140.394746
0
ARC
8
DEFAULT_255_2_778
10
16.9661212
20
73.4157114
40
1.026426
50
77.5141066
51
90.4821212
0
ARC
8
DEFAULT_255_2_778
10
17.0845849
20
73.9249615
40
0.5036389
50
52.814306
51
78.1469212
0
ARC
8
DEFAULT_255_2_778
10
17.1732296
20
74.0532442
40
0.3479303
50
357.5432245
51
51.6759047
0
ARC
8
DEFAULT_255_2_778
10
16.9814664
20
74.0386942
40
0.5393738
50
356.248244
51
359.9613012
0
ARC
8
DEFAULT_255_2_778
10
17.1280971
20
74.0260887
40
0.3922439
50
295.0867564
51
356.6841236
0
ARC
8
DEFAULT_255_2_778
10
16.9599205
20
74.2888283
40
0.7026958
50
292.6018649
51
298.4245718
0
ARC
8
DEFAULT_255_2_778
10
17.1412886
20
73.3761754
40
0.2784307
50
29.5992916
51
71.4243751
0
ARC
8
DEFAULT_255_2_778
10
17.068627
20
73.3339732
40
0.3624559
50
358.8250622
51
29.7265593
0
ARC
8
DEFAULT_255_2_778
10
16.9320761
20
73.3268266
40
0.4989307
50
356.3312443
51
359.9671937
0
ARC
8
DEFAULT_255_2_778
10
16.9581976
20
73.3080391
40
0.4719696
50
307.6792206
51
358.4048608
0
ARC
8
DEFAULT_255_2_778
10
16.8807091
20
73.4289032
40
0.6151191
50
279.1036857
51
306.5102495
0
ARC
8
DEFAULT_255_2_778
10
16.7960556
20
73.8515075
40
1.0459276
50
269.6345468
51
280.0197549
0
ARC
8
DEFAULT_255_2_778
10
16.8094263
20
73.4160312
40
0.3407431
50
267.9747348
51
304.6141501
0
ARC
8
DEFAULT_255_2_778
10
16.8659337
20
73.3300876
40
0.2379242
50
305.1715522
51
352.2494421
0
ARC
8
DEFAULT_255_2_778
10
16.7753078
20
73.3505764
40
0.3305841
50
350.8489355
51
359.6877324
0
ARC
8
DEFAULT_255_2_778
10
16.9353204
20
73.3562566
40
0.1707306
50
357.4883473
51
35.7479989
0
ARC
8
DEFAULT_255_2_778
10
16.9423523
20
73.3421967
40
0.1739313
50
40.8670445
51
88.9145542
0
ARC
8
DEFAULT_255_2_778
10
16.9113408
20
73.1569796
40
0.360752
50
84.5431107
51
87.5464559
0
ARC
8
DEFAULT_255_2_778
10
16.8864574
20
74.1290692
40
0.3741259
50
268.9933192
51
299.9063201
0
ARC
8
DEFAULT_255_2_778
10
16.9296486
20
74.0362442
40
0.2722705
50
301.7671328
51
305.0688299
0
ARC
8
DEFAULT_255_2_778
10
16.9572454
20
74.0001467
40
0.2268776
50
304.6024496
51
352.3134516
0
ARC
8
DEFAULT_255_2_778
10
16.9035259
20
74.0108326
40
0.2815642
50
351.6205962
51
359.745937
0
ARC
8
DEFAULT_255_2_778
10
17.0391826
20
74.0169088
40
0.1460884
50
357.1260689
51
87.9509322
0
ARC
8
DEFAULT_255_2_778
10
16.9733217
20
73.7375682
40
0.4312349
50
80.5121161
51
90.1776895
0
ARC
8
DEFAULT_255_2_778
10
18.3042143
20
73.0643008
40
0.664871
50
79.3415907
51
88.7012121
0
ARC
8
DEFAULT_255_2_778
10
18.3079734
20
73.2991844
40
0.4299655
50
88.4925657
51
89.9946723
0
ARC
8
DEFAULT_255_2_778
10
18.2982489
20
73.4192612
40
0.3100425
50
88.1952228
51
143.885382
0
ARC
8
DEFAULT_255_2_778
10
18.4077856
20
73.6642133
40
0.3980768
50
117.0828142
51
147.9763761
0
ARC
8
DEFAULT_255_2_778
10
18.3544798
20
73.7475299
40
0.2997784
50
89.5977622
51
115.2613452
0
ARC
8
DEFAULT_255_2_778
10
18.3464672
20
73.5753486
40
0.4720608
50
75.0830674
51
88.7719532
0
ARC
8
DEFAULT_255_2_778
10
19.3903609
20
72.8931147
40
0.3055376
50
178.9459886
51
196.683202
0
ARC
8
DEFAULT_255_2_778
10
19.5598443
20
72.8985591
40
0.4749693
50
177.9317115
51
179.9787783
0
ARC
8
DEFAULT_255_2_778
10
18.7787767
20
73.2022759
40
0.4195364
50
270.5424502
51
316.9155886
0
ARC
8
DEFAULT_255_2_778
10
18.7827754
20
73.2129313
40
0.4301731
50
268.5225954
51
269.9964357
0
ARC
8
DEFAULT_255_2_778
10
18.7647268
20
73.1610257
40
0.3781887
50
226.455184
51
271.0541416
0
ARC
8
DEFAULT_255_2_778
10
18.7161212
20
73.1156874
40
0.311866
50
179.0506747
51
227.1894377
0
ARC
8
DEFAULT_255_2_778
10
18.7977057
20
73.1207687
40
0.3934079
50
177.4603384
51
179.9875271
0
ARC
8
DEFAULT_255_2_778
10
18.7677273
20
73.1367897
40
0.3630457
50
122.3464314
51
179.7772632
0
ARC
8
DEFAULT_255_2_778
10
18.9127985
20
72.9096954
40
0.6325207
50
98.6998081
51
122.4421258
0
ARC
8
DEFAULT_255_2_778
10
18.9976189
20
72.4553298
40
1.0945926
50
89.6406316
51
99.4911935
0
ARC
8
DEFAULT_255_2_778
10
18.9114251
20
73.6699564
40
0.2635833
50
349.2520325
51
359.7979352
0
ARC
8
DEFAULT_255_2_778
10
18.9485947
20
73.669184
40
0.2264121
50
359.9602232
51
5.7075699
0
ARC
8
DEFAULT_255_2_778
10
19.0522609
20
73.6835913
40
0.1218935
50
3.8147671
51
48.088014
0
ARC
8
DEFAULT_255_2_778
10
19.046106
20
73.6659033
40
0.1393558
50
51.0640414
51
91.6537281
0
ARC
8
DEFAULT_255_2_778
10
19.0343915
20
73.531786
40
0.2735232
50
88.3883484
51
89.9950272
0
ARC
8
DEFAULT_255_2_778
10
19.0289523
20
73.6097
40
0.1956856
50
88.4002709
51
125.6558116
0
ARC
8
DEFAULT_255_2_778
10
19.0229528
20
73.6279871
40
0.1774238
50
127.5242925
51
170.6536699
0
ARC
8
DEFAULT_255_2_778
10
18.8791361
20
73.6415349
40
0.3530361
50
122.7052892
51
177.7003103
0
ARC
8
DEFAULT_255_2_778
10
19.0302031
20
73.4367048
40
0.6072396
50
91.7146868
51
124.2570002
0
ARC
8
DEFAULT_255_2_778
10
19.0589351
20
73.1798069
40
0.865138
50
89.9735854
51
93.1077226
0
ARC
8
DEFAULT_255_2_778
10
19.0592989
20
73.1232564
40
0.9216883
50
89.4414218
51
89.9978259
0
ARC
8
DEFAULT_255_2_778
10
19.0704754
20
73.5243386
40
0.520567
50
63.7067915
51
90.2411542
0
ARC
8
DEFAULT_255_2_778
10
19.1246011
20
73.6526174
40
0.3816745
50
44.83019
51
62.4611334
0
ARC
8
DEFAULT_255_2_778
10
19.1508951
20
73.6768715
40
0.3459301
50
358.4425916
51
45.0515508
0
ARC
8
DEFAULT_255_2_778
10
18.9988338
20
73.6682105
40
0.4978641
50
354.0152108
51
359.914738
0
ARC
8
DEFAULT_255_2_778
10
19.9163891
20
72.945901
40
0.5223437
50
178.2666392
51
179.9853875
0
ARC
8
DEFAULT_255_2_778
10
19.7189775
20
72.9380639
40
0.3250299
50
178.5948625
51
200.018038
0
ARC
8
DEFAULT_255_2_778
10
18.86078
20
73.3269839
40
0.2979407
50
268.1351457
51
269.9967975
0
ARC
8
DEFAULT_255_2_778
10
18.8555194
20
73.3244813
40
0.2954847
50
271.0168715
51
323.4470831
0
ARC
8
DEFAULT_255_2_778
10
19.0184895
20
72.9648385
40
0.3950717
50
89.6091673
51
115.9612033
0
ARC
8
DEFAULT_255_2_778
10
18.9565919
20
73.1063998
40
0.2407817
50
117.464938
51
142.4931944
0
ARC
8
DEFAULT_255_2_778
10
18.9147945
20
73.1429767
40
0.1853888
50
143.595728
51
174.110017
0
ARC
8
DEFAULT_255_2_778
10
18.8922762
20
73.1374249
40
0.1637466
50
171.368069
51
179.7835889
0
ARC
8
DEFAULT_255_2_778
10
18.8267258
20
73.1343092
40
0.098266
50
177.8221965
51
224.0379617
0
ARC
8
DEFAULT_255_2_778
10
18.8464627
20
73.1593521
40
0.1299333
50
225.9269812
51
272.0384171
0
ARC
8
DEFAULT_255_2_778
10
20.2168963
20
73.6943026
40
0.3516987
50
37.8288211
51
89.9204906
0
ARC
8
DEFAULT_255_2_778
10
20.03468
20
73.2042422
40
0.4267183
50
285.291584
51
321.0175046
0
ARC
8
DEFAULT_255_2_778
10
20.057072
20
73.1580229
40
0.3763475
50
269.8450062
51
283.8588709
0
ARC
8
DEFAULT_255_2_778
10
20.0560638
20
73.190729
40
0.4090522
50
268.5880369
51
269.9986183
0
ARC
8
DEFAULT_255_2_778
10
20.0420356
20
73.1375491
40
0.3557701
50
236.3475668
51
270.6359501
0
ARC
8
DEFAULT_255_2_778
10
20.0598192
20
73.1490325
40
0.3752788
50
201.8435891
51
235.058908
0
ARC
8
DEFAULT_255_2_778
10
20.3322262
20
73.2680876
40
0.6724873
50
181.1917384
51
202.6233367
0
ARC
8
DEFAULT_255_2_778
10
20.6256166
20
73.3006758
40
0.9668546
50
180.0152485
51
182.7610867
0
ARC
8
DEFAULT_255_2_778
10
20.5386208
20
73.3013256
40
0.8798592
50
174.1240635
51
180.0590752
0
ARC
8
DEFAULT_255_2_778
10
20.6346089
20
73.3146473
40
0.9727968
50
152.6606942
51
172.4775279
0
ARC
8
DEFAULT_255_2_778
10
20.4685426
20
73.3891273
40
0.7911386
50
151.1967159
51
151.9287309
0
ARC
8
DEFAULT_255_2_778
10
20.2724467
20
73.5131661
40
0.559722
50
125.8155177
51
152.6517649
0
ARC
8
DEFAULT_255_2_778
10
20.1926915
20
73.6076793
40
0.4365104
50
121.2895022
51
124.5859333
0
ARC
8
DEFAULT_255_2_778
10
20.2005225
20
73.5933259
40
0.4528439
50
89.3885498
51
121.1930117
0
ARC
8
DEFAULT_255_2_778
10
20.2053201
20
73.5115497
40
0.5345942
50
88.6747242
51
89.9962477
0
ARC
8
DEFAULT_255_2_778
10
21.0391911
20
73.273566
40
1.0611693
50
173.6245819
51
179.5659998
0
ARC
8
DEFAULT_255_2_778
10
20.5670945
20
73.2806411
40
0.5890432
50
179.9063318
51
183.2252116
0
ARC
8
DEFAULT_255_2_778
10
20.2705391
20
73.2521495
40
0.2915917
50
180.9134286
51
207.6247443
0
ARC
8
DEFAULT_255_2_778
10
20.1350101
20
73.1877886
40
0.1417894
50
209.9763709
51
272.172214
0
ARC
8
DEFAULT_255_2_778
10
20.1512133
20
73.3115388
40
0.2656585
50
267.6638236
51
269.9934853
0
ARC
8
DEFAULT_255_2_778
10
20.145272
20
73.3153966
40
0.2695812
50
271.2564257
51
323.4819236
0
ARC
8
DEFAULT_255_2_778
10
20.0042494
20
73.4542429
40
0.4663623
50
320.0808185
51
322.7722781
0
ARC
8
DEFAULT_255_2_778
10
20.2906006
20
73.6005943
40
0.1811681
50
17.7085133
51
91.4917236
0
ARC
8
DEFAULT_255_2_778
10
20.2776517
20
73.4998306
40
0.2819906
50
88.3270304
51
89.9962875
0
ARC
8
DEFAULT_255_2_778
10
20.275189
20
73.547989
40
0.2338453
50
89.3920923
51
141.8934507
0
ARC
8
DEFAULT_255_2_778
10
20.4150423
20
73.4383728
40
0.411538
50
141.9009784
51
164.0634131
0
ARC
8
DEFAULT_255_2_778
10
20.9401665
20
73.2706389
40
0.9626867
50
163.0454941
51
172.7936709
0
LINE
8
DEFAULT_255_2_778
10
14.1790844
20
74.022701
11
14.4788844
21
74.023801
0
LINE
8
DEFAULT_255_2_778
10
14.4788844
20
74.023801
11
14.4515844
21
73.879801
0
LINE
8
DEFAULT_255_2_778
10
15.1262844
20
73.579501
11
14.9968844
21
72.805601
0
LINE
8
DEFAULT_255_2_778
10
14.9968844
20
72.805601
11
14.6764844
21
72.805601
0
LINE
8
DEFAULT_255_2_778
10
14.6764844
20
72.805601
11
14.8082844
21
73.582701
0
LINE
8
DEFAULT_255_2_778
10
14.4391844
20
73.664701
11
14.2856844
21
72.805401
0
LINE
8
DEFAULT_255_2_778
10
14.2856844
20
72.805401
11
13.9652844
21
72.805401
0
LINE
8
DEFAULT_255_2_778
10
13.9652844
20
72.805401
11
14.1787844
21
74.022501
0
LINE
8
DEFAULT_255_2_778
10
14.1787844
20
74.022501
11
14.1790844
21
74.022701
0
LINE
8
DEFAULT_255_2_778
10
16.0157844
20
73.637701
11
15.9691844
21
73.375801
0
LINE
8
DEFAULT_255_2_778
10
15.9691844
20
73.375801
11
15.3466844
21
73.375801
0
LINE
8
DEFAULT_255_2_778
10
15.3466844
20
73.375801
11
15.3921844
21
73.637701
0
LINE
8
DEFAULT_255_2_778
10
15.3921844
20
73.637701
11
16.0157844
21
73.637701
0
LINE
8
DEFAULT_255_2_778
10
16.0157844
20
73.637701
11
16.0157844
21
73.637701
0
LINE
8
DEFAULT_255_2_778
10
16.7893844
20
72.805601
11
16.1544844
21
72.805601
0
LINE
8
DEFAULT_255_2_778
10
16.1544844
20
72.805601
11
16.4417844
21
74.443101
0
LINE
8
DEFAULT_255_2_778
10
16.4417844
20
74.443101
11
16.9574844
21
74.442101
0
LINE
8
DEFAULT_255_2_778
10
16.7893844
20
72.805601
11
16.7893844
21
72.805601
0
LINE
8
DEFAULT_255_2_778
10
16.9267844
20
73.517601
11
16.6131844
21
73.518701
0
LINE
8
DEFAULT_255_2_778
10
16.6131844
20
73.518701
11
16.5348844
21
73.076601
0
LINE
8
DEFAULT_255_2_778
10
16.5348844
20
73.076601
11
16.7973844
21
73.075501
0
LINE
8
DEFAULT_255_2_778
10
16.9267844
20
73.517401
11
16.9267844
21
73.517601
0
LINE
8
DEFAULT_255_2_778
10
16.7266844
20
74.170101
11
16.6539844
21
73.757301
0
LINE
8
DEFAULT_255_2_778
10
16.6539844
20
73.757301
11
16.8798844
21
73.755001
0
LINE
8
DEFAULT_255_2_778
10
16.9719844
20
74.168801
11
16.7266844
21
74.169801
0
LINE
8
DEFAULT_255_2_778
10
16.7266844
20
74.169801
11
16.7266844
21
74.170101
0
LINE
8
DEFAULT_255_2_778
10
18.4681844
20
74.031501
11
18.4271844
21
73.717701
0
LINE
8
DEFAULT_255_2_778
10
18.0477844
20
73.602001
11
17.9056844
21
72.805601
0
LINE
8
DEFAULT_255_2_778
10
17.9056844
20
72.805601
11
17.5852844
21
72.805601
0
LINE
8
DEFAULT_255_2_778
10
17.5852844
20
72.805601
11
17.7987844
21
74.022701
0
LINE
8
DEFAULT_255_2_778
10
17.7987844
20
74.022701
11
18.0998844
21
74.023801
0
LINE
8
DEFAULT_255_2_778
10
18.0998844
20
74.023801
11
18.0702844
21
73.875301
0
LINE
8
DEFAULT_255_2_778
10
18.4679844
20
74.031501
11
18.4681844
21
74.031501
0
LINE
8
DEFAULT_255_2_778
10
19.4122844
20
72.805401
11
19.0976844
21
72.805401
0
LINE
8
DEFAULT_255_2_778
10
19.0044844
20
73.549901
11
19.1545844
21
73.547801
0
LINE
8
DEFAULT_255_2_778
10
19.1545844
20
73.547801
11
19.1703844
21
73.620801
0
LINE
8
DEFAULT_255_2_778
10
18.8478844
20
73.656801
11
18.5263844
21
73.655701
0
LINE
8
DEFAULT_255_2_778
10
19.4939844
20
73.616301
11
19.3997844
21
73.033701
0
LINE
8
DEFAULT_255_2_778
10
19.3997844
20
73.033701
11
19.3942844
21
72.961701
0
LINE
8
DEFAULT_255_2_778
10
19.4135844
20
72.826801
11
19.4124844
21
72.805401
0
LINE
8
DEFAULT_255_2_778
10
19.4124844
20
72.805401
11
19.4122844
21
72.805401
0
LINE
8
DEFAULT_255_2_778
10
19.0928844
20
73.148501
11
19.1325844
21
73.358901
0
LINE
8
DEFAULT_255_2_778
10
19.1325844
20
73.358901
11
19.0211844
21
73.359901
0
LINE
8
DEFAULT_255_2_778
10
18.8510844
20
73.029501
11
18.8510844
21
73.029201
0
LINE
8
DEFAULT_255_2_778
10
20.4946844
20
73.910001
11
20.6150844
21
74.533101
0
LINE
8
DEFAULT_255_2_778
10
20.6150844
20
74.533101
11
20.9364844
21
74.533101
0
LINE
8
DEFAULT_255_2_778
10
20.9364844
20
74.533101
11
20.6343844
21
72.805401
0
LINE
8
DEFAULT_255_2_778
10
20.6343844
20
72.805401
11
20.3480844
21
72.805401
0
LINE
8
DEFAULT_255_2_778
10
20.3480844
20
72.805401
11
20.3663844
21
72.935801
0
LINE
8
DEFAULT_255_2_778
10
19.6633844
20
73.391401
11
19.6701844
21
73.442001
0
LINE
8
DEFAULT_255_2_778
10
20.2176844
20
74.046001
11
20.2173844
21
74.046001
0
LINE
8
DEFAULT_255_2_778
10
20.3755844
20
73.172101
11
20.4631844
21
73.655701
0
LINE
8
DEFAULT_255_2_778
10
19.9850844
20
73.391401
11
19.9845844
21
73.391401
0
LINE
8
DEFAULT_255_2_778
10
21.5304644
20
74.5331644
11
21.2282644
21
72.8054644
0
LINE
8
DEFAULT_255_2_778
10
21.2282644
20
72.8054644
11
20.9057644
21
72.8054644
0
LINE
8
DEFAULT_255_2_778
10
20.9057644
20
72.8054644
11
21.2089644
21
74.5331644
0
LINE
8
DEFAULT_255_2_778
10
21.2089644
20
74.5331644
11
21.5304644
21
74.5331644
0
LINE
8
DEFAULT_255_2_778
10
21.5304644
20
74.5331644
11
21.5304644
21
74.5331644
0
ARC
8
DEFAULT_255_2_778
10
22.0767366
20
73.3207548
40
0.5378315
50
238.7482666
51
270.7109536
0
ARC
8
DEFAULT_255_2_778
10
22.045567
20
73.2659517
40
0.4748131
50
204.061185
51
238.5328679
0
ARC
8
DEFAULT_255_2_778
10
22.1280148
20
73.305498
40
0.5662261
50
179.4927176
51
204.3136716
0
ARC
8
DEFAULT_255_2_778
10
22.2513723
20
73.3100071
40
0.6895616
50
175.1202382
51
179.9581224
0
ARC
8
DEFAULT_255_2_778
10
22.3438524
20
73.3450148
40
0.7790728
50
149.5392097
51
174.9446897
0
ARC
8
DEFAULT_255_2_778
10
22.2179885
20
73.4285209
40
0.628301
50
120.7003982
51
150.2846053
0
ARC
8
DEFAULT_255_2_778
10
22.1784896
20
73.488202
40
0.556829
50
89.4236852
51
120.3409826
0
ARC
8
DEFAULT_255_2_778
10
22.1840397
20
73.3894668
40
0.6555361
50
88.4553682
51
89.9955718
0
ARC
8
DEFAULT_255_2_778
10
22.2071886
20
73.5751663
40
0.4696303
50
58.00918
51
90.668398
0
ARC
8
DEFAULT_255_2_778
10
22.2325532
20
73.6362648
40
0.4045188
50
35.6383534
51
56.4712999
0
ARC
8
DEFAULT_255_2_778
10
22.1229928
20
73.5632054
40
0.5361477
50
0.6851965
51
35.1616077
0
ARC
8
DEFAULT_255_2_778
10
21.9204358
20
73.5428226
40
0.7391521
50
359.9888194
51
2.0774415
0
ARC
8
DEFAULT_255_2_778
10
21.806807
20
73.5445245
40
0.852783
50
353.383538
51
359.8759623
0
ARC
8
DEFAULT_255_2_778
10
22.2930255
20
73.2921115
40
0.4107176
50
177.8018731
51
179.9839782
0
ARC
8
DEFAULT_255_2_778
10
22.1344263
20
73.2806236
40
0.2523852
50
177.3650374
51
219.8309448
0
ARC
8
DEFAULT_255_2_778
10
22.1050113
20
73.2673398
40
0.2214564
50
222.0668323
51
271.55222
0
ARC
8
DEFAULT_255_2_778
10
22.1220047
20
73.4721286
40
0.4263057
50
268.5221572
51
269.9980687
0
ARC
8
DEFAULT_255_2_778
10
22.1204046
20
73.4425214
40
0.3967017
50
270.2290309
51
318.5203973
0
ARC
8
DEFAULT_255_2_778
10
22.1897183
20
73.2593033
40
0.4555793
50
292.5203086
51
325.2867508
0
ARC
8
DEFAULT_255_2_778
10
22.0999537
20
73.4385291
40
0.6556743
50
269.6199197
51
293.7677355
0
ARC
8
DEFAULT_255_2_778
10
22.0956073
20
73.5247425
40
0.7418734
50
269.0811318
51
269.9997688
0
ARC
8
DEFAULT_255_2_778
10
22.1793293
20
73.517692
40
0.2651471
50
88.6426469
51
89.9972013
0
ARC
8
DEFAULT_255_2_778
10
22.1775438
20
73.5526017
40
0.2302444
50
89.5524386
51
130.4678957
0
ARC
8
DEFAULT_255_2_778
10
22.2765956
20
73.4527549
40
0.3706419
50
132.099436
51
154.4479603
0
ARC
8
DEFAULT_255_2_778
10
22.6790814
20
73.2346946
40
0.8281414
50
152.8476017
51
159.2006434
0
ARC
8
DEFAULT_255_2_778
10
22.0425195
20
73.6062265
40
0.3137404
50
351.1327381
51
359.8552777
0
ARC
8
DEFAULT_255_2_778
10
22.0889789
20
73.605827
40
0.2672803
50
359.9157472
51
8.073482
0
ARC
8
DEFAULT_255_2_778
10
22.1916771
20
73.6211273
40
0.1634528
50
7.8192239
51
49.4174523
0
ARC
8
DEFAULT_255_2_778
10
22.1897381
20
73.6079374
40
0.174876
50
51.746929
51
91.3525911
0
LINE
8
DEFAULT_255_2_778
10
21.5643101
20
73.3686647
11
21.5678101
21
73.4136647
0
LINE
8
DEFAULT_255_2_778
10
22.6539101
20
73.4462647
11
22.6356101
21
73.3078647
0
LINE
8
DEFAULT_255_2_778
10
22.6356101
20
73.3078647
11
21.8826101
21
73.3078647
0
LINE
8
DEFAULT_255_2_778
10
22.4176101
20
73.1797647
11
22.5642101
21
72.9998647
0
LINE
8
DEFAULT_255_2_778
10
22.0837101
20
72.7829647
11
22.0834101
21
72.7829647
0
LINE
8
DEFAULT_255_2_778
10
21.9049101
20
73.5287647
11
22.3456101
21
73.5287647
0
LINE
8
DEFAULT_255_2_778
10
22.3456101
20
73.5287647
11
22.3525101
21
73.5578647
0
LINE
8
DEFAULT_255_2_778
10
22.1856101
20
73.7827647
11
22.1856101
21
73.7827647
0
ARC
8
DEFAULT_255_2_778
10
22.5732275
20
72.9218859
40
0.7187609
50
318.1171527
51
335.3457065
0
ARC
8
DEFAULT_255_2_778
10
22.7861362
20
72.7397597
40
0.4387075
50
306.2044829
51
317.2623563
0
ARC
8
DEFAULT_255_2_778
10
22.8118611
20
72.7090074
40
0.3987066
50
269.0092455
51
305.8318035
0
ARC
8
DEFAULT_255_2_778
10
22.8209727
20
72.8736265
40
0.5634934
50
257.9736769
51
268.3723286
0
ARC
8
DEFAULT_255_2_778
10
22.9764694
20
73.7278284
40
1.431581
50
256.8370098
51
259.0102636
0
ARC
8
DEFAULT_255_2_778
10
22.7299242
20
72.9758821
40
0.396887
50
268.3457775
51
269.9906226
0
ARC
8
DEFAULT_255_2_778
10
22.7446904
20
72.816449
40
0.2379166
50
266.425992
51
328.6474802
0
LINE
8
DEFAULT_255_2_778
10
23.149167
20
74.0224604
11
23.237867
21
73.2689604
0
LINE
8
DEFAULT_255_2_778
10
23.237867
20
73.2689604
11
23.588967
21
74.0224604
0
LINE
8
DEFAULT_255_2_778
10
23.588967
20
74.0224604
11
23.945367
21
74.0224604
0
LINE
8
DEFAULT_255_2_778
10
23.945367
20
74.0224604
11
23.226467
21
72.6220604
0
LINE
8
DEFAULT_255_2_778
10
22.650467
20
72.3338604
11
22.674267
21
72.5812604
0
LINE
8
DEFAULT_255_2_778
10
22.674267
20
72.5812604
11
22.718467
21
72.5791604
0
LINE
8
DEFAULT_255_2_778
10
22.947867
20
72.6926604
11
23.018267
21
72.8220604
0
LINE
8
DEFAULT_255_2_778
10
23.018267
20
72.8220604
11
22.817167
21
74.0221604
0
LINE
8
DEFAULT_255_2_778
10
22.817167
20
74.0221604
11
23.148967
21
74.0221604
0
LINE
8
DEFAULT_255_2_778
10
23.148967
20
74.0221604
11
23.149167
21
74.0224604
0
LINE
8
DEFAULT_255_2_778
10
5.4244545
20
74.4219662
11
5.4244545
21
73.2366662
0
LINE
8
DEFAULT_255_2_778
10
5.4244545
20
73.2366662
11
8.3507545
21
73.1996662
0
LINE
8
DEFAULT_255_2_778
10
8.3507545
20
73.1996662
11
8.3507545
21
74.4219662
0
LINE
8
DEFAULT_255_2_778
10
8.3507545
20
74.4219662
11
7.4246545
21
75.2739662
0
LINE
8
DEFAULT_255_2_778
10
7.4246545
20
75.2739662
11
6.2764545
21
75.2739662
0
LINE
8
DEFAULT_255_2_778
10
6.2764545
20
75.2739662
11
5.4244545
21
74.4219662
0
LINE
8
DEFAULT_255_2_778
10
5.5726545
20
73.0144662
11
8.2025545
21
73.0144662
0
LINE
8
DEFAULT_255_2_778
10
8.2025545
20
73.0144662
11
7.4617545
21
72.3106662
0
LINE
8
DEFAULT_255_2_778
10
7.4617545
20
72.3106662
11
6.3504545
21
72.3106662
0
LINE
8
DEFAULT_255_2_778
10
6.3504545
20
72.3106662
11
5.5726545
21
73.0144662
0
ARC
8
DEFAULT_255_2_778
10
7.8458236
20
73.5635762
40
0.1423419
50
264.5115721
51
318.4176283
0
ARC
8
DEFAULT_255_2_778
10
7.8189888
20
73.5606218
40
0.1616977
50
325.5297452
51
3.3557414
0
ARC
8
DEFAULT_255_2_778
10
7.8389804
20
73.9171151
40
0.142084
50
354.4959081
51
48.5537602
0
ARC
8
DEFAULT_255_2_778
10
7.8416454
20
73.8899062
40
0.1619557
50
55.6500697
51
93.3401169
0
ARC
8
DEFAULT_255_2_778
10
7.8414718
20
74.1164243
40
0.0654958
50
261.8698976
51
8.1301024
0
ARC
8
DEFAULT_255_2_778
10
7.7988681
20
74.4991448
40
0.1074847
50
358.3696885
51
95.9524071
0
ARC
8
DEFAULT_255_2_778
10
7.7588849
20
74.2707909
40
0.3364968
50
85.0838783
51
90.1320543
0
LINE
8
DEFAULT_255_2_778
10
5.6838093
20
73.4218868
11
6.1283093
21
74.6442868
0
LINE
8
DEFAULT_255_2_778
10
6.1283093
20
74.6442868
11
6.3876093
21
74.6442868
0
LINE
8
DEFAULT_255_2_778
10
6.3876093
20
74.6442868
11
6.8691093
21
73.4589868
0
LINE
8
DEFAULT_255_2_778
10
6.8691093
20
73.4589868
11
6.5358093
21
73.4589868
0
LINE
8
DEFAULT_255_2_778
10
6.5358093
20
73.4589868
11
6.4246093
21
73.7182868
0
LINE
8
DEFAULT_255_2_778
10
6.4246093
20
73.7182868
11
6.0913093
21
73.7182868
0
LINE
8
DEFAULT_255_2_778
10
6.0913093
20
73.7182868
11
6.0913093
21
73.8663868
0
LINE
8
DEFAULT_255_2_778
10
6.0913093
20
73.8663868
11
6.3876093
21
73.8663868
0
LINE
8
DEFAULT_255_2_778
10
6.3876093
20
73.8663868
11
6.2024093
21
74.3108868
0
LINE
8
DEFAULT_255_2_778
10
6.2024093
20
74.3108868
11
5.8690093
21
73.4218868
0
LINE
8
DEFAULT_255_2_778
10
5.8690093
20
73.4218868
11
5.6838093
21
73.4218868
0
LINE
8
DEFAULT_255_2_778
10
5.6838093
20
73.4218868
11
5.6838093
21
73.4218868
0
LINE
8
DEFAULT_255_2_778
10
6.7580093
20
74.0886868
11
6.9062093
21
74.0886868
0
LINE
8
DEFAULT_255_2_778
10
6.9062093
20
74.0886868
11
6.9062093
21
73.9404868
0
LINE
8
DEFAULT_255_2_778
10
6.9062093
20
73.9404868
11
6.7580093
21
73.9404868
0
LINE
8
DEFAULT_255_2_778
10
6.7580093
20
73.9404868
11
6.7580093
21
74.0886868
0
LINE
8
DEFAULT_255_2_778
10
7.2766093
20
74.4220868
11
7.6100093
21
74.4220868
0
LINE
8
DEFAULT_255_2_778
10
7.6100093
20
74.4220868
11
7.6100093
21
74.0515868
0
LINE
8
DEFAULT_255_2_778
10
7.6100093
20
74.0515868
11
7.3507093
21
74.0515868
0
LINE
8
DEFAULT_255_2_778
10
7.3507093
20
74.0515868
11
7.3507093
21
73.9034868
0
LINE
8
DEFAULT_255_2_778
10
7.3507093
20
73.9034868
11
7.6840093
21
73.9034868
0
LINE
8
DEFAULT_255_2_778
10
7.6840093
20
73.9034868
11
7.6840093
21
73.5700868
0
LINE
8
DEFAULT_255_2_778
10
7.6840093
20
73.5700868
11
7.2766093
21
73.5700868
0
LINE
8
DEFAULT_255_2_778
10
7.2766093
20
73.5700868
11
7.2766093
21
74.4220868
0
LINE
8
DEFAULT_255_2_778
10
7.2766093
20
74.4220868
11
7.2766093
21
74.4220868
0
LINE
8
DEFAULT_255_2_778
10
6.9803093
20
74.6072868
11
6.9803093
21
73.4218868
0
LINE
8
DEFAULT_255_2_778
10
6.9803093
20
73.4218868
11
7.8322093
21
73.4218868
0
LINE
8
DEFAULT_255_2_778
10
7.9804093
20
73.5700868
11
7.9804093
21
73.9034868
0
LINE
8
DEFAULT_255_2_778
10
7.9063093
20
74.1256868
11
7.9063093
21
74.4960868
0
LINE
8
DEFAULT_255_2_778
10
7.7581093
20
74.6072868
11
6.9803093
21
74.6072868
0
LINE
8
DEFAULT_255_2_778
10
6.9803093
20
74.6072868
11
6.9803093
21
74.6072868
0
LINE
8
DEFAULT_255_2_778
10
6.3394426
20
72.63152
11
6.3367426
21
72.63152
0
ARC
8
DEFAULT_255_2_778
10
6.3340483
20
72.7565856
40
0.1250946
50
247.1356448
51
271.2341787
0
ARC
8
DEFAULT_255_2_778
10
6.3160915
20
72.7142166
40
0.0790776
50
215.0349981
51
247.1960091
0
ARC
8
DEFAULT_255_2_778
10
6.3109463
20
72.7088967
40
0.0718243
50
178.625123
51
213.9163394
0
ARC
8
DEFAULT_255_2_778
10
6.3131692
20
72.8259394
40
0.0740421
50
147.0420611
51
181.175799
0
ARC
8
DEFAULT_255_2_778
10
6.3147919
20
72.822063
40
0.0775487
50
112.4780918
51
145.2909011
0
ARC
8
DEFAULT_255_2_778
10
6.3339169
20
72.7776536
40
0.1258981
50
88.7138988
51
112.7934617
0
ARC
8
DEFAULT_255_2_778
10
6.3394809
20
72.778188
40
0.1253619
50
67.159311
51
91.2516049
0
ARC
8
DEFAULT_255_2_778
10
6.3569793
20
72.8201854
40
0.0798654
50
35.1978461
51
67.0331611
0
ARC
8
DEFAULT_255_2_778
10
6.362639
20
72.8261433
40
0.0718243
50
358.625123
51
33.9163394
0
ARC
8
DEFAULT_255_2_778
10
6.3604161
20
72.7091006
40
0.0740421
50
327.0420611
51
1.175799
0
ARC
8
DEFAULT_255_2_778
10
6.361381
20
72.7103221
40
0.0739133
50
291.6436853
51
325.8406333
0
ARC
8
DEFAULT_255_2_778
10
6.3401809
20
72.7193742
40
0.0482768
50
265.9160158
51
308.3617549
0
ARC
8
DEFAULT_255_2_778
10
6.3451719
20
72.7083209
40
0.036631
50
312.9754563
51
3.2850623
0
ARC
8
DEFAULT_255_2_778
10
6.3448152
20
72.8260022
40
0.0369754
50
357.082104
51
47.4006092
0
ARC
8
DEFAULT_255_2_778
10
6.339634
20
72.8158688
40
0.0480383
50
51.0349629
51
93.4505724
0
ARC
8
DEFAULT_255_2_778
10
6.3340454
20
72.8155492
40
0.0483461
50
86.8017862
51
128.8135095
0
ARC
8
DEFAULT_255_2_778
10
6.3287701
20
72.8260022
40
0.0369754
50
132.5993908
51
182.917896
0
ARC
8
DEFAULT_255_2_778
10
6.3284134
20
72.7083209
40
0.036631
50
176.7149377
51
227.0245437
0
ARC
8
DEFAULT_255_2_778
10
6.3334907
20
72.7196862
40
0.0485752
50
231.7867693
51
273.8385805
0
ARC
8
DEFAULT_255_2_778
10
6.5570033
20
72.7080569
40
0.0766655
50
226.2029837
51
273.3195937
0
ARC
8
DEFAULT_255_2_778
10
6.5622798
20
72.7060748
40
0.0790566
50
176.8492311
51
222.4458356
0
ARC
8
DEFAULT_255_2_778
10
6.5699928
20
72.7079649
40
0.043631
50
176.5112098
51
217.639275
0
ARC
8
DEFAULT_255_2_778
10
6.5593878
20
72.7028666
40
0.0322122
50
221.9818643
51
273.6574471
0
ARC
8
DEFAULT_255_2_778
10
6.5632216
20
72.7033153
40
0.0326438
50
266.8760675
51
317.6392064
0
ARC
8
DEFAULT_255_2_778
10
6.5527925
20
72.7079649
40
0.043631
50
322.360725
51
3.4887902
0
ARC
8
DEFAULT_255_2_778
10
6.5605055
20
72.7060748
40
0.0790566
50
317.5541644
51
3.1507689
0
ARC
8
DEFAULT_255_2_778
10
6.5656687
20
72.7083225
40
0.0769357
50
266.6274163
51
313.7210327
0
LINE
8
DEFAULT_255_2_778
10
6.4394426
20
72.56992
11
6.3828426
21
72.56992
0
LINE
8
DEFAULT_255_2_778
10
6.3828426
20
72.56992
11
6.3394426
21
72.63152
0
LINE
8
DEFAULT_255_2_778
10
6.2391426
20
72.71062
11
6.2391426
21
72.82442
0
LINE
8
DEFAULT_255_2_778
10
6.4344426
20
72.82442
11
6.4344426
21
72.71062
0
LINE
8
DEFAULT_255_2_778
10
6.3886426
20
72.64162
11
6.4394426
21
72.57012
0
LINE
8
DEFAULT_255_2_778
10
6.4394426
20
72.57012
11
6.4394426
21
72.56992
0
LINE
8
DEFAULT_255_2_778
10
6.3817426
20
72.71042
11
6.3817426
21
72.82412
0
LINE
8
DEFAULT_255_2_778
10
6.2918426
20
72.82412
11
6.2918426
21
72.71042
0
LINE
8
DEFAULT_255_2_778
10
6.3367426
20
72.67122
11
6.3367426
21
72.67122
0
LINE
8
DEFAULT_255_2_778
10
6.4833426
20
72.71042
11
6.4833426
21
72.89952
0
LINE
8
DEFAULT_255_2_778
10
6.4833426
20
72.89952
11
6.5264426
21
72.89952
0
LINE
8
DEFAULT_255_2_778
10
6.5264426
20
72.89952
11
6.5264426
21
72.71062
0
LINE
8
DEFAULT_255_2_778
10
6.5963426
20
72.71062
11
6.5963426
21
72.89952
0
LINE
8
DEFAULT_255_2_778
10
6.5963426
20
72.89952
11
6.6394426
21
72.89952
0
LINE
8
DEFAULT_255_2_778
10
6.6394426
20
72.89952
11
6.6394426
21
72.71042
0
LINE
8
DEFAULT_255_2_778
10
6.5611426
20
72.63152
11
6.5614426
21
72.63152
0
ARC
8
DEFAULT_255_2_778
10
12.1641534
20
73.9346635
40
5.5033955
50
191.4837585
51
191.8239227
0
ARC
8
DEFAULT_255_2_778
10
8.3589226
20
73.1308972
40
1.6145995
50
189.6626565
51
190.4158531
0
ARC
8
DEFAULT_255_2_778
10
6.119743
20
72.9637409
40
0.6557616
50
349.0334606
51
350.8880298
0
ARC
8
DEFAULT_255_2_778
10
6.0674163
20
72.9673866
40
0.7078549
50
346.9283592
51
349.5494987
0
ARC
8
DEFAULT_255_2_778
10
7.295875
20
72.7365243
40
0.1856762
50
15.5793022
51
22.5708948
0
ARC
8
DEFAULT_255_2_778
10
7.3101534
20
72.7344769
40
0.1725699
50
11.8762786
51
17.5076424
0
ARC
8
DEFAULT_255_2_778
10
7.8590306
20
72.6814121
40
0.3901889
50
164.3923637
51
166.8784714
0
ARC
8
DEFAULT_255_2_778
10
7.6620837
20
72.7365243
40
0.1856762
50
157.4291052
51
164.4206978
0
LINE
8
DEFAULT_255_2_778
10
6.7201293
20
72.6349917
11
6.6762293
21
72.6349917
0
LINE
8
DEFAULT_255_2_778
10
6.6762293
20
72.6349917
11
6.7392293
21
72.8995917
0
LINE
8
DEFAULT_255_2_778
10
6.7392293
20
72.8995917
11
6.7942293
21
72.8995917
0
LINE
8
DEFAULT_255_2_778
10
6.7942293
20
72.8995917
11
6.8577293
21
72.6349917
0
LINE
8
DEFAULT_255_2_778
10
6.8577293
20
72.6349917
11
6.8138293
21
72.6349917
0
LINE
8
DEFAULT_255_2_778
10
6.8138293
20
72.6349917
11
6.8000293
21
72.6989917
0
LINE
8
DEFAULT_255_2_778
10
6.8000293
20
72.6989917
11
6.7336293
21
72.6989917
0
LINE
8
DEFAULT_255_2_778
10
6.7336293
20
72.6989917
11
6.7199293
21
72.6349917
0
LINE
8
DEFAULT_255_2_778
10
6.7199293
20
72.6349917
11
6.7201293
21
72.6349917
0
LINE
8
DEFAULT_255_2_778
10
6.7569293
20
72.8074917
11
6.7418293
21
72.7360917
0
LINE
8
DEFAULT_255_2_778
10
6.7418293
20
72.7360917
11
6.7926293
21
72.7360917
0
LINE
8
DEFAULT_255_2_778
10
6.7926293
20
72.7360917
11
6.7775293
21
72.8069917
0
LINE
8
DEFAULT_255_2_778
10
6.7569293
20
72.8072917
11
6.7569293
21
72.8074917
0
LINE
8
DEFAULT_255_2_778
10
7.0231293
20
72.6349917
11
6.8741293
21
72.6349917
0
LINE
8
DEFAULT_255_2_778
10
6.8741293
20
72.6349917
11
6.8741293
21
72.8995917
0
LINE
8
DEFAULT_255_2_778
10
6.8741293
20
72.8995917
11
6.9170293
21
72.8995917
0
LINE
8
DEFAULT_255_2_778
10
6.9170293
20
72.8995917
11
6.9170293
21
72.6759917
0
LINE
8
DEFAULT_255_2_778
10
6.9170293
20
72.6759917
11
7.0231293
21
72.6759917
0
LINE
8
DEFAULT_255_2_778
10
7.0231293
20
72.6759917
11
7.0231293
21
72.6349917
0
LINE
8
DEFAULT_255_2_778
10
7.0231293
20
72.6349917
11
7.0231293
21
72.6349917
0
LINE
8
DEFAULT_255_2_778
10
7.1760293
20
72.6349917
11
7.0321293
21
72.6349917
0
LINE
8
DEFAULT_255_2_778
10
7.0321293
20
72.6349917
11
7.0321293
21
72.6759917
0
LINE
8
DEFAULT_255_2_778
10
7.0321293
20
72.6759917
11
7.0823293
21
72.6759917
0
LINE
8
DEFAULT_255_2_778
10
7.0823293
20
72.6759917
11
7.0823293
21
72.8585917
0
LINE
8
DEFAULT_255_2_778
10
7.0823293
20
72.8585917
11
7.0321293
21
72.8585917
0
LINE
8
DEFAULT_255_2_778
10
7.0321293
20
72.8585917
11
7.0321293
21
72.8995917
0
LINE
8
DEFAULT_255_2_778
10
7.0321293
20
72.8995917
11
7.1760293
21
72.8995917
0
LINE
8
DEFAULT_255_2_778
10
7.1760293
20
72.8995917
11
7.1760293
21
72.8585917
0
LINE
8
DEFAULT_255_2_778
10
7.1760293
20
72.8585917
11
7.1257293
21
72.8585917
0
LINE
8
DEFAULT_255_2_778
10
7.1257293
20
72.8585917
11
7.1257293
21
72.6759917
0
LINE
8
DEFAULT_255_2_778
10
7.1257293
20
72.6759917
11
7.1760293
21
72.6759917
0
LINE
8
DEFAULT_255_2_778
10
7.1760293
20
72.6759917
11
7.1760293
21
72.6349917
0
LINE
8
DEFAULT_255_2_778
10
7.1760293
20
72.6349917
11
7.1760293
21
72.6349917
0
LINE
8
DEFAULT_255_2_778
10
7.2940293
20
72.6349917
11
7.2509293
21
72.6349917
0
LINE
8
DEFAULT_255_2_778
10
7.2509293
20
72.6349917
11
7.2509293
21
72.8585917
0
LINE
8
DEFAULT_255_2_778
10
7.2509293
20
72.8585917
11
7.1855293
21
72.8585917
0
LINE
8
DEFAULT_255_2_778
10
7.1855293
20
72.8585917
11
7.1855293
21
72.8995917
0
LINE
8
DEFAULT_255_2_778
10
7.1855293
20
72.8995917
11
7.3596293
21
72.8995917
0
LINE
8
DEFAULT_255_2_778
10
7.3596293
20
72.8995917
11
7.3596293
21
72.8585917
0
LINE
8
DEFAULT_255_2_778
10
7.3596293
20
72.8585917
11
7.2943293
21
72.8585917
0
LINE
8
DEFAULT_255_2_778
10
7.2943293
20
72.8585917
11
7.2943293
21
72.6349917
0
LINE
8
DEFAULT_255_2_778
10
7.2943293
20
72.6349917
11
7.2940293
21
72.6349917
0
LINE
8
DEFAULT_255_2_778
10
7.4996293
20
72.6349917
11
7.4565293
21
72.6349917
0
LINE
8
DEFAULT_255_2_778
10
7.4565293
20
72.6349917
11
7.4565293
21
72.7310917
0
LINE
8
DEFAULT_255_2_778
10
7.4565293
20
72.7310917
11
7.3832293
21
72.8995917
0
LINE
8
DEFAULT_255_2_778
10
7.3832293
20
72.8995917
11
7.4281293
21
72.8995917
0
LINE
8
DEFAULT_255_2_778
10
7.4281293
20
72.8995917
11
7.4673293
21
72.8077917
0
LINE
8
DEFAULT_255_2_778
10
7.4906293
20
72.8077917
11
7.5287293
21
72.8995917
0
LINE
8
DEFAULT_255_2_778
10
7.5287293
20
72.8995917
11
7.5731293
21
72.8995917
0
LINE
8
DEFAULT_255_2_778
10
7.5731293
20
72.8995917
11
7.4998293
21
72.7310917
0
LINE
8
DEFAULT_255_2_778
10
7.4998293
20
72.7310917
11
7.4998293
21
72.6349917
0
LINE
8
DEFAULT_255_2_778
10
7.4998293
20
72.6349917
11
7.4996293
21
72.6349917
0
LINE
8
DEFAULT_255_1_388
10
7.2816985
20
71.4582148
11
7.2816985
21
70.1363
0
LINE
8
DEFAULT_255_1_388
10
7.2816985
20
70.1363
11
7.1136355
21
70.1363
0
LINE
8
DEFAULT_255_1_388
10
7.1136355
20
70.1363
11
7.1136355
21
71.250395
0
LINE
8
DEFAULT_255_1_388
10
7.1136355
20
71.250395
11
6.776606
21
71.1266066
0
LINE
8
DEFAULT_255_1_388
10
6.776606
20
71.1266066
11
6.776606
21
71.2784055
0
LINE
8
DEFAULT_255_1_388
10
6.776606
20
71.2784055
11
7.2554951
21
71.4582148
0
LINE
8
DEFAULT_255_1_388
10
7.2554951
20
71.4582148
11
7.2816985
21
71.4582148
0
LINE
8
DEFAULT_255_1_388
10
8.620781
20
71.4518898
11
8.620781
21
71.3579191
0
LINE
8
DEFAULT_255_1_388
10
8.620781
20
71.3579191
11
8.0759316
21
70.1363
0
LINE
8
DEFAULT_255_1_388
10
8.0759316
20
70.1363
11
7.9006401
21
70.1363
0
LINE
8
DEFAULT_255_1_388
10
7.9006401
20
70.1363
11
8.4436824
21
71.314548
0
LINE
8
DEFAULT_255_1_388
10
8.4436824
20
71.314548
11
7.7316736
21
71.314548
0
LINE
8
DEFAULT_255_1_388
10
7.7316736
20
71.314548
11
7.7316736
21
71.4518898
0
LINE
8
DEFAULT_255_1_388
10
7.7316736
20
71.4518898
11
8.620781
21
71.4518898
0
LINE
8
DEFAULT_255_1_388
10
9.0210601
20
70.7615666
11
8.8873325
21
70.7959021
0
LINE
8
DEFAULT_255_1_388
10
8.8873325
20
70.7959021
11
8.9541963
21
71.4518898
0
LINE
8
DEFAULT_255_1_388
10
8.9541963
20
71.4518898
11
9.6282554
21
71.4518898
0
LINE
8
DEFAULT_255_1_388
10
9.6282554
20
71.4518898
11
9.6282554
21
71.2973803
0
LINE
8
DEFAULT_255_1_388
10
9.6282554
20
71.2973803
11
9.0960559
21
71.2973803
0
LINE
8
DEFAULT_255_1_388
10
9.0960559
20
71.2973803
11
9.0562991
21
70.9386652
0
LINE
8
DEFAULT_255_1_388
10
8.8403472
20
70.4823652
11
8.9984709
21
70.4823652
0
LINE
8
DEFAULT_255_1_388
10
9.0653347
20
70.7977092
11
9.0210601
21
70.7615666
0
ARC
8
DEFAULT_255_1_388
10
9.2649604
20
70.5809241
40
0.4141476
50
93.7181681
51
120.253934
0
ARC
8
DEFAULT_255_1_388
10
9.2755656
20
70.4900284
40
0.5055616
50
89.9660471
51
94.2495185
0
ARC
8
DEFAULT_255_1_388
10
9.2801478
20
70.5563154
40
0.4392953
50
73.8045384
51
90.5585736
0
ARC
8
DEFAULT_255_1_388
10
9.3065736
20
70.652852
40
0.3392225
50
41.3071072
51
73.543002
0
ARC
8
DEFAULT_255_1_388
10
9.2597556
20
70.6125461
40
0.4009977
50
13.5075837
51
41.2174839
0
ARC
8
DEFAULT_255_1_388
10
9.0750653
20
70.5641907
40
0.5918864
50
1.1330171
51
13.8830737
0
ARC
8
DEFAULT_255_1_388
10
8.9154299
20
70.5556522
40
0.7516787
50
359.9925091
51
1.5431298
0
ARC
8
DEFAULT_255_1_388
10
9.0598914
20
70.5510027
40
0.6072343
50
347.8572712
51
0.4294349
0
ARC
8
DEFAULT_255_1_388
10
9.2568049
20
70.5063898
40
0.4053482
50
323.6727442
51
348.1674594
0
ARC
8
DEFAULT_255_1_388
10
9.2899013
20
70.4862175
40
0.3667495
50
316.8171818
51
323.1486802
0
ARC
8
DEFAULT_255_1_388
10
9.2968137
20
70.4820612
40
0.358869
50
281.839603
51
316.5458142
0
ARC
8
DEFAULT_255_1_388
10
9.2545425
20
70.6570363
40
0.5388223
50
269.5770964
51
282.4214641
0
ARC
8
DEFAULT_255_1_388
10
9.2465345
20
70.632993
40
0.5147801
50
256.2425863
51
270.4486481
0
ARC
8
DEFAULT_255_1_388
10
9.2128873
20
70.4980124
40
0.3756708
50
228.9024379
51
256.33135
0
ARC
8
DEFAULT_255_1_388
10
9.2045853
20
70.4849054
40
0.360344
50
193.7536029
51
228.5272638
0
ARC
8
DEFAULT_255_1_388
10
9.3438418
20
70.5257463
40
0.5053599
50
184.9244437
51
194.4976052
0
ARC
8
DEFAULT_255_1_388
10
9.365506
20
70.5297722
40
0.3700839
50
187.3596909
51
198.6733728
0
ARC
8
DEFAULT_255_1_388
10
9.2474303
20
70.4888373
40
0.2451195
50
198.4453795
51
217.7945479
0
ARC
8
DEFAULT_255_1_388
10
9.2141476
20
70.4652563
40
0.2043754
50
218.2887146
51
228.5613203
0
ARC
8
DEFAULT_255_1_388
10
9.2251482
20
70.4800902
40
0.2227819
50
228.9652423
51
258.1237049
0
ARC
8
DEFAULT_255_1_388
10
9.248292
20
70.5791964
40
0.3245374
50
257.7260585
51
270.4013717
0
ARC
8
DEFAULT_255_1_388
10
9.2533418
20
70.5291255
40
0.2744726
50
269.4204315
51
286.420998
0
ARC
8
DEFAULT_255_1_388
10
9.2700474
20
70.4684705
40
0.2115721
50
286.7250065
51
320.6004665
0
ARC
8
DEFAULT_255_1_388
10
9.2269389
20
70.5034527
40
0.2670878
50
320.6712228
51
344.5440474
0
ARC
8
DEFAULT_255_1_388
10
9.0968103
20
70.5416394
40
0.4026927
50
344.241448
51
356.735803
0
ARC
8
DEFAULT_255_1_388
10
8.956441
20
70.5532656
40
0.5435085
50
356.3547471
51
0.0507222
0
ARC
8
DEFAULT_255_1_388
10
9.1066675
20
70.5567812
40
0.3932934
50
359.5579289
51
12.9534322
0
ARC
8
DEFAULT_255_1_388
10
9.2253515
20
70.5855586
40
0.2711827
50
12.6489751
51
41.608121
0
ARC
8
DEFAULT_255_1_388
10
9.2512675
20
70.6075946
40
0.2371737
50
41.7851122
51
85.9892156
0
ARC
8
DEFAULT_255_1_388
10
9.2373985
20
70.5160738
40
0.3295244
50
84.6965848
51
90.0672125
0
ARC
8
DEFAULT_255_1_388
10
9.2347553
20
70.4409118
40
0.4046926
50
89.6804991
51
99.161352
0
ARC
8
DEFAULT_255_1_388
10
9.2116562
20
70.5789848
40
0.2647044
50
98.9836248
51
113.8905702
0
ARC
8
DEFAULT_255_1_388
10
9.1858237
20
70.6399118
40
0.1985386
50
114.195234
51
127.3641866
0
LINE
8
DEFAULT_255_1_388
10
10.4757988
20
71.4527934
11
10.5056165
21
71.4527934
0
LINE
8
DEFAULT_255_1_388
10
10.5056165
20
71.4527934
11
10.5056165
21
71.3109338
0
LINE
8
DEFAULT_255_1_388
10
10.5056165
20
71.3109338
11
10.4748953
21
71.3109338
0
LINE
8
DEFAULT_255_1_388
10
9.8595679
20
70.6368747
11
9.8595679
21
70.7010278
0
LINE
8
DEFAULT_255_1_388
10
10.0276309
20
70.6793422
11
10.0276309
21
70.6178999
0
ARC
8
DEFAULT_255_1_388
10
10.4807844
20
70.7486826
40
0.562282
50
90.6001079
51
104.5146616
0
ARC
8
DEFAULT_255_1_388
10
10.4370804
20
70.91121
40
0.3939917
50
104.2855758
51
133.8630124
0
ARC
8
DEFAULT_255_1_388
10
10.4555056
20
70.8990243
40
0.4155734
50
134.5304124
51
161.6210222
0
ARC
8
DEFAULT_255_1_388
10
10.6414989
20
70.8334421
40
0.6127682
50
161.2850533
51
174.2074364
0
ARC
8
DEFAULT_255_1_388
10
10.8004555
20
70.8115437
40
0.7731446
50
173.7817938
51
174.9251711
0
ARC
8
DEFAULT_255_1_388
10
10.2878749
20
70.656027
40
0.3412588
50
95.8332067
51
138.995412
0
ARC
8
DEFAULT_255_1_388
10
10.3130029
20
70.5121695
40
0.4870358
50
89.8755506
51
97.0540979
0
ARC
8
DEFAULT_255_1_388
10
10.3183418
20
70.6061841
40
0.3930432
50
71.6407016
51
90.6240821
0
ARC
8
DEFAULT_255_1_388
10
10.3352812
20
70.6685433
40
0.3285421
50
39.6368051
51
71.0190743
0
ARC
8
DEFAULT_255_1_388
10
10.2636719
20
70.6066586
40
0.4231706
50
10.6588054
51
39.9044509
0
ARC
8
DEFAULT_255_1_388
10
10.0895265
20
70.5688223
40
0.60133
50
359.6827842
51
11.1326896
0
ARC
8
DEFAULT_255_1_388
10
10.0850601
20
70.5608715
40
0.6058047
50
347.2485908
51
0.4371098
0
ARC
8
DEFAULT_255_1_388
10
10.2726386
20
70.5157379
40
0.4128987
50
318.1408565
51
347.6118497
0
ARC
8
DEFAULT_255_1_388
10
10.3091983
20
70.4856903
40
0.3656244
50
275.6342406
51
317.824739
0
ARC
8
DEFAULT_255_1_388
10
10.2843504
20
70.6318827
40
0.513655
50
269.8872513
51
276.7916069
0
ARC
8
DEFAULT_255_1_388
10
10.2781697
20
70.5165181
40
0.398323
50
246.9139443
51
270.7436787
0
ARC
8
DEFAULT_255_1_388
10
10.2788893
20
70.5005044
40
0.3839368
50
218.1665534
51
245.8780431
0
ARC
8
DEFAULT_255_1_388
10
10.3778265
20
70.5832903
40
0.5128958
50
191.4115343
51
218.6077624
0
ARC
8
DEFAULT_255_1_388
10
10.5958581
20
70.6321777
40
0.7363054
50
179.6344971
51
191.7836758
0
ARC
8
DEFAULT_255_1_388
10
11.2238455
20
70.7085495
40
1.3642984
50
171.4523743
51
180.3158856
0
ARC
8
DEFAULT_255_1_388
10
10.7294182
20
70.7854895
40
0.8639311
50
157.9802296
51
171.6246761
0
ARC
8
DEFAULT_255_1_388
10
10.4803533
20
70.8848038
40
0.5958004
50
141.4299236
51
157.8541251
0
ARC
8
DEFAULT_255_1_388
10
10.4081616
20
70.9358746
40
0.5075416
50
102.871586
51
140.8564533
0
ARC
8
DEFAULT_255_1_388
10
10.4810169
20
70.6613943
40
0.7914163
50
90.377773
51
103.5868422
0
ARC
8
DEFAULT_255_1_388
10
10.285469
20
70.5933543
40
0.2667015
50
89.8751238
51
126.2072139
0
ARC
8
DEFAULT_255_1_388
10
10.2906161
20
70.5759847
40
0.2838229
50
124.9742447
51
144.8960197
0
ARC
8
DEFAULT_255_1_388
10
10.2708406
20
70.5920981
40
0.2583845
50
145.2974778
51
160.2660922
0
ARC
8
DEFAULT_255_1_388
10
10.6164895
20
70.6143151
40
0.5888695
50
179.6512124
51
190.285571
0
ARC
8
DEFAULT_255_1_388
10
10.4259374
20
70.5783968
40
0.3949683
50
190.0944895
51
207.5099647
0
ARC
8
DEFAULT_255_1_388
10
10.3622956
20
70.5481177
40
0.3245464
50
207.9585471
51
216.325377
0
ARC
8
DEFAULT_255_1_388
10
10.3240593
20
70.5166712
40
0.2751259
50
215.7661336
51
232.5457193
0
ARC
8
DEFAULT_255_1_388
10
10.2809709
20
70.4619273
40
0.2054668
50
232.8005815
51
270.6605497
0
ARC
8
DEFAULT_255_1_388
10
10.2861133
20
70.5028853
40
0.2464268
50
269.3550767
51
288.474612
0
ARC
8
DEFAULT_255_1_388
10
10.296564
20
70.4635721
40
0.2058436
50
289.1831976
51
322.9685307
0
ARC
8
DEFAULT_255_1_388
10
10.2277742
20
70.5178279
40
0.2934408
50
322.6007085
51
346.5183319
0
ARC
8
DEFAULT_255_1_388
10
10.0975498
20
70.5510434
40
0.4278249
50
346.2584622
51
358.7739592
0
ARC
8
DEFAULT_255_1_388
10
9.9824073
20
70.5572829
40
0.5430876
50
358.3757628
51
0.0082477
0
ARC
8
DEFAULT_255_1_388
10
10.0680892
20
70.5603856
40
0.4574157
50
359.6211417
51
11.28403
0
ARC
8
DEFAULT_255_1_388
10
10.2117498
20
70.5903535
40
0.3106708
50
11.0483152
51
31.8145585
0
ARC
8
DEFAULT_255_1_388
10
10.2465203
20
70.6092045
40
0.2711963
50
32.3028554
51
38.0820598
0
ARC
8
DEFAULT_255_1_388
10
10.2938436
20
70.6520717
40
0.2075566
50
36.8249851
51
85.741667
0
ARC
8
DEFAULT_255_1_388
10
10.2862849
20
70.5957065
40
0.2643487
50
85.0150021
51
90.050843
0
LINE
8
DEFAULT_255_1_388
10
12.1835356
20
70.5537468
11
12.3579236
21
70.5537468
0
LINE
8
DEFAULT_255_1_388
10
11.3450278
20
70.7326525
11
11.3450278
21
70.8591516
0
LINE
8
DEFAULT_255_1_388
10
12.3579236
20
71.0290217
11
12.1835356
21
71.0290217
0
LINE
8
DEFAULT_255_1_388
10
11.5194158
20
70.8546337
11
11.5194158
21
70.7272312
0
ARC
8
DEFAULT_255_1_388
10
11.741347
20
70.6209329
40
0.6202263
50
340.1774904
51
353.7812217
0
ARC
8
DEFAULT_255_1_388
10
11.9181323
20
70.5550893
40
0.4315926
50
311.4560052
51
340.4420756
0
ARC
8
DEFAULT_255_1_388
10
11.9143862
20
70.5675665
40
0.4434573
50
282.4332229
51
310.7514507
0
ARC
8
DEFAULT_255_1_388
10
11.864968
20
70.7717703
40
0.6535262
50
269.9358869
51
282.8096729
0
ARC
8
DEFAULT_255_1_388
10
11.859162
20
70.9230329
40
0.8048043
50
269.9995752
51
270.3612856
0
ARC
8
DEFAULT_255_1_388
10
11.853211
20
70.6431781
40
0.5249831
50
250.7885263
51
270.6488451
0
ARC
8
DEFAULT_255_1_388
10
11.8342934
20
70.5714853
40
0.4510942
50
219.3628377
51
250.0611024
0
ARC
8
DEFAULT_255_1_388
10
11.9275809
20
70.6507653
40
0.5735046
50
193.5480293
51
219.5755675
0
ARC
8
DEFAULT_255_1_388
10
12.1944018
20
70.720052
40
0.849146
50
181.1220183
51
193.8754971
0
ARC
8
DEFAULT_255_1_388
10
12.4267251
20
70.7324914
40
1.0816971
50
179.9914644
51
181.5398227
0
ARC
8
DEFAULT_255_1_388
10
12.2190561
20
70.8633586
40
0.8740384
50
169.5837606
51
180.275782
0
ARC
8
DEFAULT_255_1_388
10
12.0123909
20
70.9015439
40
0.6638751
50
155.0367033
51
169.6002779
0
ARC
8
DEFAULT_255_1_388
10
11.8846368
20
70.9631336
40
0.5220662
50
136.7831557
51
155.2472983
0
ARC
8
DEFAULT_255_1_388
10
11.8408158
20
71.0003577
40
0.4646502
50
121.7633063
51
136.4281161
0
ARC
8
DEFAULT_255_1_388
10
11.8559998
20
70.9723049
40
0.4964979
50
95.6460018
51
121.5489589
0
ARC
8
DEFAULT_255_1_388
10
11.8736973
20
70.8475704
40
0.6223912
50
89.9245727
51
96.1375919
0
ARC
8
DEFAULT_255_1_388
10
11.8793678
20
70.8609721
40
0.6090084
50
76.6779212
51
90.456405
0
ARC
8
DEFAULT_255_1_388
10
11.9236491
20
71.039906
40
0.42469
50
47.4858803
51
76.9287069
0
ARC
8
DEFAULT_255_1_388
10
11.9071104
20
71.0286623
40
0.4441778
50
16.5424081
51
46.8934505
0
ARC
8
DEFAULT_255_1_388
10
11.7262154
20
70.9692265
40
0.6345318
50
5.4072971
51
17.0363711
0
ARC
8
DEFAULT_255_1_388
10
11.5643879
20
70.9432304
40
0.6250632
50
7.8888693
51
15.9242022
0
ARC
8
DEFAULT_255_1_388
10
11.7878865
20
71.0081309
40
0.3923364
50
15.7650676
51
27.9410069
0
ARC
8
DEFAULT_255_1_388
10
11.9121034
20
71.0746317
40
0.2514401
50
27.8167196
51
46.4007942
0
ARC
8
DEFAULT_255_1_388
10
11.9176875
20
71.0739882
40
0.2480958
50
47.4372362
51
75.0695672
0
ARC
8
DEFAULT_255_1_388
10
11.8829711
20
70.9531277
40
0.3738281
50
74.7009379
51
87.8124314
0
ARC
8
DEFAULT_255_1_388
10
11.8747328
20
70.8347659
40
0.4924321
50
87.3802571
51
90.0251599
0
ARC
8
DEFAULT_255_1_388
10
11.8703976
20
70.9667997
40
0.3604218
50
89.3451886
51
108.5744412
0
ARC
8
DEFAULT_255_1_388
10
11.8549968
20
71.0245836
40
0.3007661
50
109.2998307
51
143.3037387
0
ARC
8
DEFAULT_255_1_388
10
11.9407258
20
70.9586584
40
0.4089031
50
143.075267
51
163.1918576
0
ARC
8
DEFAULT_255_1_388
10
12.1603092
20
70.8893652
40
0.6391492
50
162.9375929
51
174.6208776
0
ARC
8
DEFAULT_255_1_388
10
12.4557474
20
70.8569711
40
0.9363344
50
174.342123
51
180.1430283
0
ARC
8
DEFAULT_255_1_388
10
12.3510015
20
70.7226117
40
0.8315986
50
179.6817261
51
189.150555
0
ARC
8
DEFAULT_255_1_388
10
12.0696764
20
70.6757559
40
0.5464044
50
188.9911061
51
203.5772363
0
ARC
8
DEFAULT_255_1_388
10
11.9482056
20
70.6253539
40
0.4149206
50
203.9075402
51
215.1312435
0
ARC
8
DEFAULT_255_1_388
10
11.8443853
20
70.5448907
40
0.2837747
50
213.9071511
51
263.8848919
0
ARC
8
DEFAULT_255_1_388
10
11.8584847
20
70.6331519
40
0.3730641
50
263.1757928
51
270.1031044
0
ARC
8
DEFAULT_255_1_388
10
11.8620926
20
70.7734511
40
0.5133712
50
269.6722503
51
279.0606936
0
ARC
8
DEFAULT_255_1_388
10
11.8921082
20
70.592015
40
0.3294739
50
278.8749101
51
293.6349581
0
ARC
8
DEFAULT_255_1_388
10
11.9281285
20
70.5074251
40
0.2375405
50
293.8553806
51
310.0518171
0
ARC
8
DEFAULT_255_1_388
10
11.9286794
20
70.5004021
40
0.2318463
50
311.0644687
51
332.0111037
0
ARC
8
DEFAULT_255_1_388
10
11.7945468
20
70.5743702
40
0.3850112
50
331.6586806
51
343.2877423
0
ARC
8
DEFAULT_255_1_388
10
11.5624933
20
70.6456806
40
0.6277712
50
343.1446576
51
351.0103568
0
ARC
8
DEFAULT_255_1_388
10
11.3992256
20
70.6756873
40
0.7937327
50
350.71248
51
351.1626997
0
LINE
8
DEFAULT_255_1_388
10
12.5241794
20
70.6224177
11
12.5241794
21
70.634164
0
LINE
8
DEFAULT_255_1_388
10
13.4141904
20
70.6260319
11
13.4141904
21
70.6142856
0
ARC
8
DEFAULT_255_1_388
10
13.1526239
20
70.637804
40
0.628455
50
166.3005265
51
180.3318609
0
ARC
8
DEFAULT_255_1_388
10
13.0555589
20
70.6595267
40
0.52901
50
153.8608648
51
166.0965672
0
ARC
8
DEFAULT_255_1_388
10
12.9806755
20
70.6996652
40
0.4441126
50
135.1317053
51
154.2534962
0
ARC
8
DEFAULT_255_1_388
10
12.9493405
20
70.7273431
40
0.4023863
50
121.7042632
51
134.7771455
0
ARC
8
DEFAULT_255_1_388
10
12.9568837
20
70.7128469
40
0.4186852
50
93.4001111
51
121.5399523
0
ARC
8
DEFAULT_255_1_388
10
12.9675671
20
70.6198759
40
0.5121521
50
89.9706387
51
93.9763381
0
ARC
8
DEFAULT_255_1_388
10
12.9728656
20
70.6638563
40
0.4681988
50
71.3321659
51
90.6162917
0
ARC
8
DEFAULT_255_1_388
10
12.991169
20
70.7316003
40
0.3981841
50
41.1813875
51
70.7072086
0
ARC
8
DEFAULT_255_1_388
10
12.9374406
20
70.682813
40
0.4707474
50
12.1971434
51
41.3446641
0
ARC
8
DEFAULT_255_1_388
10
12.720767
20
70.6312328
40
0.6934429
50
359.5702713
51
12.5803533
0
ARC
8
DEFAULT_255_1_388
10
12.7739986
20
70.6107207
40
0.6402018
50
347.0196754
51
0.3190452
0
ARC
8
DEFAULT_255_1_388
10
12.8818039
20
70.5875189
40
0.5299421
50
334.350439
51
346.8460534
0
ARC
8
DEFAULT_255_1_388
10
12.9769285
20
70.5381244
40
0.4228234
50
310.4228125
51
334.8045131
0
ARC
8
DEFAULT_255_1_388
10
12.9861264
20
70.5309301
40
0.4113892
50
301.8488154
51
310.0972985
0
ARC
8
DEFAULT_255_1_388
10
12.9825004
20
70.5394573
40
0.4205483
50
274.3078723
51
301.6554173
0
ARC
8
DEFAULT_255_1_388
10
12.970046
20
70.6381943
40
0.5199658
50
269.954904
51
274.859116
0
ARC
8
DEFAULT_255_1_388
10
12.9645284
20
70.5818239
40
0.4636233
50
250.8887647
51
270.6313164
0
ARC
8
DEFAULT_255_1_388
10
12.9476444
20
70.5189405
40
0.398705
50
221.1701369
51
250.2227012
0
ARC
8
DEFAULT_255_1_388
10
13.002111
20
70.5685716
40
0.4723796
50
191.6263861
51
221.3526879
0
ARC
8
DEFAULT_255_1_388
10
13.2144955
20
70.6177203
40
0.6903321
50
179.6101251
51
192.0694841
0
ARC
8
DEFAULT_255_1_388
10
13.2621303
20
70.6106681
40
0.5698993
50
179.636304
51
190.6161344
0
ARC
8
DEFAULT_255_1_388
10
13.0773634
20
70.5746635
40
0.3816643
50
190.4136062
51
208.7168709
0
ARC
8
DEFAULT_255_1_388
10
13.0199669
20
70.5461905
40
0.3176572
50
209.187109
51
217.4221816
0
ARC
8
DEFAULT_255_1_388
10
12.9604139
20
70.4937729
40
0.2385702
50
216.1156863
51
265.2575395
0
ARC
8
DEFAULT_255_1_388
10
12.9693175
20
70.5582608
40
0.3035941
50
264.5891546
51
270.0602378
0
ARC
8
DEFAULT_255_1_388
10
12.9730372
20
70.5155539
40
0.2609091
50
269.2532353
51
291.8793864
0
ARC
8
DEFAULT_255_1_388
10
12.9763251
20
70.4955359
40
0.241148
50
292.9269367
51
323.1777736
0
ARC
8
DEFAULT_255_1_388
10
12.9292536
20
70.5368762
40
0.3036446
50
322.25666
51
323.087958
0
ARC
8
DEFAULT_255_1_388
10
12.8989794
20
70.5551332
40
0.3388345
50
323.6941379
51
343.8493587
0
ARC
8
DEFAULT_255_1_388
10
12.721423
20
70.6091698
40
0.5244204
50
343.5746655
51
355.008149
0
ARC
8
DEFAULT_255_1_388
10
12.4955922
20
70.6325797
40
0.7514406
50
354.728272
51
0.1208026
0
ARC
8
DEFAULT_255_1_388
10
12.6944947
20
70.6377947
40
0.5525482
50
359.6235211
51
11.2016685
0
ARC
8
DEFAULT_255_1_388
10
12.8670775
20
70.6733284
40
0.3763527
50
10.9991302
51
30.8317616
0
ARC
8
DEFAULT_255_1_388
10
12.9116078
20
70.6967988
40
0.3260975
50
31.3007463
51
37.395541
0
ARC
8
DEFAULT_255_1_388
10
12.9674798
20
70.7439773
40
0.253082
50
36.5918894
51
62.2439906
0
ARC
8
DEFAULT_255_1_388
10
12.9727089
20
70.7436378
40
0.2509927
50
63.3364883
51
89.7193846
0
ARC
8
DEFAULT_255_1_388
10
12.9678543
20
70.6788375
40
0.3158485
50
88.8962924
51
90.004475
0
ARC
8
DEFAULT_255_1_388
10
12.964297
20
70.7441071
40
0.250604
50
89.1923115
51
114.7099029
0
ARC
8
DEFAULT_255_1_388
10
12.9675312
20
70.7483675
40
0.2481307
50
115.7996284
51
142.2901353
0
ARC
8
DEFAULT_255_1_388
10
13.0143583
20
70.7064752
40
0.310833
50
141.4607507
51
142.383894
0
ARC
8
DEFAULT_255_1_388
10
13.0291434
20
70.6996449
40
0.3267335
50
143.0176473
51
163.2340089
0
ARC
8
DEFAULT_255_1_388
10
13.2066723
20
70.6434553
40
0.5129308
50
162.9446504
51
174.3733893
0
ARC
8
DEFAULT_255_1_388
10
13.4480695
20
70.6163483
40
0.75583
50
174.1225809
51
180.1563667
0
LINE
8
DEFAULT_255_1_388
10
13.6238174
20
71.1139567
11
13.7819412
21
71.1139567
0
LINE
8
DEFAULT_255_1_388
10
13.7819412
20
71.1139567
11
13.7873625
21
70.991072
0
LINE
8
DEFAULT_255_1_388
10
14.3927507
20
70.7823486
11
14.3927507
21
70.1363
0
LINE
8
DEFAULT_255_1_388
10
14.3927507
20
70.1363
11
14.2255913
21
70.1363
0
LINE
8
DEFAULT_255_1_388
10
14.2255913
20
70.1363
11
14.2255913
21
70.7832521
0
LINE
8
DEFAULT_255_1_388
10
13.7909768
20
70.8329482
11
13.7909768
21
70.1363
0
LINE
8
DEFAULT_255_1_388
10
13.7909768
20
70.1363
11
13.6238174
21
70.1363
0
LINE
8
DEFAULT_255_1_388
10
13.6238174
20
70.1363
11
13.6238174
21
71.1139567
0
ARC
8
DEFAULT_255_1_388
10
14.0803925
20
70.7647868
40
0.3702317
50
116.459579
51
142.3237674
0
ARC
8
DEFAULT_255_1_388
10
14.0740204
20
70.7624216
40
0.3695717
50
89.9344799
51
115.4117431
0
ARC
8
DEFAULT_255_1_388
10
14.0801253
20
70.6707477
40
0.4612803
50
90.0009789
51
90.7058119
0
ARC
8
DEFAULT_255_1_388
10
14.087065
20
70.7404095
40
0.3916802
50
71.6503198
51
91.0163578
0
ARC
8
DEFAULT_255_1_388
10
14.1271715
20
70.8733483
40
0.2529032
50
13.4487463
51
70.7930078
0
ARC
8
DEFAULT_255_1_388
10
13.8682086
20
70.7912303
40
0.5242314
50
1.3250409
51
15.5955556
0
ARC
8
DEFAULT_255_1_388
10
13.6383328
20
70.7766495
40
0.7544396
50
0.4328171
51
2.0283925
0
ARC
8
DEFAULT_255_1_388
10
13.8479531
20
70.782166
40
0.3776398
50
0.1647891
51
8.9343738
0
ARC
8
DEFAULT_255_1_388
10
13.989857
20
70.8052206
40
0.2338783
50
8.7538928
51
22.2899346
0
ARC
8
DEFAULT_255_1_388
10
14.0651001
20
70.8362479
40
0.1524893
50
22.2261896
51
42.6534349
0
ARC
8
DEFAULT_255_1_388
10
14.0722042
20
70.8389551
40
0.1454574
50
43.7652806
51
71.277358
0
ARC
8
DEFAULT_255_1_388
10
14.0435605
20
70.7594698
40
0.2299367
50
70.8751244
51
84.317538
0
ARC
8
DEFAULT_255_1_388
10
14.0304317
20
70.648887
40
0.3412827
50
83.9624774
51
90.1534326
0
ARC
8
DEFAULT_255_1_388
10
14.0273076
20
70.7325668
40
0.2576111
50
89.5084243
51
108.792202
0
ARC
8
DEFAULT_255_1_388
10
14.0202444
20
70.7583171
40
0.2309638
50
109.1912151
51
125.3077659
0
ARC
8
DEFAULT_255_1_388
10
14.0569302
20
70.7064216
40
0.2945169
50
125.2968281
51
154.5573532
0
LINE
8
DEFAULT_255_1_388
10
14.7044805
20
71.3506906
11
14.8716399
21
71.3506906
0
LINE
8
DEFAULT_255_1_388
10
14.8716399
20
71.3506906
11
14.8716399
21
71.1139567
0
LINE
8
DEFAULT_255_1_388
10
14.8716399
20
71.1139567
11
15.0541599
21
71.1139567
0
LINE
8
DEFAULT_255_1_388
10
15.0541599
20
71.1139567
11
15.0541599
21
70.984747
0
LINE
8
DEFAULT_255_1_388
10
15.0541599
20
70.984747
11
14.8716399
21
70.984747
0
LINE
8
DEFAULT_255_1_388
10
14.8716399
20
70.984747
11
14.8716399
21
70.3784553
0
LINE
8
DEFAULT_255_1_388
10
15.0586777
20
70.2718347
11
15.0586777
21
70.1363
0
LINE
8
DEFAULT_255_1_388
10
14.7044805
20
70.3784553
11
14.7044805
21
70.984747
0
LINE
8
DEFAULT_255_1_388
10
14.7044805
20
70.984747
11
14.5264783
21
70.984747
0
LINE
8
DEFAULT_255_1_388
10
14.5264783
20
70.984747
11
14.5264783
21
71.1139567
0
LINE
8
DEFAULT_255_1_388
10
14.5264783
20
71.1139567
11
14.7044805
21
71.1139567
0
LINE
8
DEFAULT_255_1_388
10
14.7044805
20
71.1139567
11
14.7044805
21
71.3506906
0
ARC
8
DEFAULT_255_1_388
10
15.0974906
20
70.3772842
40
0.2258538
50
179.7029045
51
187.9180047
0
ARC
8
DEFAULT_255_1_388
10
15.013548
20
70.3652019
40
0.1410477
50
187.7540838
51
200.2454047
0
ARC
8
DEFAULT_255_1_388
10
14.9662386
20
70.3475591
40
0.0905561
50
200.1304287
51
219.1733455
0
ARC
8
DEFAULT_255_1_388
10
14.9509552
20
70.3371695
40
0.0721626
50
220.4434631
51
249.6169985
0
ARC
8
DEFAULT_255_1_388
10
14.9683779
20
70.3809919
40
0.1193141
50
249.1038184
51
262.7745376
0
ARC
8
DEFAULT_255_1_388
10
14.9782961
20
70.4517481
40
0.1907583
50
262.4921618
51
270.2607019
0
ARC
8
DEFAULT_255_1_388
10
14.9780043
20
70.4759817
40
0.2149929
50
270.309081
51
275.6615459
0
ARC
8
DEFAULT_255_1_388
10
14.961945
20
70.6448342
40
0.3846066
50
275.5607354
51
279.087751
0
ARC
8
DEFAULT_255_1_388
10
14.9247383
20
70.8809428
40
0.6236283
50
279.0369545
51
281.5000133
0
ARC
8
DEFAULT_255_1_388
10
14.8856651
20
71.0786499
40
0.825157
50
281.4217093
51
282.1031556
0
ARC
8
DEFAULT_255_1_388
10
14.9232626
20
70.6243229
40
0.5064619
50
275.2597791
51
285.5081125
0
ARC
8
DEFAULT_255_1_388
10
14.930164
20
70.5617452
40
0.4435166
50
270.0268175
51
275.1130565
0
ARC
8
DEFAULT_255_1_388
10
14.9279091
20
70.4124367
40
0.2942182
50
257.3572424
51
270.4795428
0
ARC
8
DEFAULT_255_1_388
10
14.9039361
20
70.3113952
40
0.1903838
50
230.8036715
51
257.7414447
0
ARC
8
DEFAULT_255_1_388
10
14.8962858
20
70.2990723
40
0.1760087
50
219.9745381
51
230.1985446
0
ARC
8
DEFAULT_255_1_388
10
14.9336145
20
70.3276116
40
0.2229598
50
196.5081334
51
219.4319996
0
ARC
8
DEFAULT_255_1_388
10
15.0478756
20
70.3634617
40
0.3427033
50
184.6408645
51
196.8266009
0
ARC
8
DEFAULT_255_1_388
10
15.1879662
20
70.377601
40
0.4834863
50
179.8987586
51
184.9677262
0
LINE
8
DEFAULT_255_1_388
10
15.721894
20
71.1193781
11
15.721894
21
70.963965
0
LINE
8
DEFAULT_255_1_388
10
15.4164893
20
70.8302375
11
15.4164893
21
70.1363
0
LINE
8
DEFAULT_255_1_388
10
15.4164893
20
70.1363
11
15.2493298
21
70.1363
0
LINE
8
DEFAULT_255_1_388
10
15.2493298
20
70.1363
11
15.2493298
21
71.1139567
0
LINE
8
DEFAULT_255_1_388
10
15.2493298
20
71.1139567
11
15.4119714
21
71.1139567
0
LINE
8
DEFAULT_255_1_388
10
15.4119714
20
71.1139567
11
15.4146821
21
71.0010112
0
ARC
8
DEFAULT_255_1_388
10
15.64691
20
70.5073068
40
0.4627735
50
80.6751522
51
86.893806
0
ARC
8
DEFAULT_255_1_388
10
15.640093
20
70.3981103
40
0.5721798
50
86.8046851
51
90.0423898
0
ARC
8
DEFAULT_255_1_388
10
15.635935
20
70.6748197
40
0.2954939
50
89.2758283
51
106.6212906
0
ARC
8
DEFAULT_255_1_388
10
15.6129374
20
70.7584009
40
0.2088351
50
107.1347109
51
157.6456887
0
ARC
8
DEFAULT_255_1_388
10
15.6897437
20
70.7156908
40
0.296292
50
155.6557383
51
157.256838
0
ARC
8
DEFAULT_255_1_388
10
15.6677051
20
70.8467472
40
0.296341
50
127.8167201
51
148.6300223
0
ARC
8
DEFAULT_255_1_388
10
15.6391798
20
70.8760066
40
0.2557782
50
91.3329934
51
126.7875218
0
ARC
8
DEFAULT_255_1_388
10
15.6477185
20
70.7956718
40
0.3363561
50
89.9858247
51
92.4688453
0
ARC
8
DEFAULT_255_1_388
10
15.6486679
20
70.8265114
40
0.3055179
50
85.3587643
51
90.1624243
0
ARC
8
DEFAULT_255_1_388
10
15.6581744
20
70.9394458
40
0.1921848
50
78.4019195
51
85.4592653
0
ARC
8
DEFAULT_255_1_388
10
15.6744804
20
71.0172142
40
0.1127267
50
67.7849217
51
78.573798
0
ARC
8
DEFAULT_255_1_388
10
15.6866439
20
71.0487374
40
0.0789473
50
63.4805074
51
67.3074739
0
LINE
8
DEFAULT_255_1_388
10
15.8131541
20
70.6224177
11
15.8131541
21
70.634164
0
LINE
8
DEFAULT_255_1_388
10
16.703165
20
70.6260319
11
16.703165
21
70.6142856
0
ARC
8
DEFAULT_255_1_388
10
16.4415985
20
70.637804
40
0.628455
50
166.3005265
51
180.3318609
0
ARC
8
DEFAULT_255_1_388
10
16.3445335
20
70.6595267
40
0.52901
50
153.8608648
51
166.0965672
0
ARC
8
DEFAULT_255_1_388
10
16.2696501
20
70.6996652
40
0.4441126
50
135.1317053
51
154.2534962
0
ARC
8
DEFAULT_255_1_388
10
16.2383151
20
70.7273431
40
0.4023863
50
121.7042632
51
134.7771455
0
ARC
8
DEFAULT_255_1_388
10
16.2458583
20
70.7128469
40
0.4186852
50
93.4001111
51
121.5399523
0
ARC
8
DEFAULT_255_1_388
10
16.2565417
20
70.6198759
40
0.5121521
50
89.9706387
51
93.9763381
0
ARC
8
DEFAULT_255_1_388
10
16.2618402
20
70.6638563
40
0.4681988
50
71.3321659
51
90.6162917
0
ARC
8
DEFAULT_255_1_388
10
16.2801436
20
70.7316003
40
0.3981841
50
41.1813875
51
70.7072086
0
ARC
8
DEFAULT_255_1_388
10
16.2264152
20
70.682813
40
0.4707474
50
12.1971434
51
41.3446641
0
ARC
8
DEFAULT_255_1_388
10
16.0097416
20
70.6312328
40
0.6934429
50
359.5702713
51
12.5803533
0
ARC
8
DEFAULT_255_1_388
10
16.0629732
20
70.6107207
40
0.6402018
50
347.0196754
51
0.3190452
0
ARC
8
DEFAULT_255_1_388
10
16.1707785
20
70.5875189
40
0.5299421
50
334.350439
51
346.8460534
0
ARC
8
DEFAULT_255_1_388
10
16.2659031
20
70.5381244
40
0.4228234
50
310.4228125
51
334.8045131
0
ARC
8
DEFAULT_255_1_388
10
16.275101
20
70.5309301
40
0.4113892
50
301.8488154
51
310.0972985
0
ARC
8
DEFAULT_255_1_388
10
16.271475
20
70.5394573
40
0.4205483
50
274.3078723
51
301.6554173
0
ARC
8
DEFAULT_255_1_388
10
16.2590206
20
70.6381943
40
0.5199658
50
269.954904
51
274.859116
0
ARC
8
DEFAULT_255_1_388
10
16.253503
20
70.5818239
40
0.4636233
50
250.8887647
51
270.6313164
0
ARC
8
DEFAULT_255_1_388
10
16.236619
20
70.5189405
40
0.398705
50
221.1701369
51
250.2227012
0
ARC
8
DEFAULT_255_1_388
10
16.2910856
20
70.5685716
40
0.4723796
50
191.6263861
51
221.3526879
0
ARC
8
DEFAULT_255_1_388
10
16.5034701
20
70.6177203
40
0.6903321
50
179.6101251
51
192.0694841
0
ARC
8
DEFAULT_255_1_388
10
16.5511049
20
70.6106681
40
0.5698993
50
179.636304
51
190.6161344
0
ARC
8
DEFAULT_255_1_388
10
16.366338
20
70.5746635
40
0.3816643
50
190.4136062
51
208.7168709
0
ARC
8
DEFAULT_255_1_388
10
16.3089415
20
70.5461905
40
0.3176572
50
209.187109
51
217.4221816
0
ARC
8
DEFAULT_255_1_388
10
16.2493885
20
70.4937729
40
0.2385702
50
216.1156863
51
265.2575395
0
ARC
8
DEFAULT_255_1_388
10
16.2582921
20
70.5582608
40
0.3035941
50
264.5891546
51
270.0602378
0
ARC
8
DEFAULT_255_1_388
10
16.2620118
20
70.5155539
40
0.2609091
50
269.2532353
51
291.8793864
0
ARC
8
DEFAULT_255_1_388
10
16.2652997
20
70.4955359
40
0.241148
50
292.9269367
51
323.1777736
0
ARC
8
DEFAULT_255_1_388
10
16.2182282
20
70.5368762
40
0.3036446
50
322.25666
51
323.087958
0
ARC
8
DEFAULT_255_1_388
10
16.187954
20
70.5551332
40
0.3388345
50
323.6941379
51
343.8493587
0
ARC
8
DEFAULT_255_1_388
10
16.0103976
20
70.6091698
40
0.5244204
50
343.5746655
51
355.008149
0
ARC
8
DEFAULT_255_1_388
10
15.7845668
20
70.6325797
40
0.7514406
50
354.728272
51
0.1208026
0
ARC
8
DEFAULT_255_1_388
10
15.9834694
20
70.6377947
40
0.5525482
50
359.6235211
51
11.2016685
0
ARC
8
DEFAULT_255_1_388
10
16.1560521
20
70.6733284
40
0.3763527
50
10.9991302
51
30.8317616
0
ARC
8
DEFAULT_255_1_388
10
16.2005824
20
70.6967988
40
0.3260975
50
31.3007463
51
37.395541
0
ARC
8
DEFAULT_255_1_388
10
16.2564544
20
70.7439773
40
0.253082
50
36.5918894
51
62.2439906
0
ARC
8
DEFAULT_255_1_388
10
16.2616835
20
70.7436378
40
0.2509927
50
63.3364883
51
89.7193846
0
ARC
8
DEFAULT_255_1_388
10
16.2568289
20
70.6788375
40
0.3158485
50
88.8962924
51
90.004475
0
ARC
8
DEFAULT_255_1_388
10
16.2532716
20
70.7441071
40
0.250604
50
89.1923115
51
114.7099029
0
ARC
8
DEFAULT_255_1_388
10
16.2565058
20
70.7483675
40
0.2481307
50
115.7996284
51
142.2901353
0
ARC
8
DEFAULT_255_1_388
10
16.3033329
20
70.7064752
40
0.310833
50
141.4607507
51
142.383894
0
ARC
8
DEFAULT_255_1_388
10
16.318118
20
70.6996449
40
0.3267335
50
143.0176473
51
163.2340089
0
ARC
8
DEFAULT_255_1_388
10
16.4956469
20
70.6434553
40
0.5129308
50
162.9446504
51
174.3733893
0
ARC
8
DEFAULT_255_1_388
10
16.7370441
20
70.6163483
40
0.75583
50
174.1225809
51
180.1563667
0
LINE
8
DEFAULT_255_1_388
10
17.0944084
20
71.524175
11
17.0944084
21
70.1363
0
LINE
8
DEFAULT_255_1_388
10
17.0944084
20
70.1363
11
16.927249
21
70.1363
0
LINE
8
DEFAULT_255_1_388
10
16.927249
20
70.1363
11
16.927249
21
71.524175
0
LINE
8
DEFAULT_255_1_388
10
16.927249
20
71.524175
11
17.0944084
21
71.524175
0
LINE
8
DEFAULT_255_1_388
10
17.5624548
20
71.4518898
11
17.5624548
21
70.2781596
0
LINE
8
DEFAULT_255_1_388
10
17.5624548
20
70.2781596
11
18.1859143
21
70.2781596
0
LINE
8
DEFAULT_255_1_388
10
18.1859143
20
70.2781596
11
18.1859143
21
70.1363
0
LINE
8
DEFAULT_255_1_388
10
18.1859143
20
70.1363
11
17.3880669
21
70.1363
0
LINE
8
DEFAULT_255_1_388
10
17.3880669
20
70.1363
11
17.3880669
21
71.4518898
0
LINE
8
DEFAULT_255_1_388
10
17.3880669
20
71.4518898
11
17.5624548
21
71.4518898
0
LINE
8
DEFAULT_255_1_388
10
18.3133169
20
70.6224177
11
18.3133169
21
70.634164
0
LINE
8
DEFAULT_255_1_388
10
19.2033279
20
70.6260319
11
19.2033279
21
70.6142856
0
ARC
8
DEFAULT_255_1_388
10
18.9417613
20
70.637804
40
0.628455
50
166.3005265
51
180.3318609
0
ARC
8
DEFAULT_255_1_388
10
18.8446963
20
70.6595267
40
0.52901
50
153.8608648
51
166.0965672
0
ARC
8
DEFAULT_255_1_388
10
18.7698129
20
70.6996652
40
0.4441126
50
135.1317053
51
154.2534962
0
ARC
8
DEFAULT_255_1_388
10
18.738478
20
70.7273431
40
0.4023863
50
121.7042632
51
134.7771455
0
ARC
8
DEFAULT_255_1_388
10
18.7460212
20
70.7128469
40
0.4186852
50
93.4001111
51
121.5399523
0
ARC
8
DEFAULT_255_1_388
10
18.7567046
20
70.6198759
40
0.5121521
50
89.9706387
51
93.9763381
0
ARC
8
DEFAULT_255_1_388
10
18.762003
20
70.6638563
40
0.4681988
50
71.3321659
51
90.6162917
0
ARC
8
DEFAULT_255_1_388
10
18.7803064
20
70.7316003
40
0.3981841
50
41.1813875
51
70.7072086
0
ARC
8
DEFAULT_255_1_388
10
18.726578
20
70.682813
40
0.4707474
50
12.1971434
51
41.3446641
0
ARC
8
DEFAULT_255_1_388
10
18.5099044
20
70.6312328
40
0.6934429
50
359.5702713
51
12.5803533
0
ARC
8
DEFAULT_255_1_388
10
18.563136
20
70.6107207
40
0.6402018
50
347.0196754
51
0.3190452
0
ARC
8
DEFAULT_255_1_388
10
18.6709413
20
70.5875189
40
0.5299421
50
334.350439
51
346.8460534
0
ARC
8
DEFAULT_255_1_388
10
18.766066
20
70.5381244
40
0.4228234
50
310.4228125
51
334.8045131
0
ARC
8
DEFAULT_255_1_388
10
18.7752638
20
70.5309301
40
0.4113892
50
301.8488154
51
310.0972985
0
ARC
8
DEFAULT_255_1_388
10
18.7716378
20
70.5394573
40
0.4205483
50
274.3078723
51
301.6554173
0
ARC
8
DEFAULT_255_1_388
10
18.7591834
20
70.6381943
40
0.5199658
50
269.954904
51
274.859116
0
ARC
8
DEFAULT_255_1_388
10
18.7536658
20
70.5818239
40
0.4636233
50
250.8887647
51
270.6313164
0
ARC
8
DEFAULT_255_1_388
10
18.7367819
20
70.5189405
40
0.398705
50
221.1701369
51
250.2227012
0
ARC
8
DEFAULT_255_1_388
10
18.7912484
20
70.5685716
40
0.4723796
50
191.6263861
51
221.3526879
0
ARC
8
DEFAULT_255_1_388
10
19.0036329
20
70.6177203
40
0.6903321
50
179.6101251
51
192.0694841
0
ARC
8
DEFAULT_255_1_388
10
19.0512677
20
70.6106681
40
0.5698993
50
179.636304
51
190.6161344
0
ARC
8
DEFAULT_255_1_388
10
18.8665009
20
70.5746635
40
0.3816643
50
190.4136062
51
208.7168709
0
ARC
8
DEFAULT_255_1_388
10
18.8091043
20
70.5461905
40
0.3176572
50
209.187109
51
217.4221816
0
ARC
8
DEFAULT_255_1_388
10
18.7495513
20
70.4937729
40
0.2385702
50
216.1156863
51
265.2575395
0
ARC
8
DEFAULT_255_1_388
10
18.758455
20
70.5582608
40
0.3035941
50
264.5891546
51
270.0602378
0
ARC
8
DEFAULT_255_1_388
10
18.7621746
20
70.5155539
40
0.2609091
50
269.2532353
51
291.8793864
0
ARC
8
DEFAULT_255_1_388
10
18.7654625
20
70.4955359
40
0.241148
50
292.9269367
51
323.1777736
0
ARC
8
DEFAULT_255_1_388
10
18.7183911
20
70.5368762
40
0.3036446
50
322.25666
51
323.087958
0
ARC
8
DEFAULT_255_1_388
10
18.6881168
20
70.5551332
40
0.3388345
50
323.6941379
51
343.8493587
0
ARC
8
DEFAULT_255_1_388
10
18.5105605
20
70.6091698
40
0.5244204
50
343.5746655
51
355.008149
0
ARC
8
DEFAULT_255_1_388
10
18.2847296
20
70.6325797
40
0.7514406
50
354.728272
51
0.1208026
0
ARC
8
DEFAULT_255_1_388
10
18.4836322
20
70.6377947
40
0.5525482
50
359.6235211
51
11.2016685
0
ARC
8
DEFAULT_255_1_388
10
18.6562149
20
70.6733284
40
0.3763527
50
10.9991302
51
30.8317616
0
ARC
8
DEFAULT_255_1_388
10
18.7007453
20
70.6967988
40
0.3260975
50
31.3007463
51
37.395541
0
ARC
8
DEFAULT_255_1_388
10
18.7566172
20
70.7439773
40
0.253082
50
36.5918894
51
62.2439906
0
ARC
8
DEFAULT_255_1_388
10
18.7618464
20
70.7436378
40
0.2509927
50
63.3364883
51
89.7193846
0
ARC
8
DEFAULT_255_1_388
10
18.7569917
20
70.6788375
40
0.3158485
50
88.8962924
51
90.004475
0
ARC
8
DEFAULT_255_1_388
10
18.7534344
20
70.7441071
40
0.250604
50
89.1923115
51
114.7099029
0
ARC
8
DEFAULT_255_1_388
10
18.7566686
20
70.7483675
40
0.2481307
50
115.7996284
51
142.2901353
0
ARC
8
DEFAULT_255_1_388
10
18.8034957
20
70.7064752
40
0.310833
50
141.4607507
51
142.383894
0
ARC
8
DEFAULT_255_1_388
10
18.8182808
20
70.6996449
40
0.3267335
50
143.0176473
51
163.2340089
0
ARC
8
DEFAULT_255_1_388
10
18.9958097
20
70.6434553
40
0.5129308
50
162.9446504
51
174.3733893
0
ARC
8
DEFAULT_255_1_388
10
19.237207
20
70.6163483
40
0.75583
50
174.1225809
51
180.1563667
0
LINE
8
DEFAULT_255_1_388
10
20.0382214
20
71.005529
11
20.0463535
21
71.1139567
0
LINE
8
DEFAULT_255_1_388
10
20.0463535
20
71.1139567
11
20.1990559
21
71.1139567
0
LINE
8
DEFAULT_255_1_388
10
20.1990559
20
71.1139567
11
20.1990559
21
70.1597927
0
LINE
8
DEFAULT_255_1_388
10
19.422894
20
69.9203481
11
19.5096362
21
70.0206438
0
LINE
8
DEFAULT_255_1_388
10
20.0309929
20
70.1498535
11
20.0309929
21
70.233885
0
LINE
8
DEFAULT_255_1_388
10
20.0309929
20
70.4037551
11
20.0309929
21
70.8501159
0
ARC
8
DEFAULT_255_1_388
10
20.1770907
20
70.638122
40
0.8039074
50
169.8802333
51
180.3464902
0
ARC
8
DEFAULT_255_1_388
10
19.9123713
20
70.687287
40
0.5346711
50
152.8534324
51
170.0824729
0
ARC
8
DEFAULT_255_1_388
10
19.8186108
20
70.7316868
40
0.4309932
50
142.0147746
51
152.418569
0
ARC
8
DEFAULT_255_1_388
10
19.7469556
20
70.7969169
40
0.3344504
50
94.3317494
51
143.2674518
0
ARC
8
DEFAULT_255_1_388
10
19.7586415
20
70.7088903
40
0.423138
50
89.9487512
51
95.0093077
0
ARC
8
DEFAULT_255_1_388
10
19.7633213
20
70.7268021
40
0.4052487
50
72.9496911
51
90.6081488
0
ARC
8
DEFAULT_255_1_388
10
19.7863937
20
70.8103718
40
0.3185963
50
37.7743532
51
72.5099202
0
ARC
8
DEFAULT_255_1_388
10
19.6828803
20
70.1554774
40
0.5161937
50
346.3655403
51
0.4789834
0
ARC
8
DEFAULT_255_1_388
10
19.8367636
20
70.1163644
40
0.3574311
50
314.3365584
51
346.6438898
0
ARC
8
DEFAULT_255_1_388
10
19.8252781
20
70.13249
40
0.3770042
50
280.7144
51
313.872307
0
ARC
8
DEFAULT_255_1_388
10
19.7875516
20
70.3006099
40
0.5492378
50
269.6628653
51
281.3208129
0
ARC
8
DEFAULT_255_1_388
10
19.7857176
20
70.2542105
40
0.5028309
50
245.5258654
51
269.8407328
0
ARC
8
DEFAULT_255_1_388
10
19.7428021
20
70.1737065
40
0.4118207
50
232.6664457
51
246.3200328
0
ARC
8
DEFAULT_255_1_388
10
19.6883265
20
70.1014386
40
0.3213227
50
214.3036526
51
232.5750527
0
ARC
8
DEFAULT_255_1_388
10
19.8141297
20
70.2618259
40
0.3884393
50
218.381912
51
236.3657409
0
ARC
8
DEFAULT_255_1_388
10
19.7691067
20
70.1990326
40
0.3112322
50
236.8637655
51
270.6382272
0
ARC
8
DEFAULT_255_1_388
10
19.775275
20
70.2362587
40
0.3484494
50
269.5557858
51
282.3972101
0
ARC
8
DEFAULT_255_1_388
10
19.8018335
20
70.1220767
40
0.2312324
50
282.043923
51
308.3079272
0
ARC
8
DEFAULT_255_1_388
10
19.811445
20
70.106747
40
0.2132542
50
308.8347234
51
315.2037678
0
ARC
8
DEFAULT_255_1_388
10
19.8026159
20
70.1132123
40
0.2240808
50
315.6213011
51
345.6795376
0
ARC
8
DEFAULT_255_1_388
10
19.6924584
20
70.1438736
40
0.3384084
50
345.2627538
51
358.6311244
0
ARC
8
DEFAULT_255_1_388
10
19.592609
20
70.1497581
40
0.4383839
50
358.1739988
51
0.0124651
0
ARC
8
DEFAULT_255_1_388
10
19.7820266
20
70.4491381
40
0.3291173
50
275.6950404
51
319.1537182
0
ARC
8
DEFAULT_255_1_388
10
19.7581897
20
70.5869049
40
0.4686772
50
269.8805882
51
276.9235205
0
ARC
8
DEFAULT_255_1_388
10
19.7522197
20
70.46199
40
0.3437976
50
244.0748846
51
270.8321697
0
ARC
8
DEFAULT_255_1_388
10
19.7606705
20
70.4642423
40
0.3495805
50
217.781776
51
242.9905232
0
ARC
8
DEFAULT_255_1_388
10
19.8282136
20
70.5243567
40
0.4398355
50
217.5209891
51
218.58043
0
ARC
8
DEFAULT_255_1_388
10
19.8597975
20
70.542913
40
0.4762087
50
195.3497149
51
216.9773048
0
ARC
8
DEFAULT_255_1_388
10
20.0873864
20
70.6090667
40
0.7131994
50
183.9387193
51
195.6348167
0
ARC
8
DEFAULT_255_1_388
10
20.3434059
20
70.6320646
40
0.9702086
50
179.929381
51
184.2551265
0
ARC
8
DEFAULT_255_1_388
10
20.1947725
20
70.6108515
40
0.6535206
50
179.6989243
51
188.5749266
0
ARC
8
DEFAULT_255_1_388
10
19.9682916
20
70.5754789
40
0.4242988
50
188.4117627
51
202.0559679
0
ARC
8
DEFAULT_255_1_388
10
19.8593176
20
70.5326952
40
0.3072368
50
202.2924994
51
215.4475859
0
ARC
8
DEFAULT_255_1_388
10
19.7868247
20
70.4765576
40
0.2156547
50
214.4673097
51
264.3362727
0
ARC
8
DEFAULT_255_1_388
10
19.7982915
20
70.5481673
40
0.2880794
50
263.4723224
51
270.0965288
0
ARC
8
DEFAULT_255_1_388
10
19.802815
20
70.5313896
40
0.2713313
50
269.1472473
51
291.7978484
0
ARC
8
DEFAULT_255_1_388
10
19.8098411
20
70.5000081
40
0.2396396
50
293.0243185
51
327.6232391
0
ARC
8
DEFAULT_255_1_388
10
19.7301844
20
70.5582435
40
0.3381603
50
326.5171836
51
332.8160011
0
ARC
8
DEFAULT_255_1_388
10
19.7697026
20
70.7112272
40
0.29591
50
27.9928465
51
47.6314088
0
ARC
8
DEFAULT_255_1_388
10
19.810373
20
70.7499256
40
0.2399437
50
48.5793547
51
88.6245273
0
ARC
8
DEFAULT_255_1_388
10
19.8006849
20
70.6659448
40
0.3242237
50
87.2690754
51
90.0178312
0
ARC
8
DEFAULT_255_1_388
10
19.7974548
20
70.7397957
40
0.2503923
50
89.2839515
51
110.1847982
0
ARC
8
DEFAULT_255_1_388
10
19.7905349
20
70.7697002
40
0.2199699
50
111.180781
51
145.0423499
0
ARC
8
DEFAULT_255_1_388
10
19.826621
20
70.7384759
40
0.2674811
50
143.9895932
51
144.106678
0
ARC
8
DEFAULT_255_1_388
10
19.863628
20
70.716319
40
0.3104736
50
144.7981654
51
162.8715843
0
ARC
8
DEFAULT_255_1_388
10
20.054288
20
70.6550138
40
0.5107383
50
162.598526
51
173.3417416
0
ARC
8
DEFAULT_255_1_388
10
20.3544253
20
70.6177767
40
0.8131718
50
173.1877249
51
180.2459848
0
LINE
8
DEFAULT_255_1_388
10
20.6327668
20
71.1139567
11
20.6327668
21
70.1363
0
LINE
8
DEFAULT_255_1_388
10
20.6327668
20
70.1363
11
20.4656074
21
70.1363
0
LINE
8
DEFAULT_255_1_388
10
20.4656074
20
70.1363
11
20.4656074
21
71.1139567
0
LINE
8
DEFAULT_255_1_388
10
20.4656074
20
71.1139567
11
20.6327668
21
71.1139567
0
ARC
8
DEFAULT_255_1_388
10
20.5621436
20
71.3743428
40
0.1100948
50
161.4148232
51
180.5532607
0
ARC
8
DEFAULT_255_1_388
10
20.5481746
20
71.3781875
40
0.0956324
50
138.1830164
51
160.9307633
0
ARC
8
DEFAULT_255_1_388
10
20.5357933
20
71.3889313
40
0.0792417
50
104.6371663
51
138.0036136
0
ARC
8
DEFAULT_255_1_388
10
20.5478472
20
71.3476963
40
0.1221906
50
92.0601206
51
105.2198859
0
ARC
8
DEFAULT_255_1_388
10
20.5504836
20
71.3088583
40
0.161103
50
89.9790681
51
92.5006086
0
ARC
8
DEFAULT_255_1_388
10
20.5516012
20
71.3344998
40
0.1354654
50
78.0234649
51
90.4478111
0
ARC
8
DEFAULT_255_1_388
10
20.5619597
20
71.3810203
40
0.0878096
50
55.0521508
51
78.336297
0
ARC
8
DEFAULT_255_1_388
10
20.5676131
20
71.3905168
40
0.0767913
50
42.0506198
51
54.4508489
0
ARC
8
DEFAULT_255_1_388
10
20.5524164
20
71.3765821
40
0.0974091
50
1.7493657
51
42.1498724
0
ARC
8
DEFAULT_255_1_388
10
20.523807
20
71.3733166
40
0.1261276
50
359.9832635
51
2.8353994
0
ARC
8
DEFAULT_255_1_388
10
20.542448
20
71.3722412
40
0.1074916
50
342.1062453
51
0.5535864
0
ARC
8
DEFAULT_255_1_388
10
20.5584904
20
71.3678197
40
0.0908695
50
316.7110111
51
341.6513114
0
ARC
8
DEFAULT_255_1_388
10
20.5660336
20
71.3610607
40
0.0807447
50
285.4398289
51
316.5320129
0
ARC
8
DEFAULT_255_1_388
10
20.5536506
20
71.4022023
40
0.1237022
50
272.3543902
51
285.8951677
0
ARC
8
DEFAULT_255_1_388
10
20.5506216
20
71.4437742
40
0.1653687
50
269.9725761
51
272.8112722
0
ARC
8
DEFAULT_255_1_388
10
20.5495268
20
71.4186727
40
0.1402709
50
258.8433431
51
270.4148607
0
ARC
8
DEFAULT_255_1_388
10
20.5394048
20
71.3696739
40
0.0902407
50
238.54281
51
259.1289544
0
ARC
8
DEFAULT_255_1_388
10
20.531737
20
71.3557694
40
0.0743817
50
222.5056676
51
237.9918132
0
ARC
8
DEFAULT_255_1_388
10
20.5460963
20
71.3688295
40
0.0937918
50
184.1070774
51
222.4604165
0
ARC
8
DEFAULT_255_1_388
10
20.5763377
20
71.3731538
40
0.1242838
50
179.9419581
51
185.0970785
0
LINE
8
DEFAULT_255_1_388
10
21.014071
20
71.1139567
11
21.2282158
21
70.7570488
0
LINE
8
DEFAULT_255_1_388
10
21.2282158
20
70.7570488
11
21.4450713
21
71.1139567
0
LINE
8
DEFAULT_255_1_388
10
21.4450713
20
71.1139567
11
21.6402412
21
71.1139567
0
LINE
8
DEFAULT_255_1_388
10
21.6402412
20
71.1139567
11
21.3203794
21
70.6305498
0
LINE
8
DEFAULT_255_1_388
10
21.3203794
20
70.6305498
11
21.6501804
21
70.1363
0
LINE
8
DEFAULT_255_1_388
10
21.6501804
20
70.1363
11
21.4568176
21
70.1363
0
LINE
8
DEFAULT_255_1_388
10
21.4568176
20
70.1363
11
21.2309265
21
70.5022436
0
LINE
8
DEFAULT_255_1_388
10
21.2309265
20
70.5022436
11
21.0050354
21
70.1363
0
LINE
8
DEFAULT_255_1_388
10
21.0050354
20
70.1363
11
20.810769
21
70.1363
0
LINE
8
DEFAULT_255_1_388
10
20.810769
20
70.1363
11
21.1405701
21
70.6305498
0
LINE
8
DEFAULT_255_1_388
10
21.1405701
20
70.6305498
11
20.8207083
21
71.1139567
0
LINE
8
DEFAULT_255_1_388
10
20.8207083
20
71.1139567
11
21.014071
21
71.1139567
0
LINE
8
DEFAULT_255_2_778
10
9.3932417
20
60.7218492
11
10.7161417
21
60.7218492
0
LINE
8
DEFAULT_255_2_778
10
10.7161417
20
60.7218492
11
10.7161417
21
35.5864492
0
LINE
8
DEFAULT_255_2_778
10
10.7161417
20
30.2947492
11
10.7161417
21
5.1593492
0
LINE
8
DEFAULT_255_2_778
10
10.7161417
20
5.1593492
11
9.3932417
21
5.1593492
0
LINE
8
DEFAULT_255_2_778
10
9.3932834
20
35.5864333
11
12.0390834
21
35.5864333
0
LINE
8
DEFAULT_255_2_778
10
12.0390834
20
35.5864333
11
12.0390834
21
30.2947333
0
LINE
8
DEFAULT_255_2_778
10
12.0390834
20
30.2947333
11
9.3932834
21
30.2947333
0
LINE
8
DEFAULT_255_2_778
10
9.3932834
20
30.2947333
11
9.3932834
21
35.5864333
0
LINE
8
DEFAULT_255_2_778
10
10.187
20
30.8239666
11
10.187
21
35.0572666
0
LINE
8
DEFAULT_255_2_778
10
9.9224167
20
34.263575
11
10.1870167
21
35.057275
0
LINE
8
DEFAULT_255_2_778
10
10.1870167
20
35.057275
11
10.4516167
21
34.263575
0
LINE
8
DEFAULT_255_2_778
10
10.4516167
20
34.263575
11
9.9224167
21
34.263575
0
LINE
8
DEFAULT_255_2_778
10
11.2453
20
35.0572666
11
11.2453
21
30.8239666
0
LINE
8
DEFAULT_255_2_778
10
10.9807167
20
31.617675
11
11.2453167
21
30.823975
0
LINE
8
DEFAULT_255_2_778
10
11.2453167
20
30.823975
11
11.5099167
21
31.617675
0
LINE
8
DEFAULT_255_2_778
10
11.5099167
20
31.617675
11
10.9807167
21
31.617675
0
LINE
8
DEFAULT_255_2_778
10
18.6536417
20
30.2947492
11
18.6536417
21
5.1593492
0
LINE
8
DEFAULT_255_2_778
10
18.6536417
20
5.1593492
11
19.9765417
21
5.1593492
0
LINE
8
DEFAULT_255_2_778
10
19.9765417
20
60.7218492
11
18.6536417
21
60.7218492
0
LINE
8
DEFAULT_255_2_778
10
18.6536417
20
60.7218492
11
18.6536417
21
35.5864492
0
LINE
8
DEFAULT_255_2_778
10
17.3307834
20
35.5864333
11
19.9765834
21
35.5864333
0
LINE
8
DEFAULT_255_2_778
10
19.9765834
20
35.5864333
11
19.9765834
21
30.2947333
0
LINE
8
DEFAULT_255_2_778
10
19.9765834
20
30.2947333
11
17.3307834
21
30.2947333
0
LINE
8
DEFAULT_255_2_778
10
17.3307834
20
30.2947333
11
17.3307834
21
35.5864333
0
LINE
8
DEFAULT_255_2_778
10
18.1245
20
30.8239666
11
18.1245
21
35.0572666
0
LINE
8
DEFAULT_255_2_778
10
17.8599167
20
34.263575
11
18.1245167
21
35.057275
0
LINE
8
DEFAULT_255_2_778
10
18.1245167
20
35.057275
11
18.3891167
21
34.263575
0
LINE
8
DEFAULT_255_2_778
10
18.3891167
20
34.263575
11
17.8599167
21
34.263575
0
LINE
8
DEFAULT_255_2_778
10
19.1828
20
35.0572666
11
19.1828
21
30.8239666
0
LINE
8
DEFAULT_255_2_778
10
18.9182167
20
31.617675
11
19.1828167
21
30.823975
0
LINE
8
DEFAULT_255_2_778
10
19.1828167
20
30.823975
11
19.4474167
21
31.617675
0
LINE
8
DEFAULT_255_2_778
10
19.4474167
20
31.617675
11
18.9182167
21
31.617675
0
LINE
8
DEFAULT_255_1_388
10
4.8809318
20
68.2883382
11
4.8809318
21
68.1519
0
LINE
8
DEFAULT_255_1_388
10
4.8809318
20
68.1519
11
4.0189313
21
68.1519
0
LINE
8
DEFAULT_255_1_388
10
4.0189313
20
68.1519
11
4.0189313
21
68.2720741
0
LINE
8
DEFAULT_255_1_388
10
4.0189313
20
68.2720741
11
4.4743278
21
68.7780702
0
LINE
8
DEFAULT_255_1_388
10
4.1607909
20
69.0798607
11
3.9936315
21
69.0798607
0
LINE
8
DEFAULT_255_1_388
10
4.5728163
20
68.670546
11
4.2204262
21
68.2883382
0
LINE
8
DEFAULT_255_1_388
10
4.2204262
20
68.2883382
11
4.8809318
21
68.2883382
0
ARC
8
DEFAULT_255_1_388
10
2.9567337
20
70.1200983
40
2.0258655
50
318.5132526
51
320.7829045
0
ARC
8
DEFAULT_255_1_388
10
3.5515294
20
69.6359929
40
1.2589638
50
320.7372878
51
323.9739031
0
ARC
8
DEFAULT_255_1_388
10
3.9924226
20
69.3165554
40
0.7145141
50
323.8962701
51
328.64194
0
ARC
8
DEFAULT_255_1_388
10
4.2226484
20
69.1745545
40
0.4440242
50
328.8294576
51
331.7891185
0
ARC
8
DEFAULT_255_1_388
10
4.3348804
20
69.1166374
40
0.3177517
50
331.4254512
51
352.9365785
0
ARC
8
DEFAULT_255_1_388
10
4.3501804
20
69.113205
40
0.3021496
50
353.2257659
51
0.0166158
0
ARC
8
DEFAULT_255_1_388
10
4.3738564
20
69.1157894
40
0.2784847
50
359.486299
51
15.9343185
0
ARC
8
DEFAULT_255_1_388
10
4.4308831
20
69.1311269
40
0.2194403
50
16.1712913
51
43.5286088
0
ARC
8
DEFAULT_255_1_388
10
4.4395776
20
69.1398191
40
0.2071504
50
43.4417391
51
83.1661095
0
ARC
8
DEFAULT_255_1_388
10
4.4244937
20
69.0569316
40
0.2912888
50
82.160179
51
90.1505708
0
ARC
8
DEFAULT_255_1_388
10
4.4209418
20
68.9965279
40
0.3517025
50
89.5460741
51
102.5418361
0
ARC
8
DEFAULT_255_1_388
10
4.3936138
20
69.1124933
40
0.2325748
50
102.1738499
51
129.206123
0
ARC
8
DEFAULT_255_1_388
10
4.3847592
20
69.1264664
40
0.2161591
50
129.72865
51
135.753947
0
ARC
8
DEFAULT_255_1_388
10
4.3984074
20
69.1155728
40
0.2335433
50
136.1757367
51
166.3673339
0
ARC
8
DEFAULT_255_1_388
10
4.5116762
20
69.0852148
40
0.3507873
50
165.9090694
51
178.8684636
0
ARC
8
DEFAULT_255_1_388
10
4.6092534
20
69.0799263
40
0.4484624
50
178.4391136
51
180.0083808
0
ARC
8
DEFAULT_255_1_388
10
4.4513235
20
69.0843197
40
0.4577138
50
163.2878482
51
180.5581842
0
ARC
8
DEFAULT_255_1_388
10
4.3611276
20
69.1091393
40
0.3641968
50
133.4540601
51
162.947111
0
ARC
8
DEFAULT_255_1_388
10
4.3812158
20
69.0877789
40
0.3935189
50
100.7869829
51
133.4382499
0
ARC
8
DEFAULT_255_1_388
10
4.4203403
20
68.9135399
40
0.5720313
50
89.660664
51
101.3702276
0
ARC
8
DEFAULT_255_1_388
10
4.4278012
20
68.9204263
40
0.5651495
50
78.2172678
51
90.412935
0
ARC
8
DEFAULT_255_1_388
10
4.4677478
20
69.1031511
40
0.378122
50
55.9269121
51
78.4888449
0
ARC
8
DEFAULT_255_1_388
10
4.4898193
20
69.1412187
40
0.3342379
50
47.929771
51
55.4049217
0
ARC
8
DEFAULT_255_1_388
10
4.5012723
20
69.1528618
40
0.3179217
50
4.334829
51
48.0560205
0
ARC
8
DEFAULT_255_1_388
10
4.3780525
20
69.1337487
40
0.442341
50
359.9251713
51
5.5971671
0
ARC
8
DEFAULT_255_1_388
10
4.426268
20
69.1400728
40
0.3941854
50
337.8914027
51
358.9967534
0
ARC
8
DEFAULT_255_1_388
10
4.121025
20
69.2578295
40
0.7213271
50
326.9132501
51
338.3508308
0
ARC
8
DEFAULT_255_1_388
10
3.6726362
20
69.5452105
40
1.2538973
50
319.6471833
51
327.0959558
0
ARC
8
DEFAULT_255_1_388
10
3.241302
20
69.901005
40
1.8129975
50
317.2588228
51
319.9045804
0
LINE
8
DEFAULT_255_1_388
10
5.7637143
20
69.4674898
11
5.7637143
21
68.593743
0
LINE
8
DEFAULT_255_1_388
10
5.7637143
20
68.593743
11
5.9462343
21
68.593743
0
LINE
8
DEFAULT_255_1_388
10
5.9462343
20
68.593743
11
5.9462343
21
68.4573048
0
LINE
8
DEFAULT_255_1_388
10
5.9462343
20
68.4573048
11
5.7637143
21
68.4573048
0
LINE
8
DEFAULT_255_1_388
10
5.7637143
20
68.4573048
11
5.7637143
21
68.1519
0
LINE
8
DEFAULT_255_1_388
10
5.7637143
20
68.1519
11
5.5956513
21
68.1519
0
LINE
8
DEFAULT_255_1_388
10
5.5956513
20
68.1519
11
5.5956513
21
68.4573048
0
LINE
8
DEFAULT_255_1_388
10
5.5956513
20
68.4573048
11
4.996588
21
68.4573048
0
LINE
8
DEFAULT_255_1_388
10
4.996588
20
68.4573048
11
4.996588
21
68.5557933
0
LINE
8
DEFAULT_255_1_388
10
4.996588
20
68.5557933
11
5.5857121
21
69.4674898
0
LINE
8
DEFAULT_255_1_388
10
5.5857121
20
69.4674898
11
5.7637143
21
69.4674898
0
LINE
8
DEFAULT_255_1_388
10
5.5757729
20
69.2027455
11
5.1863366
21
68.593743
0
LINE
8
DEFAULT_255_1_388
10
5.1863366
20
68.593743
11
5.5956513
21
68.593743
0
LINE
8
DEFAULT_255_1_388
10
5.5956513
20
68.593743
11
5.5956513
21
69.238888
0
LINE
8
DEFAULT_255_1_388
10
5.5956513
20
69.238888
11
5.5757729
21
69.2027455
0
LINE
8
DEFAULT_255_1_388
10
6.201943
20
69.4674898
11
6.5760187
21
68.3823089
0
LINE
8
DEFAULT_255_1_388
10
6.5760187
20
68.3823089
11
6.9519015
21
69.4674898
0
LINE
8
DEFAULT_255_1_388
10
6.9519015
20
69.4674898
11
7.14165
21
69.4674898
0
LINE
8
DEFAULT_255_1_388
10
7.14165
20
69.4674898
11
6.6537252
21
68.1519
0
LINE
8
DEFAULT_255_1_388
10
6.6537252
20
68.1519
11
6.5001193
21
68.1519
0
LINE
8
DEFAULT_255_1_388
10
6.5001193
20
68.1519
11
6.013098
21
69.4674898
0
LINE
8
DEFAULT_255_1_388
10
6.013098
20
69.4674898
11
6.201943
21
69.4674898
0
LINE
8
DEFAULT_255_1_388
10
4.3625389
20
4.6519
11
3.9984024
21
4.6519
0
LINE
8
DEFAULT_255_1_388
10
3.9984024
20
4.6519
11
3.9984024
21
5.9674898
0
LINE
8
DEFAULT_255_1_388
10
3.9984024
20
5.9674898
11
4.3697674
21
5.9674898
0
LINE
8
DEFAULT_255_1_388
10
4.9498558
20
5.3539696
11
4.9498558
21
5.2699381
0
LINE
8
DEFAULT_255_1_388
10
4.3742852
20
5.8247267
11
4.1718868
21
5.8247267
0
LINE
8
DEFAULT_255_1_388
10
4.1718868
20
5.8247267
11
4.1718868
21
4.7937596
0
LINE
8
DEFAULT_255_1_388
10
4.1718868
20
4.7937596
11
4.3544068
21
4.7937596
0
LINE
8
DEFAULT_255_1_388
10
4.7781785
20
5.2735523
11
4.7781785
21
5.3503553
0
ARC
8
DEFAULT_255_1_388
10
4.3741469
20
5.3076436
40
0.6598608
50
75.4100343
51
90.3802731
0
ARC
8
DEFAULT_255_1_388
10
4.3999714
20
5.4152691
40
0.5492049
50
60.1455157
51
75.1889627
0
ARC
8
DEFAULT_255_1_388
10
4.4178306
20
5.4463914
40
0.5133226
50
26.525419
51
60.1451222
0
ARC
8
DEFAULT_255_1_388
10
4.2918092
20
5.3795642
40
0.6559324
50
7.4029944
51
26.832209
0
ARC
8
DEFAULT_255_1_388
10
4.1124489
20
5.3516229
40
0.8374103
50
0.1605597
51
7.7176135
0
ARC
8
DEFAULT_255_1_388
10
4.1308889
20
5.2656321
40
0.8189782
50
348.7289744
51
0.30125
0
ARC
8
DEFAULT_255_1_388
10
4.3172353
20
5.2286156
40
0.628991
50
333.0706936
51
348.7181455
0
ARC
8
DEFAULT_255_1_388
10
4.4259981
20
5.1695449
40
0.5052808
50
299.2531435
51
333.4571133
0
ARC
8
DEFAULT_255_1_388
10
4.3854012
20
5.2466629
40
0.5924066
50
278.1072193
51
299.0340218
0
ARC
8
DEFAULT_255_1_388
10
4.3566061
20
5.4162979
40
0.7644209
50
270.4446841
51
278.4508355
0
ARC
8
DEFAULT_255_1_388
10
4.3589545
20
5.31173
40
0.5179903
50
269.4969684
51
284.0204874
0
ARC
8
DEFAULT_255_1_388
10
4.3989263
20
5.1581415
40
0.3592968
50
283.7699076
51
318.1557121
0
ARC
8
DEFAULT_255_1_388
10
4.3609808
20
5.1865399
40
0.4065308
50
318.7417595
51
343.687252
0
ARC
8
DEFAULT_255_1_388
10
4.1580387
20
5.2499275
40
0.6191194
50
343.3324891
51
355.8548594
0
ARC
8
DEFAULT_255_1_388
10
3.9219424
20
5.2723719
40
0.856237
50
355.4988754
51
0.0789913
0
ARC
8
DEFAULT_255_1_388
10
4.0100224
20
5.355108
40
0.7681709
50
359.6455047
51
9.8607559
0
ARC
8
DEFAULT_255_1_388
10
4.2755947
20
5.4030664
40
0.498312
50
9.6573037
51
26.1931522
0
ARC
8
DEFAULT_255_1_388
10
4.3800022
20
5.4515587
40
0.3832303
50
26.5777895
51
40.1533752
0
ARC
8
DEFAULT_255_1_388
10
4.4087687
20
5.474002
40
0.3467742
50
40.3839958
51
80.1430923
0
ARC
8
DEFAULT_255_1_388
10
4.3719942
20
5.3109486
40
0.5137832
50
79.2153636
51
89.7445174
0
LINE
8
DEFAULT_255_1_388
10
6.005219
20
5.0693468
11
6.179607
21
5.0693468
0
LINE
8
DEFAULT_255_1_388
10
5.1667112
20
5.2482525
11
5.1667112
21
5.3747516
0
LINE
8
DEFAULT_255_1_388
10
6.179607
20
5.5446217
11
6.005219
21
5.5446217
0
LINE
8
DEFAULT_255_1_388
10
5.3410992
20
5.3702337
11
5.3410992
21
5.2428312
0
ARC
8
DEFAULT_255_1_388
10
5.5630304
20
5.1365329
40
0.6202263
50
340.1774904
51
353.7812217
0
ARC
8
DEFAULT_255_1_388
10
5.7398157
20
5.0706893
40
0.4315926
50
311.4560052
51
340.4420756
0
ARC
8
DEFAULT_255_1_388
10
5.7360696
20
5.0831665
40
0.4434573
50
282.4332229
51
310.7514507
0
ARC
8
DEFAULT_255_1_388
10
5.6866514
20
5.2873703
40
0.6535262
50
269.9358869
51
282.8096729
0
ARC
8
DEFAULT_255_1_388
10
5.6808454
20
5.4386329
40
0.8048043
50
269.9995752
51
270.3612856
0
ARC
8
DEFAULT_255_1_388
10
5.6748944
20
5.1587781
40
0.5249831
50
250.7885263
51
270.6488451
0
ARC
8
DEFAULT_255_1_388
10
5.6559768
20
5.0870853
40
0.4510942
50
219.3628377
51
250.0611024
0
ARC
8
DEFAULT_255_1_388
10
5.7492643
20
5.1663653
40
0.5735046
50
193.5480293
51
219.5755675
0
ARC
8
DEFAULT_255_1_388
10
6.0160852
20
5.235652
40
0.849146
50
181.1220183
51
193.8754971
0
ARC
8
DEFAULT_255_1_388
10
6.2484085
20
5.2480914
40
1.0816971
50
179.9914644
51
181.5398227
0
ARC
8
DEFAULT_255_1_388
10
6.0407395
20
5.3789586
40
0.8740384
50
169.5837606
51
180.275782
0
ARC
8
DEFAULT_255_1_388
10
5.8340743
20
5.4171439
40
0.6638751
50
155.0367033
51
169.6002779
0
ARC
8
DEFAULT_255_1_388
10
5.7063202
20
5.4787336
40
0.5220662
50
136.7831557
51
155.2472983
0
ARC
8
DEFAULT_255_1_388
10
5.6624992
20
5.5159577
40
0.4646502
50
121.7633063
51
136.4281161
0
ARC
8
DEFAULT_255_1_388
10
5.6776832
20
5.4879049
40
0.4964979
50
95.6460018
51
121.5489589
0
ARC
8
DEFAULT_255_1_388
10
5.6953807
20
5.3631704
40
0.6223912
50
89.9245727
51
96.1375919
0
ARC
8
DEFAULT_255_1_388
10
5.7010512
20
5.3765721
40
0.6090084
50
76.6779212
51
90.456405
0
ARC
8
DEFAULT_255_1_388
10
5.7453324
20
5.555506
40
0.42469
50
47.4858803
51
76.9287069
0
ARC
8
DEFAULT_255_1_388
10
5.7287938
20
5.5442623
40
0.4441778
50
16.5424081
51
46.8934505
0
ARC
8
DEFAULT_255_1_388
10
5.5478988
20
5.4848265
40
0.6345318
50
5.4072971
51
17.0363711
0
ARC
8
DEFAULT_255_1_388
10
5.3860713
20
5.4588304
40
0.6250632
50
7.8888693
51
15.9242022
0
ARC
8
DEFAULT_255_1_388
10
5.6095699
20
5.5237309
40
0.3923364
50
15.7650676
51
27.9410069
0
ARC
8
DEFAULT_255_1_388
10
5.7337868
20
5.5902317
40
0.2514401
50
27.8167196
51
46.4007942
0
ARC
8
DEFAULT_255_1_388
10
5.7393709
20
5.5895882
40
0.2480958
50
47.4372362
51
75.0695672
0
ARC
8
DEFAULT_255_1_388
10
5.7046545
20
5.4687277
40
0.3738281
50
74.7009379
51
87.8124314
0
ARC
8
DEFAULT_255_1_388
10
5.6964162
20
5.3503659
40
0.4924321
50
87.3802571
51
90.0251599
0
ARC
8
DEFAULT_255_1_388
10
5.692081
20
5.4823997
40
0.3604218
50
89.3451886
51
108.5744412
0
ARC
8
DEFAULT_255_1_388
10
5.6766802
20
5.5401836
40
0.3007661
50
109.2998307
51
143.3037387
0
ARC
8
DEFAULT_255_1_388
10
5.7624092
20
5.4742584
40
0.4089031
50
143.075267
51
163.1918576
0
ARC
8
DEFAULT_255_1_388
10
5.9819926
20
5.4049652
40
0.6391492
50
162.9375929
51
174.6208776
0
ARC
8
DEFAULT_255_1_388
10
6.2774308
20
5.3725711
40
0.9363344
50
174.342123
51
180.1430283
0
ARC
8
DEFAULT_255_1_388
10
6.1726849
20
5.2382117
40
0.8315986
50
179.6817261
51
189.150555
0
ARC
8
DEFAULT_255_1_388
10
5.8913598
20
5.1913559
40
0.5464044
50
188.9911061
51
203.5772363
0
ARC
8
DEFAULT_255_1_388
10
5.769889
20
5.1409539
40
0.4149206
50
203.9075402
51
215.1312435
0
ARC
8
DEFAULT_255_1_388
10
5.6660687
20
5.0604907
40
0.2837747
50
213.9071511
51
263.8848919
0
ARC
8
DEFAULT_255_1_388
10
5.6801681
20
5.1487519
40
0.3730641
50
263.1757928
51
270.1031044
0
ARC
8
DEFAULT_255_1_388
10
5.683776
20
5.2890511
40
0.5133712
50
269.6722503
51
279.0606936
0
ARC
8
DEFAULT_255_1_388
10
5.7137916
20
5.107615
40
0.3294739
50
278.8749101
51
293.6349581
0
ARC
8
DEFAULT_255_1_388
10
5.7498119
20
5.0230251
40
0.2375405
50
293.8553806
51
310.0518171
0
ARC
8
DEFAULT_255_1_388
10
5.7503628
20
5.0160021
40
0.2318463
50
311.0644687
51
332.0111037
0
ARC
8
DEFAULT_255_1_388
10
5.6162302
20
5.0899702
40
0.3850112
50
331.6586806
51
343.2877423
0
ARC
8
DEFAULT_255_1_388
10
5.3841767
20
5.1612806
40
0.6277712
50
343.1446576
51
351.0103568
0
ARC
8
DEFAULT_255_1_388
10
5.220909
20
5.1912873
40
0.7937327
50
350.71248
51
351.1626997
0
LINE
8
DEFAULT_255_1_388
10
7.2223204
20
5.9674898
11
7.2223204
21
5.8735191
0
LINE
8
DEFAULT_255_1_388
10
7.2223204
20
5.8735191
11
6.677471
21
4.6519
0
LINE
8
DEFAULT_255_1_388
10
6.677471
20
4.6519
11
6.5021795
21
4.6519
0
LINE
8
DEFAULT_255_1_388
10
6.5021795
20
4.6519
11
7.0452217
21
5.830148
0
LINE
8
DEFAULT_255_1_388
10
7.0452217
20
5.830148
11
6.3332129
21
5.830148
0
LINE
8
DEFAULT_255_1_388
10
6.3332129
20
5.830148
11
6.3332129
21
5.9674898
0
LINE
8
DEFAULT_255_1_388
10
6.3332129
20
5.9674898
11
7.2223204
21
5.9674898
0
LINE
8
DEFAULT_255_1_388
10
4.3625389
20
12.5894
11
3.9984024
21
12.5894
0
LINE
8
DEFAULT_255_1_388
10
3.9984024
20
12.5894
11
3.9984024
21
13.9049898
0
LINE
8
DEFAULT_255_1_388
10
3.9984024
20
13.9049898
11
4.3697674
21
13.9049898
0
LINE
8
DEFAULT_255_1_388
10
4.9498558
20
13.2914696
11
4.9498558
21
13.2074381
0
LINE
8
DEFAULT_255_1_388
10
4.3742852
20
13.7622267
11
4.1718868
21
13.7622267
0
LINE
8
DEFAULT_255_1_388
10
4.1718868
20
13.7622267
11
4.1718868
21
12.7312596
0
LINE
8
DEFAULT_255_1_388
10
4.1718868
20
12.7312596
11
4.3544068
21
12.7312596
0
LINE
8
DEFAULT_255_1_388
10
4.7781785
20
13.2110523
11
4.7781785
21
13.2878553
0
ARC
8
DEFAULT_255_1_388
10
4.3741469
20
13.2451436
40
0.6598608
50
75.4100343
51
90.3802731
0
ARC
8
DEFAULT_255_1_388
10
4.3999714
20
13.3527691
40
0.5492049
50
60.1455157
51
75.1889627
0
ARC
8
DEFAULT_255_1_388
10
4.4178306
20
13.3838914
40
0.5133226
50
26.525419
51
60.1451222
0
ARC
8
DEFAULT_255_1_388
10
4.2918092
20
13.3170642
40
0.6559324
50
7.4029944
51
26.832209
0
ARC
8
DEFAULT_255_1_388
10
4.1124489
20
13.2891229
40
0.8374103
50
0.1605597
51
7.7176135
0
ARC
8
DEFAULT_255_1_388
10
4.1308889
20
13.2031321
40
0.8189782
50
348.7289744
51
0.30125
0
ARC
8
DEFAULT_255_1_388
10
4.3172353
20
13.1661156
40
0.628991
50
333.0706936
51
348.7181455
0
ARC
8
DEFAULT_255_1_388
10
4.4259981
20
13.1070449
40
0.5052808
50
299.2531435
51
333.4571133
0
ARC
8
DEFAULT_255_1_388
10
4.3854012
20
13.1841629
40
0.5924066
50
278.1072193
51
299.0340218
0
ARC
8
DEFAULT_255_1_388
10
4.3566061
20
13.3537979
40
0.7644209
50
270.4446841
51
278.4508355
0
ARC
8
DEFAULT_255_1_388
10
4.3589545
20
13.24923
40
0.5179903
50
269.4969684
51
284.0204874
0
ARC
8
DEFAULT_255_1_388
10
4.3989263
20
13.0956415
40
0.3592968
50
283.7699076
51
318.1557121
0
ARC
8
DEFAULT_255_1_388
10
4.3609808
20
13.1240399
40
0.4065308
50
318.7417595
51
343.687252
0
ARC
8
DEFAULT_255_1_388
10
4.1580387
20
13.1874275
40
0.6191194
50
343.3324891
51
355.8548594
0
ARC
8
DEFAULT_255_1_388
10
3.9219424
20
13.2098719
40
0.856237
50
355.4988754
51
0.0789913
0
ARC
8
DEFAULT_255_1_388
10
4.0100224
20
13.292608
40
0.7681709
50
359.6455047
51
9.8607559
0
ARC
8
DEFAULT_255_1_388
10
4.2755947
20
13.3405664
40
0.498312
50
9.6573037
51
26.1931522
0
ARC
8
DEFAULT_255_1_388
10
4.3800022
20
13.3890587
40
0.3832303
50
26.5777895
51
40.1533752
0
ARC
8
DEFAULT_255_1_388
10
4.4087687
20
13.411502
40
0.3467742
50
40.3839958
51
80.1430923
0
ARC
8
DEFAULT_255_1_388
10
4.3719942
20
13.2484486
40
0.5137832
50
79.2153636
51
89.7445174
0
LINE
8
DEFAULT_255_1_388
10
6.005219
20
13.0068468
11
6.179607
21
13.0068468
0
LINE
8
DEFAULT_255_1_388
10
5.1667112
20
13.1857525
11
5.1667112
21
13.3122516
0
LINE
8
DEFAULT_255_1_388
10
6.179607
20
13.4821217
11
6.005219
21
13.4821217
0
LINE
8
DEFAULT_255_1_388
10
5.3410992
20
13.3077337
11
5.3410992
21
13.1803312
0
ARC
8
DEFAULT_255_1_388
10
5.5630304
20
13.0740329
40
0.6202263
50
340.1774904
51
353.7812217
0
ARC
8
DEFAULT_255_1_388
10
5.7398157
20
13.0081893
40
0.4315926
50
311.4560052
51
340.4420756
0
ARC
8
DEFAULT_255_1_388
10
5.7360696
20
13.0206665
40
0.4434573
50
282.4332229
51
310.7514507
0
ARC
8
DEFAULT_255_1_388
10
5.6866514
20
13.2248703
40
0.6535262
50
269.9358869
51
282.8096729
0
ARC
8
DEFAULT_255_1_388
10
5.6808454
20
13.3761329
40
0.8048043
50
269.9995752
51
270.3612856
0
ARC
8
DEFAULT_255_1_388
10
5.6748944
20
13.0962781
40
0.5249831
50
250.7885263
51
270.6488451
0
ARC
8
DEFAULT_255_1_388
10
5.6559768
20
13.0245853
40
0.4510942
50
219.3628377
51
250.0611024
0
ARC
8
DEFAULT_255_1_388
10
5.7492643
20
13.1038653
40
0.5735046
50
193.5480293
51
219.5755675
0
ARC
8
DEFAULT_255_1_388
10
6.0160852
20
13.173152
40
0.849146
50
181.1220183
51
193.8754971
0
ARC
8
DEFAULT_255_1_388
10
6.2484085
20
13.1855914
40
1.0816971
50
179.9914644
51
181.5398227
0
ARC
8
DEFAULT_255_1_388
10
6.0407395
20
13.3164586
40
0.8740384
50
169.5837606
51
180.275782
0
ARC
8
DEFAULT_255_1_388
10
5.8340743
20
13.3546439
40
0.6638751
50
155.0367033
51
169.6002779
0
ARC
8
DEFAULT_255_1_388
10
5.7063202
20
13.4162336
40
0.5220662
50
136.7831557
51
155.2472983
0
ARC
8
DEFAULT_255_1_388
10
5.6624992
20
13.4534577
40
0.4646502
50
121.7633063
51
136.4281161
0
ARC
8
DEFAULT_255_1_388
10
5.6776832
20
13.4254049
40
0.4964979
50
95.6460018
51
121.5489589
0
ARC
8
DEFAULT_255_1_388
10
5.6953807
20
13.3006704
40
0.6223912
50
89.9245727
51
96.1375919
0
ARC
8
DEFAULT_255_1_388
10
5.7010512
20
13.3140721
40
0.6090084
50
76.6779212
51
90.456405
0
ARC
8
DEFAULT_255_1_388
10
5.7453324
20
13.493006
40
0.42469
50
47.4858803
51
76.9287069
0
ARC
8
DEFAULT_255_1_388
10
5.7287938
20
13.4817623
40
0.4441778
50
16.5424081
51
46.8934505
0
ARC
8
DEFAULT_255_1_388
10
5.5478988
20
13.4223265
40
0.6345318
50
5.4072971
51
17.0363711
0
ARC
8
DEFAULT_255_1_388
10
5.3860713
20
13.3963304
40
0.6250632
50
7.8888693
51
15.9242022
0
ARC
8
DEFAULT_255_1_388
10
5.6095699
20
13.4612309
40
0.3923364
50
15.7650676
51
27.9410069
0
ARC
8
DEFAULT_255_1_388
10
5.7337868
20
13.5277317
40
0.2514401
50
27.8167196
51
46.4007942
0
ARC
8
DEFAULT_255_1_388
10
5.7393709
20
13.5270882
40
0.2480958
50
47.4372362
51
75.0695672
0
ARC
8
DEFAULT_255_1_388
10
5.7046545
20
13.4062277
40
0.3738281
50
74.7009379
51
87.8124314
0
ARC
8
DEFAULT_255_1_388
10
5.6964162
20
13.2878659
40
0.4924321
50
87.3802571
51
90.0251599
0
ARC
8
DEFAULT_255_1_388
10
5.692081
20
13.4198997
40
0.3604218
50
89.3451886
51
108.5744412
0
ARC
8
DEFAULT_255_1_388
10
5.6766802
20
13.4776836
40
0.3007661
50
109.2998307
51
143.3037387
0
ARC
8
DEFAULT_255_1_388
10
5.7624092
20
13.4117584
40
0.4089031
50
143.075267
51
163.1918576
0
ARC
8
DEFAULT_255_1_388
10
5.9819926
20
13.3424652
40
0.6391492
50
162.9375929
51
174.6208776
0
ARC
8
DEFAULT_255_1_388
10
6.2774308
20
13.3100711
40
0.9363344
50
174.342123
51
180.1430283
0
ARC
8
DEFAULT_255_1_388
10
6.1726849
20
13.1757117
40
0.8315986
50
179.6817261
51
189.150555
0
ARC
8
DEFAULT_255_1_388
10
5.8913598
20
13.1288559
40
0.5464044
50
188.9911061
51
203.5772363
0
ARC
8
DEFAULT_255_1_388
10
5.769889
20
13.0784539
40
0.4149206
50
203.9075402
51
215.1312435
0
ARC
8
DEFAULT_255_1_388
10
5.6660687
20
12.9979907
40
0.2837747
50
213.9071511
51
263.8848919
0
ARC
8
DEFAULT_255_1_388
10
5.6801681
20
13.0862519
40
0.3730641
50
263.1757928
51
270.1031044
0
ARC
8
DEFAULT_255_1_388
10
5.683776
20
13.2265511
40
0.5133712
50
269.6722503
51
279.0606936
0
ARC
8
DEFAULT_255_1_388
10
5.7137916
20
13.045115
40
0.3294739
50
278.8749101
51
293.6349581
0
ARC
8
DEFAULT_255_1_388
10
5.7498119
20
12.9605251
40
0.2375405
50
293.8553806
51
310.0518171
0
ARC
8
DEFAULT_255_1_388
10
5.7503628
20
12.9535021
40
0.2318463
50
311.0644687
51
332.0111037
0
ARC
8
DEFAULT_255_1_388
10
5.6162302
20
13.0274702
40
0.3850112
50
331.6586806
51
343.2877423
0
ARC
8
DEFAULT_255_1_388
10
5.3841767
20
13.0987806
40
0.6277712
50
343.1446576
51
351.0103568
0
ARC
8
DEFAULT_255_1_388
10
5.220909
20
13.1287873
40
0.7937327
50
350.71248
51
351.1626997
0
LINE
8
DEFAULT_255_1_388
10
6.9991399
20
13.9058934
11
7.0289576
21
13.9058934
0
LINE
8
DEFAULT_255_1_388
10
7.0289576
20
13.9058934
11
7.0289576
21
13.7640338
0
LINE
8
DEFAULT_255_1_388
10
7.0289576
20
13.7640338
11
6.9982364
21
13.7640338
0
LINE
8
DEFAULT_255_1_388
10
6.382909
20
13.0899747
11
6.382909
21
13.1541278
0
LINE
8
DEFAULT_255_1_388
10
6.550972
20
13.1324422
11
6.550972
21
13.0709999
0
ARC
8
DEFAULT_255_1_388
10
7.0041255
20
13.2017826
40
0.562282
50
90.6001079
51
104.5146616
0
ARC
8
DEFAULT_255_1_388
10
6.9604215
20
13.36431
40
0.3939917
50
104.2855758
51
133.8630124
0
ARC
8
DEFAULT_255_1_388
10
6.9788468
20
13.3521243
40
0.4155734
50
134.5304124
51
161.6210222
0
ARC
8
DEFAULT_255_1_388
10
7.16484
20
13.2865421
40
0.6127682
50
161.2850533
51
174.2074364
0
ARC
8
DEFAULT_255_1_388
10
7.3237967
20
13.2646437
40
0.7731446
50
173.7817938
51
174.9251711
0
ARC
8
DEFAULT_255_1_388
10
6.811216
20
13.109127
40
0.3412588
50
95.8332067
51
138.995412
0
ARC
8
DEFAULT_255_1_388
10
6.836344
20
12.9652695
40
0.4870358
50
89.8755506
51
97.0540979
0
ARC
8
DEFAULT_255_1_388
10
6.841683
20
13.0592841
40
0.3930432
50
71.6407016
51
90.6240821
0
ARC
8
DEFAULT_255_1_388
10
6.8586223
20
13.1216433
40
0.3285421
50
39.6368051
51
71.0190743
0
ARC
8
DEFAULT_255_1_388
10
6.7870131
20
13.0597586
40
0.4231706
50
10.6588054
51
39.9044509
0
ARC
8
DEFAULT_255_1_388
10
6.6128676
20
13.0219223
40
0.60133
50
359.6827842
51
11.1326896
0
ARC
8
DEFAULT_255_1_388
10
6.6084012
20
13.0139715
40
0.6058047
50
347.2485908
51
0.4371098
0
ARC
8
DEFAULT_255_1_388
10
6.7959797
20
12.9688379
40
0.4128987
50
318.1408565
51
347.6118497
0
ARC
8
DEFAULT_255_1_388
10
6.8325394
20
12.9387903
40
0.3656244
50
275.6342406
51
317.824739
0
ARC
8
DEFAULT_255_1_388
10
6.8076915
20
13.0849827
40
0.513655
50
269.8872513
51
276.7916069
0
ARC
8
DEFAULT_255_1_388
10
6.8015108
20
12.9696181
40
0.398323
50
246.9139443
51
270.7436787
0
ARC
8
DEFAULT_255_1_388
10
6.8022304
20
12.9536044
40
0.3839368
50
218.1665534
51
245.8780431
0
ARC
8
DEFAULT_255_1_388
10
6.9011676
20
13.0363903
40
0.5128958
50
191.4115343
51
218.6077624
0
ARC
8
DEFAULT_255_1_388
10
7.1191992
20
13.0852777
40
0.7363054
50
179.6344971
51
191.7836758
0
ARC
8
DEFAULT_255_1_388
10
7.7471866
20
13.1616495
40
1.3642984
50
171.4523743
51
180.3158856
0
ARC
8
DEFAULT_255_1_388
10
7.2527594
20
13.2385895
40
0.8639311
50
157.9802296
51
171.6246761
0
ARC
8
DEFAULT_255_1_388
10
7.0036944
20
13.3379038
40
0.5958004
50
141.4299236
51
157.8541251
0
ARC
8
DEFAULT_255_1_388
10
6.9315028
20
13.3889746
40
0.5075416
50
102.871586
51
140.8564533
0
ARC
8
DEFAULT_255_1_388
10
7.004358
20
13.1144943
40
0.7914163
50
90.377773
51
103.5868422
0
ARC
8
DEFAULT_255_1_388
10
6.8088101
20
13.0464543
40
0.2667015
50
89.8751238
51
126.2072139
0
ARC
8
DEFAULT_255_1_388
10
6.8139572
20
13.0290847
40
0.2838229
50
124.9742447
51
144.8960197
0
ARC
8
DEFAULT_255_1_388
10
6.7941817
20
13.0451981
40
0.2583845
50
145.2974778
51
160.2660922
0
ARC
8
DEFAULT_255_1_388
10
7.1398306
20
13.0674151
40
0.5888695
50
179.6512124
51
190.285571
0
ARC
8
DEFAULT_255_1_388
10
6.9492785
20
13.0314968
40
0.3949683
50
190.0944895
51
207.5099647
0
ARC
8
DEFAULT_255_1_388
10
6.8856367
20
13.0012177
40
0.3245464
50
207.9585471
51
216.325377
0
ARC
8
DEFAULT_255_1_388
10
6.8474004
20
12.9697712
40
0.2751259
50
215.7661336
51
232.5457193
0
ARC
8
DEFAULT_255_1_388
10
6.804312
20
12.9150273
40
0.2054668
50
232.8005815
51
270.6605497
0
ARC
8
DEFAULT_255_1_388
10
6.8094544
20
12.9559853
40
0.2464268
50
269.3550767
51
288.474612
0
ARC
8
DEFAULT_255_1_388
10
6.8199051
20
12.9166721
40
0.2058436
50
289.1831976
51
322.9685307
0
ARC
8
DEFAULT_255_1_388
10
6.7511153
20
12.9709279
40
0.2934408
50
322.6007085
51
346.5183319
0
ARC
8
DEFAULT_255_1_388
10
6.6208909
20
13.0041434
40
0.4278249
50
346.2584622
51
358.7739592
0
ARC
8
DEFAULT_255_1_388
10
6.5057484
20
13.0103829
40
0.5430876
50
358.3757628
51
0.0082477
0
ARC
8
DEFAULT_255_1_388
10
6.5914303
20
13.0134856
40
0.4574157
50
359.6211417
51
11.28403
0
ARC
8
DEFAULT_255_1_388
10
6.7350909
20
13.0434535
40
0.3106708
50
11.0483152
51
31.8145585
0
ARC
8
DEFAULT_255_1_388
10
6.7698614
20
13.0623045
40
0.2711963
50
32.3028554
51
38.0820598
0
ARC
8
DEFAULT_255_1_388
10
6.8171847
20
13.1051717
40
0.2075566
50
36.8249851
51
85.741667
0
ARC
8
DEFAULT_255_1_388
10
6.809626
20
13.0488065
40
0.2643487
50
85.0150021
51
90.050843
0
LINE
8
DEFAULT_255_1_388
10
4.3625389
20
20.5269
11
3.9984024
21
20.5269
0
LINE
8
DEFAULT_255_1_388
10
3.9984024
20
20.5269
11
3.9984024
21
21.8424898
0
LINE
8
DEFAULT_255_1_388
10
3.9984024
20
21.8424898
11
4.3697674
21
21.8424898
0
LINE
8
DEFAULT_255_1_388
10
4.9498558
20
21.2289696
11
4.9498558
21
21.1449381
0
LINE
8
DEFAULT_255_1_388
10
4.3742852
20
21.6997267
11
4.1718868
21
21.6997267
0
LINE
8
DEFAULT_255_1_388
10
4.1718868
20
21.6997267
11
4.1718868
21
20.6687596
0
LINE
8
DEFAULT_255_1_388
10
4.1718868
20
20.6687596
11
4.3544068
21
20.6687596
0
LINE
8
DEFAULT_255_1_388
10
4.7781785
20
21.1485523
11
4.7781785
21
21.2253553
0
ARC
8
DEFAULT_255_1_388
10
4.3741469
20
21.1826436
40
0.6598608
50
75.4100343
51
90.3802731
0
ARC
8
DEFAULT_255_1_388
10
4.3999714
20
21.2902691
40
0.5492049
50
60.1455157
51
75.1889627
0
ARC
8
DEFAULT_255_1_388
10
4.4178306
20
21.3213914
40
0.5133226
50
26.525419
51
60.1451222
0
ARC
8
DEFAULT_255_1_388
10
4.2918092
20
21.2545642
40
0.6559324
50
7.4029944
51
26.832209
0
ARC
8
DEFAULT_255_1_388
10
4.1124489
20
21.2266229
40
0.8374103
50
0.1605597
51
7.7176135
0
ARC
8
DEFAULT_255_1_388
10
4.1308889
20
21.1406321
40
0.8189782
50
348.7289744
51
0.30125
0
ARC
8
DEFAULT_255_1_388
10
4.3172353
20
21.1036156
40
0.628991
50
333.0706936
51
348.7181455
0
ARC
8
DEFAULT_255_1_388
10
4.4259981
20
21.0445449
40
0.5052808
50
299.2531435
51
333.4571133
0
ARC
8
DEFAULT_255_1_388
10
4.3854012
20
21.1216629
40
0.5924066
50
278.1072193
51
299.0340218
0
ARC
8
DEFAULT_255_1_388
10
4.3566061
20
21.2912979
40
0.7644209
50
270.4446841
51
278.4508355
0
ARC
8
DEFAULT_255_1_388
10
4.3589545
20
21.18673
40
0.5179903
50
269.4969684
51
284.0204874
0
ARC
8
DEFAULT_255_1_388
10
4.3989263
20
21.0331415
40
0.3592968
50
283.7699076
51
318.1557121
0
ARC
8
DEFAULT_255_1_388
10
4.3609808
20
21.0615399
40
0.4065308
50
318.7417595
51
343.687252
0
ARC
8
DEFAULT_255_1_388
10
4.1580387
20
21.1249275
40
0.6191194
50
343.3324891
51
355.8548594
0
ARC
8
DEFAULT_255_1_388
10
3.9219424
20
21.1473719
40
0.856237
50
355.4988754
51
0.0789913
0
ARC
8
DEFAULT_255_1_388
10
4.0100224
20
21.230108
40
0.7681709
50
359.6455047
51
9.8607559
0
ARC
8
DEFAULT_255_1_388
10
4.2755947
20
21.2780664
40
0.498312
50
9.6573037
51
26.1931522
0
ARC
8
DEFAULT_255_1_388
10
4.3800022
20
21.3265587
40
0.3832303
50
26.5777895
51
40.1533752
0
ARC
8
DEFAULT_255_1_388
10
4.4087687
20
21.349002
40
0.3467742
50
40.3839958
51
80.1430923
0
ARC
8
DEFAULT_255_1_388
10
4.3719942
20
21.1859486
40
0.5137832
50
79.2153636
51
89.7445174
0
LINE
8
DEFAULT_255_1_388
10
6.005219
20
20.9443468
11
6.179607
21
20.9443468
0
LINE
8
DEFAULT_255_1_388
10
5.1667112
20
21.1232525
11
5.1667112
21
21.2497516
0
LINE
8
DEFAULT_255_1_388
10
6.179607
20
21.4196217
11
6.005219
21
21.4196217
0
LINE
8
DEFAULT_255_1_388
10
5.3410992
20
21.2452337
11
5.3410992
21
21.1178312
0
ARC
8
DEFAULT_255_1_388
10
5.5630304
20
21.0115329
40
0.6202263
50
340.1774904
51
353.7812217
0
ARC
8
DEFAULT_255_1_388
10
5.7398157
20
20.9456893
40
0.4315926
50
311.4560052
51
340.4420756
0
ARC
8
DEFAULT_255_1_388
10
5.7360696
20
20.9581665
40
0.4434573
50
282.4332229
51
310.7514507
0
ARC
8
DEFAULT_255_1_388
10
5.6866514
20
21.1623703
40
0.6535262
50
269.9358869
51
282.8096729
0
ARC
8
DEFAULT_255_1_388
10
5.6808454
20
21.3136329
40
0.8048043
50
269.9995752
51
270.3612856
0
ARC
8
DEFAULT_255_1_388
10
5.6748944
20
21.0337781
40
0.5249831
50
250.7885263
51
270.6488451
0
ARC
8
DEFAULT_255_1_388
10
5.6559768
20
20.9620853
40
0.4510942
50
219.3628377
51
250.0611024
0
ARC
8
DEFAULT_255_1_388
10
5.7492643
20
21.0413653
40
0.5735046
50
193.5480293
51
219.5755675
0
ARC
8
DEFAULT_255_1_388
10
6.0160852
20
21.110652
40
0.849146
50
181.1220183
51
193.8754971
0
ARC
8
DEFAULT_255_1_388
10
6.2484085
20
21.1230914
40
1.0816971
50
179.9914644
51
181.5398227
0
ARC
8
DEFAULT_255_1_388
10
6.0407395
20
21.2539586
40
0.8740384
50
169.5837606
51
180.275782
0
ARC
8
DEFAULT_255_1_388
10
5.8340743
20
21.2921439
40
0.6638751
50
155.0367033
51
169.6002779
0
ARC
8
DEFAULT_255_1_388
10
5.7063202
20
21.3537336
40
0.5220662
50
136.7831557
51
155.2472983
0
ARC
8
DEFAULT_255_1_388
10
5.6624992
20
21.3909577
40
0.4646502
50
121.7633063
51
136.4281161
0
ARC
8
DEFAULT_255_1_388
10
5.6776832
20
21.3629049
40
0.4964979
50
95.6460018
51
121.5489589
0
ARC
8
DEFAULT_255_1_388
10
5.6953807
20
21.2381704
40
0.6223912
50
89.9245727
51
96.1375919
0
ARC
8
DEFAULT_255_1_388
10
5.7010512
20
21.2515721
40
0.6090084
50
76.6779212
51
90.456405
0
ARC
8
DEFAULT_255_1_388
10
5.7453324
20
21.430506
40
0.42469
50
47.4858803
51
76.9287069
0
ARC
8
DEFAULT_255_1_388
10
5.7287938
20
21.4192623
40
0.4441778
50
16.5424081
51
46.8934505
0
ARC
8
DEFAULT_255_1_388
10
5.5478988
20
21.3598265
40
0.6345318
50
5.4072971
51
17.0363711
0
ARC
8
DEFAULT_255_1_388
10
5.3860713
20
21.3338304
40
0.6250632
50
7.8888693
51
15.9242022
0
ARC
8
DEFAULT_255_1_388
10
5.6095699
20
21.3987309
40
0.3923364
50
15.7650676
51
27.9410069
0
ARC
8
DEFAULT_255_1_388
10
5.7337868
20
21.4652317
40
0.2514401
50
27.8167196
51
46.4007942
0
ARC
8
DEFAULT_255_1_388
10
5.7393709
20
21.4645882
40
0.2480958
50
47.4372362
51
75.0695672
0
ARC
8
DEFAULT_255_1_388
10
5.7046545
20
21.3437277
40
0.3738281
50
74.7009379
51
87.8124314
0
ARC
8
DEFAULT_255_1_388
10
5.6964162
20
21.2253659
40
0.4924321
50
87.3802571
51
90.0251599
0
ARC
8
DEFAULT_255_1_388
10
5.692081
20
21.3573997
40
0.3604218
50
89.3451886
51
108.5744412
0
ARC
8
DEFAULT_255_1_388
10
5.6766802
20
21.4151836
40
0.3007661
50
109.2998307
51
143.3037387
0
ARC
8
DEFAULT_255_1_388
10
5.7624092
20
21.3492584
40
0.4089031
50
143.075267
51
163.1918576
0
ARC
8
DEFAULT_255_1_388
10
5.9819926
20
21.2799652
40
0.6391492
50
162.9375929
51
174.6208776
0
ARC
8
DEFAULT_255_1_388
10
6.2774308
20
21.2475711
40
0.9363344
50
174.342123
51
180.1430283
0
ARC
8
DEFAULT_255_1_388
10
6.1726849
20
21.1132117
40
0.8315986
50
179.6817261
51
189.150555
0
ARC
8
DEFAULT_255_1_388
10
5.8913598
20
21.0663559
40
0.5464044
50
188.9911061
51
203.5772363
0
ARC
8
DEFAULT_255_1_388
10
5.769889
20
21.0159539
40
0.4149206
50
203.9075402
51
215.1312435
0
ARC
8
DEFAULT_255_1_388
10
5.6660687
20
20.9354907
40
0.2837747
50
213.9071511
51
263.8848919
0
ARC
8
DEFAULT_255_1_388
10
5.6801681
20
21.0237519
40
0.3730641
50
263.1757928
51
270.1031044
0
ARC
8
DEFAULT_255_1_388
10
5.683776
20
21.1640511
40
0.5133712
50
269.6722503
51
279.0606936
0
ARC
8
DEFAULT_255_1_388
10
5.7137916
20
20.982615
40
0.3294739
50
278.8749101
51
293.6349581
0
ARC
8
DEFAULT_255_1_388
10
5.7498119
20
20.8980251
40
0.2375405
50
293.8553806
51
310.0518171
0
ARC
8
DEFAULT_255_1_388
10
5.7503628
20
20.8910021
40
0.2318463
50
311.0644687
51
332.0111037
0
ARC
8
DEFAULT_255_1_388
10
5.6162302
20
20.9649702
40
0.3850112
50
331.6586806
51
343.2877423
0
ARC
8
DEFAULT_255_1_388
10
5.3841767
20
21.0362806
40
0.6277712
50
343.1446576
51
351.0103568
0
ARC
8
DEFAULT_255_1_388
10
5.220909
20
21.0662873
40
0.7937327
50
350.71248
51
351.1626997
0
LINE
8
DEFAULT_255_1_388
10
6.5835003
20
21.1521666
11
6.4497728
21
21.1865021
0
LINE
8
DEFAULT_255_1_388
10
6.4497728
20
21.1865021
11
6.5166365
21
21.8424898
0
LINE
8
DEFAULT_255_1_388
10
6.5166365
20
21.8424898
11
7.1906956
21
21.8424898
0
LINE
8
DEFAULT_255_1_388
10
7.1906956
20
21.8424898
11
7.1906956
21
21.6879803
0
LINE
8
DEFAULT_255_1_388
10
7.1906956
20
21.6879803
11
6.6584961
21
21.6879803
0
LINE
8
DEFAULT_255_1_388
10
6.6584961
20
21.6879803
11
6.6187393
21
21.3292652
0
LINE
8
DEFAULT_255_1_388
10
6.4027874
20
20.8729652
11
6.5609112
21
20.8729652
0
LINE
8
DEFAULT_255_1_388
10
6.627775
20
21.1883092
11
6.5835003
21
21.1521666
0
ARC
8
DEFAULT_255_1_388
10
6.8274007
20
20.9715241
40
0.4141476
50
93.7181681
51
120.253934
0
ARC
8
DEFAULT_255_1_388
10
6.8380059
20
20.8806284
40
0.5055616
50
89.9660471
51
94.2495185
0
ARC
8
DEFAULT_255_1_388
10
6.8425881
20
20.9469154
40
0.4392953
50
73.8045384
51
90.5585736
0
ARC
8
DEFAULT_255_1_388
10
6.8690138
20
21.043452
40
0.3392225
50
41.3071072
51
73.543002
0
ARC
8
DEFAULT_255_1_388
10
6.8221958
20
21.0031461
40
0.4009977
50
13.5075837
51
41.2174839
0
ARC
8
DEFAULT_255_1_388
10
6.6375056
20
20.9547907
40
0.5918864
50
1.1330171
51
13.8830737
0
ARC
8
DEFAULT_255_1_388
10
6.4778702
20
20.9462522
40
0.7516787
50
359.9925091
51
1.5431298
0
ARC
8
DEFAULT_255_1_388
10
6.6223316
20
20.9416027
40
0.6072343
50
347.8572712
51
0.4294349
0
ARC
8
DEFAULT_255_1_388
10
6.8192451
20
20.8969898
40
0.4053482
50
323.6727442
51
348.1674594
0
ARC
8
DEFAULT_255_1_388
10
6.8523416
20
20.8768175
40
0.3667495
50
316.8171818
51
323.1486802
0
ARC
8
DEFAULT_255_1_388
10
6.8592539
20
20.8726612
40
0.358869
50
281.839603
51
316.5458142
0
ARC
8
DEFAULT_255_1_388
10
6.8169827
20
21.0476363
40
0.5388223
50
269.5770964
51
282.4214641
0
ARC
8
DEFAULT_255_1_388
10
6.8089748
20
21.023593
40
0.5147801
50
256.2425863
51
270.4486481
0
ARC
8
DEFAULT_255_1_388
10
6.7753275
20
20.8886124
40
0.3756708
50
228.9024379
51
256.33135
0
ARC
8
DEFAULT_255_1_388
10
6.7670256
20
20.8755054
40
0.360344
50
193.7536029
51
228.5272638
0
ARC
8
DEFAULT_255_1_388
10
6.9062821
20
20.9163463
40
0.5053599
50
184.9244437
51
194.4976052
0
ARC
8
DEFAULT_255_1_388
10
6.9279462
20
20.9203722
40
0.3700839
50
187.3596909
51
198.6733728
0
ARC
8
DEFAULT_255_1_388
10
6.8098705
20
20.8794373
40
0.2451195
50
198.4453795
51
217.7945479
0
ARC
8
DEFAULT_255_1_388
10
6.7765878
20
20.8558563
40
0.2043754
50
218.2887146
51
228.5613203
0
ARC
8
DEFAULT_255_1_388
10
6.7875885
20
20.8706902
40
0.2227819
50
228.9652423
51
258.1237049
0
ARC
8
DEFAULT_255_1_388
10
6.8107322
20
20.9697964
40
0.3245374
50
257.7260585
51
270.4013717
0
ARC
8
DEFAULT_255_1_388
10
6.815782
20
20.9197255
40
0.2744726
50
269.4204315
51
286.420998
0
ARC
8
DEFAULT_255_1_388
10
6.8324876
20
20.8590705
40
0.2115721
50
286.7250065
51
320.6004665
0
ARC
8
DEFAULT_255_1_388
10
6.7893791
20
20.8940527
40
0.2670878
50
320.6712228
51
344.5440474
0
ARC
8
DEFAULT_255_1_388
10
6.6592505
20
20.9322394
40
0.4026927
50
344.241448
51
356.735803
0
ARC
8
DEFAULT_255_1_388
10
6.5188812
20
20.9438656
40
0.5435085
50
356.3547471
51
0.0507222
0
ARC
8
DEFAULT_255_1_388
10
6.6691078
20
20.9473812
40
0.3932934
50
359.5579289
51
12.9534322
0
ARC
8
DEFAULT_255_1_388
10
6.7877917
20
20.9761586
40
0.2711827
50
12.6489751
51
41.608121
0
ARC
8
DEFAULT_255_1_388
10
6.8137077
20
20.9981946
40
0.2371737
50
41.7851122
51
85.9892156
0
ARC
8
DEFAULT_255_1_388
10
6.7998388
20
20.9066738
40
0.3295244
50
84.6965848
51
90.0672125
0
ARC
8
DEFAULT_255_1_388
10
6.7971955
20
20.8315118
40
0.4046926
50
89.6804991
51
99.161352
0
ARC
8
DEFAULT_255_1_388
10
6.7740964
20
20.9695848
40
0.2647044
50
98.9836248
51
113.8905702
0
ARC
8
DEFAULT_255_1_388
10
6.7482639
20
21.0305118
40
0.1985386
50
114.195234
51
127.3641866
0
LINE
8
DEFAULT_255_1_388
10
4.4947389
20
28.4644
11
4.1306024
21
28.4644
0
LINE
8
DEFAULT_255_1_388
10
4.1306024
20
28.4644
11
4.1306024
21
29.7799898
0
LINE
8
DEFAULT_255_1_388
10
4.1306024
20
29.7799898
11
4.5019674
21
29.7799898
0
LINE
8
DEFAULT_255_1_388
10
5.0820558
20
29.1664696
11
5.0820558
21
29.0824381
0
LINE
8
DEFAULT_255_1_388
10
4.5064852
20
29.6372267
11
4.3040868
21
29.6372267
0
LINE
8
DEFAULT_255_1_388
10
4.3040868
20
29.6372267
11
4.3040868
21
28.6062596
0
LINE
8
DEFAULT_255_1_388
10
4.3040868
20
28.6062596
11
4.4866068
21
28.6062596
0
LINE
8
DEFAULT_255_1_388
10
4.9103785
20
29.0860523
11
4.9103785
21
29.1628553
0
ARC
8
DEFAULT_255_1_388
10
4.5063469
20
29.1201436
40
0.6598608
50
75.4100343
51
90.3802731
0
ARC
8
DEFAULT_255_1_388
10
4.5321714
20
29.2277691
40
0.5492049
50
60.1455157
51
75.1889627
0
ARC
8
DEFAULT_255_1_388
10
4.5500306
20
29.2588914
40
0.5133226
50
26.525419
51
60.1451222
0
ARC
8
DEFAULT_255_1_388
10
4.4240092
20
29.1920642
40
0.6559324
50
7.4029944
51
26.832209
0
ARC
8
DEFAULT_255_1_388
10
4.2446489
20
29.1641229
40
0.8374103
50
0.1605597
51
7.7176135
0
ARC
8
DEFAULT_255_1_388
10
4.2630889
20
29.0781321
40
0.8189782
50
348.7289744
51
0.30125
0
ARC
8
DEFAULT_255_1_388
10
4.4494353
20
29.0411156
40
0.628991
50
333.0706936
51
348.7181455
0
ARC
8
DEFAULT_255_1_388
10
4.5581981
20
28.9820449
40
0.5052808
50
299.2531435
51
333.4571133
0
ARC
8
DEFAULT_255_1_388
10
4.5176012
20
29.0591629
40
0.5924066
50
278.1072193
51
299.0340218
0
ARC
8
DEFAULT_255_1_388
10
4.4888061
20
29.2287979
40
0.7644209
50
270.4446841
51
278.4508355
0
ARC
8
DEFAULT_255_1_388
10
4.4911545
20
29.12423
40
0.5179903
50
269.4969684
51
284.0204874
0
ARC
8
DEFAULT_255_1_388
10
4.5311263
20
28.9706415
40
0.3592968
50
283.7699076
51
318.1557121
0
ARC
8
DEFAULT_255_1_388
10
4.4931808
20
28.9990399
40
0.4065308
50
318.7417595
51
343.687252
0
ARC
8
DEFAULT_255_1_388
10
4.2902387
20
29.0624275
40
0.6191194
50
343.3324891
51
355.8548594
0
ARC
8
DEFAULT_255_1_388
10
4.0541424
20
29.0848719
40
0.856237
50
355.4988754
51
0.0789913
0
ARC
8
DEFAULT_255_1_388
10
4.1422224
20
29.167608
40
0.7681709
50
359.6455047
51
9.8607559
0
ARC
8
DEFAULT_255_1_388
10
4.4077947
20
29.2155664
40
0.498312
50
9.6573037
51
26.1931522
0
ARC
8
DEFAULT_255_1_388
10
4.5122022
20
29.2640587
40
0.3832303
50
26.5777895
51
40.1533752
0
ARC
8
DEFAULT_255_1_388
10
4.5409687
20
29.286502
40
0.3467742
50
40.3839958
51
80.1430923
0
ARC
8
DEFAULT_255_1_388
10
4.5041942
20
29.1234486
40
0.5137832
50
79.2153636
51
89.7445174
0
LINE
8
DEFAULT_255_1_388
10
6.137419
20
28.8818468
11
6.311807
21
28.8818468
0
LINE
8
DEFAULT_255_1_388
10
5.2989112
20
29.0607525
11
5.2989112
21
29.1872516
0
LINE
8
DEFAULT_255_1_388
10
6.311807
20
29.3571217
11
6.137419
21
29.3571217
0
LINE
8
DEFAULT_255_1_388
10
5.4732992
20
29.1827337
11
5.4732992
21
29.0553312
0
ARC
8
DEFAULT_255_1_388
10
5.6952304
20
28.9490329
40
0.6202263
50
340.1774904
51
353.7812217
0
ARC
8
DEFAULT_255_1_388
10
5.8720157
20
28.8831893
40
0.4315926
50
311.4560052
51
340.4420756
0
ARC
8
DEFAULT_255_1_388
10
5.8682696
20
28.8956665
40
0.4434573
50
282.4332229
51
310.7514507
0
ARC
8
DEFAULT_255_1_388
10
5.8188514
20
29.0998703
40
0.6535262
50
269.9358869
51
282.8096729
0
ARC
8
DEFAULT_255_1_388
10
5.8130454
20
29.2511329
40
0.8048043
50
269.9995752
51
270.3612856
0
ARC
8
DEFAULT_255_1_388
10
5.8070944
20
28.9712781
40
0.5249831
50
250.7885263
51
270.6488451
0
ARC
8
DEFAULT_255_1_388
10
5.7881768
20
28.8995853
40
0.4510942
50
219.3628377
51
250.0611024
0
ARC
8
DEFAULT_255_1_388
10
5.8814643
20
28.9788653
40
0.5735046
50
193.5480293
51
219.5755675
0
ARC
8
DEFAULT_255_1_388
10
6.1482852
20
29.048152
40
0.849146
50
181.1220183
51
193.8754971
0
ARC
8
DEFAULT_255_1_388
10
6.3806085
20
29.0605914
40
1.0816971
50
179.9914644
51
181.5398227
0
ARC
8
DEFAULT_255_1_388
10
6.1729395
20
29.1914586
40
0.8740384
50
169.5837606
51
180.275782
0
ARC
8
DEFAULT_255_1_388
10
5.9662743
20
29.2296439
40
0.6638751
50
155.0367033
51
169.6002779
0
ARC
8
DEFAULT_255_1_388
10
5.8385202
20
29.2912336
40
0.5220662
50
136.7831557
51
155.2472983
0
ARC
8
DEFAULT_255_1_388
10
5.7946992
20
29.3284577
40
0.4646502
50
121.7633063
51
136.4281161
0
ARC
8
DEFAULT_255_1_388
10
5.8098832
20
29.3004049
40
0.4964979
50
95.6460018
51
121.5489589
0
ARC
8
DEFAULT_255_1_388
10
5.8275807
20
29.1756704
40
0.6223912
50
89.9245727
51
96.1375919
0
ARC
8
DEFAULT_255_1_388
10
5.8332512
20
29.1890721
40
0.6090084
50
76.6779212
51
90.456405
0
ARC
8
DEFAULT_255_1_388
10
5.8775324
20
29.368006
40
0.42469
50
47.4858803
51
76.9287069
0
ARC
8
DEFAULT_255_1_388
10
5.8609938
20
29.3567623
40
0.4441778
50
16.5424081
51
46.8934505
0
ARC
8
DEFAULT_255_1_388
10
5.6800988
20
29.2973265
40
0.6345318
50
5.4072971
51
17.0363711
0
ARC
8
DEFAULT_255_1_388
10
5.5182713
20
29.2713304
40
0.6250632
50
7.8888693
51
15.9242022
0
ARC
8
DEFAULT_255_1_388
10
5.7417699
20
29.3362309
40
0.3923364
50
15.7650676
51
27.9410069
0
ARC
8
DEFAULT_255_1_388
10
5.8659868
20
29.4027317
40
0.2514401
50
27.8167196
51
46.4007942
0
ARC
8
DEFAULT_255_1_388
10
5.8715709
20
29.4020882
40
0.2480958
50
47.4372362
51
75.0695672
0
ARC
8
DEFAULT_255_1_388
10
5.8368545
20
29.2812277
40
0.3738281
50
74.7009379
51
87.8124314
0
ARC
8
DEFAULT_255_1_388
10
5.8286162
20
29.1628659
40
0.4924321
50
87.3802571
51
90.0251599
0
ARC
8
DEFAULT_255_1_388
10
5.824281
20
29.2948997
40
0.3604218
50
89.3451886
51
108.5744412
0
ARC
8
DEFAULT_255_1_388
10
5.8088802
20
29.3526836
40
0.3007661
50
109.2998307
51
143.3037387
0
ARC
8
DEFAULT_255_1_388
10
5.8946092
20
29.2867584
40
0.4089031
50
143.075267
51
163.1918576
0
ARC
8
DEFAULT_255_1_388
10
6.1141926
20
29.2174652
40
0.6391492
50
162.9375929
51
174.6208776
0
ARC
8
DEFAULT_255_1_388
10
6.4096308
20
29.1850711
40
0.9363344
50
174.342123
51
180.1430283
0
ARC
8
DEFAULT_255_1_388
10
6.3048849
20
29.0507117
40
0.8315986
50
179.6817261
51
189.150555
0
ARC
8
DEFAULT_255_1_388
10
6.0235598
20
29.0038559
40
0.5464044
50
188.9911061
51
203.5772363
0
ARC
8
DEFAULT_255_1_388
10
5.902089
20
28.9534539
40
0.4149206
50
203.9075402
51
215.1312435
0
ARC
8
DEFAULT_255_1_388
10
5.7982687
20
28.8729907
40
0.2837747
50
213.9071511
51
263.8848919
0
ARC
8
DEFAULT_255_1_388
10
5.8123681
20
28.9612519
40
0.3730641
50
263.1757928
51
270.1031044
0
ARC
8
DEFAULT_255_1_388
10
5.815976
20
29.1015511
40
0.5133712
50
269.6722503
51
279.0606936
0
ARC
8
DEFAULT_255_1_388
10
5.8459916
20
28.920115
40
0.3294739
50
278.8749101
51
293.6349581
0
ARC
8
DEFAULT_255_1_388
10
5.8820119
20
28.8355251
40
0.2375405
50
293.8553806
51
310.0518171
0
ARC
8
DEFAULT_255_1_388
10
5.8825628
20
28.8285021
40
0.2318463
50
311.0644687
51
332.0111037
0
ARC
8
DEFAULT_255_1_388
10
5.7484302
20
28.9024702
40
0.3850112
50
331.6586806
51
343.2877423
0
ARC
8
DEFAULT_255_1_388
10
5.5163767
20
28.9737806
40
0.6277712
50
343.1446576
51
351.0103568
0
ARC
8
DEFAULT_255_1_388
10
5.353109
20
29.0037873
40
0.7937327
50
350.71248
51
351.1626997
0
LINE
8
DEFAULT_255_1_388
10
7.2108536
20
29.7799898
11
7.2108536
21
28.906243
0
LINE
8
DEFAULT_255_1_388
10
7.2108536
20
28.906243
11
7.3933736
21
28.906243
0
LINE
8
DEFAULT_255_1_388
10
7.3933736
20
28.906243
11
7.3933736
21
28.7698048
0
LINE
8
DEFAULT_255_1_388
10
7.3933736
20
28.7698048
11
7.2108536
21
28.7698048
0
LINE
8
DEFAULT_255_1_388
10
7.2108536
20
28.7698048
11
7.2108536
21
28.4644
0
LINE
8
DEFAULT_255_1_388
10
7.2108536
20
28.4644
11
7.0427906
21
28.4644
0
LINE
8
DEFAULT_255_1_388
10
7.0427906
20
28.4644
11
7.0427906
21
28.7698048
0
LINE
8
DEFAULT_255_1_388
10
7.0427906
20
28.7698048
11
6.4437274
21
28.7698048
0
LINE
8
DEFAULT_255_1_388
10
6.4437274
20
28.7698048
11
6.4437274
21
28.8682933
0
LINE
8
DEFAULT_255_1_388
10
6.4437274
20
28.8682933
11
7.0328514
21
29.7799898
0
LINE
8
DEFAULT_255_1_388
10
7.0328514
20
29.7799898
11
7.2108536
21
29.7799898
0
LINE
8
DEFAULT_255_1_388
10
7.0229122
20
29.5152455
11
6.6334759
21
28.906243
0
LINE
8
DEFAULT_255_1_388
10
6.6334759
20
28.906243
11
7.0427906
21
28.906243
0
LINE
8
DEFAULT_255_1_388
10
7.0427906
20
28.906243
11
7.0427906
21
29.551388
0
LINE
8
DEFAULT_255_1_388
10
7.0427906
20
29.551388
11
7.0229122
21
29.5152455
0
LINE
8
DEFAULT_255_1_388
10
4.3625389
20
36.4019
11
3.9984024
21
36.4019
0
LINE
8
DEFAULT_255_1_388
10
3.9984024
20
36.4019
11
3.9984024
21
37.7174898
0
LINE
8
DEFAULT_255_1_388
10
3.9984024
20
37.7174898
11
4.3697674
21
37.7174898
0
LINE
8
DEFAULT_255_1_388
10
4.9498558
20
37.1039696
11
4.9498558
21
37.0199381
0
LINE
8
DEFAULT_255_1_388
10
4.3742852
20
37.5747267
11
4.1718868
21
37.5747267
0
LINE
8
DEFAULT_255_1_388
10
4.1718868
20
37.5747267
11
4.1718868
21
36.5437596
0
LINE
8
DEFAULT_255_1_388
10
4.1718868
20
36.5437596
11
4.3544068
21
36.5437596
0
LINE
8
DEFAULT_255_1_388
10
4.7781785
20
37.0235523
11
4.7781785
21
37.1003553
0
ARC
8
DEFAULT_255_1_388
10
4.3741469
20
37.0576436
40
0.6598608
50
75.4100343
51
90.3802731
0
ARC
8
DEFAULT_255_1_388
10
4.3999714
20
37.1652691
40
0.5492049
50
60.1455157
51
75.1889627
0
ARC
8
DEFAULT_255_1_388
10
4.4178306
20
37.1963914
40
0.5133226
50
26.525419
51
60.1451222
0
ARC
8
DEFAULT_255_1_388
10
4.2918092
20
37.1295642
40
0.6559324
50
7.4029944
51
26.832209
0
ARC
8
DEFAULT_255_1_388
10
4.1124489
20
37.1016229
40
0.8374103
50
0.1605597
51
7.7176135
0
ARC
8
DEFAULT_255_1_388
10
4.1308889
20
37.0156321
40
0.8189782
50
348.7289744
51
0.30125
0
ARC
8
DEFAULT_255_1_388
10
4.3172353
20
36.9786156
40
0.628991
50
333.0706936
51
348.7181455
0
ARC
8
DEFAULT_255_1_388
10
4.4259981
20
36.9195449
40
0.5052808
50
299.2531435
51
333.4571133
0
ARC
8
DEFAULT_255_1_388
10
4.3854012
20
36.9966629
40
0.5924066
50
278.1072193
51
299.0340218
0
ARC
8
DEFAULT_255_1_388
10
4.3566061
20
37.1662979
40
0.7644209
50
270.4446841
51
278.4508355
0
ARC
8
DEFAULT_255_1_388
10
4.3589545
20
37.06173
40
0.5179903
50
269.4969684
51
284.0204874
0
ARC
8
DEFAULT_255_1_388
10
4.3989263
20
36.9081415
40
0.3592968
50
283.7699076
51
318.1557121
0
ARC
8
DEFAULT_255_1_388
10
4.3609808
20
36.9365399
40
0.4065308
50
318.7417595
51
343.687252
0
ARC
8
DEFAULT_255_1_388
10
4.1580387
20
36.9999275
40
0.6191194
50
343.3324891
51
355.8548594
0
ARC
8
DEFAULT_255_1_388
10
3.9219424
20
37.0223719
40
0.856237
50
355.4988754
51
0.0789913
0
ARC
8
DEFAULT_255_1_388
10
4.0100224
20
37.105108
40
0.7681709
50
359.6455047
51
9.8607559
0
ARC
8
DEFAULT_255_1_388
10
4.2755947
20
37.1530664
40
0.498312
50
9.6573037
51
26.1931522
0
ARC
8
DEFAULT_255_1_388
10
4.3800022
20
37.2015587
40
0.3832303
50
26.5777895
51
40.1533752
0
ARC
8
DEFAULT_255_1_388
10
4.4087687
20
37.224002
40
0.3467742
50
40.3839958
51
80.1430923
0
ARC
8
DEFAULT_255_1_388
10
4.3719942
20
37.0609486
40
0.5137832
50
79.2153636
51
89.7445174
0
LINE
8
DEFAULT_255_1_388
10
6.005219
20
36.8193468
11
6.179607
21
36.8193468
0
LINE
8
DEFAULT_255_1_388
10
5.1667112
20
36.9982525
11
5.1667112
21
37.1247516
0
LINE
8
DEFAULT_255_1_388
10
6.179607
20
37.2946217
11
6.005219
21
37.2946217
0
LINE
8
DEFAULT_255_1_388
10
5.3410992
20
37.1202337
11
5.3410992
21
36.9928312
0
ARC
8
DEFAULT_255_1_388
10
5.5630304
20
36.8865329
40
0.6202263
50
340.1774904
51
353.7812217
0
ARC
8
DEFAULT_255_1_388
10
5.7398157
20
36.8206893
40
0.4315926
50
311.4560052
51
340.4420756
0
ARC
8
DEFAULT_255_1_388
10
5.7360696
20
36.8331665
40
0.4434573
50
282.4332229
51
310.7514507
0
ARC
8
DEFAULT_255_1_388
10
5.6866514
20
37.0373703
40
0.6535262
50
269.9358869
51
282.8096729
0
ARC
8
DEFAULT_255_1_388
10
5.6808454
20
37.1886329
40
0.8048043
50
269.9995752
51
270.3612856
0
ARC
8
DEFAULT_255_1_388
10
5.6748944
20
36.9087781
40
0.5249831
50
250.7885263
51
270.6488451
0
ARC
8
DEFAULT_255_1_388
10
5.6559768
20
36.8370853
40
0.4510942
50
219.3628377
51
250.0611024
0
ARC
8
DEFAULT_255_1_388
10
5.7492643
20
36.9163653
40
0.5735046
50
193.5480293
51
219.5755675
0
ARC
8
DEFAULT_255_1_388
10
6.0160852
20
36.985652
40
0.849146
50
181.1220183
51
193.8754971
0
ARC
8
DEFAULT_255_1_388
10
6.2484085
20
36.9980914
40
1.0816971
50
179.9914644
51
181.5398227
0
ARC
8
DEFAULT_255_1_388
10
6.0407395
20
37.1289586
40
0.8740384
50
169.5837606
51
180.275782
0
ARC
8
DEFAULT_255_1_388
10
5.8340743
20
37.1671439
40
0.6638751
50
155.0367033
51
169.6002779
0
ARC
8
DEFAULT_255_1_388
10
5.7063202
20
37.2287336
40
0.5220662
50
136.7831557
51
155.2472983
0
ARC
8
DEFAULT_255_1_388
10
5.6624992
20
37.2659577
40
0.4646502
50
121.7633063
51
136.4281161
0
ARC
8
DEFAULT_255_1_388
10
5.6776832
20
37.2379049
40
0.4964979
50
95.6460018
51
121.5489589
0
ARC
8
DEFAULT_255_1_388
10
5.6953807
20
37.1131704
40
0.6223912
50
89.9245727
51
96.1375919
0
ARC
8
DEFAULT_255_1_388
10
5.7010512
20
37.1265721
40
0.6090084
50
76.6779212
51
90.456405
0
ARC
8
DEFAULT_255_1_388
10
5.7453324
20
37.305506
40
0.42469
50
47.4858803
51
76.9287069
0
ARC
8
DEFAULT_255_1_388
10
5.7287938
20
37.2942623
40
0.4441778
50
16.5424081
51
46.8934505
0
ARC
8
DEFAULT_255_1_388
10
5.5478988
20
37.2348265
40
0.6345318
50
5.4072971
51
17.0363711
0
ARC
8
DEFAULT_255_1_388
10
5.3860713
20
37.2088304
40
0.6250632
50
7.8888693
51
15.9242022
0
ARC
8
DEFAULT_255_1_388
10
5.6095699
20
37.2737309
40
0.3923364
50
15.7650676
51
27.9410069
0
ARC
8
DEFAULT_255_1_388
10
5.7337868
20
37.3402317
40
0.2514401
50
27.8167196
51
46.4007942
0
ARC
8
DEFAULT_255_1_388
10
5.7393709
20
37.3395882
40
0.2480958
50
47.4372362
51
75.0695672
0
ARC
8
DEFAULT_255_1_388
10
5.7046545
20
37.2187277
40
0.3738281
50
74.7009379
51
87.8124314
0
ARC
8
DEFAULT_255_1_388
10
5.6964162
20
37.1003659
40
0.4924321
50
87.3802571
51
90.0251599
0
ARC
8
DEFAULT_255_1_388
10
5.692081
20
37.2323997
40
0.3604218
50
89.3451886
51
108.5744412
0
ARC
8
DEFAULT_255_1_388
10
5.6766802
20
37.2901836
40
0.3007661
50
109.2998307
51
143.3037387
0
ARC
8
DEFAULT_255_1_388
10
5.7624092
20
37.2242584
40
0.4089031
50
143.075267
51
163.1918576
0
ARC
8
DEFAULT_255_1_388
10
5.9819926
20
37.1549652
40
0.6391492
50
162.9375929
51
174.6208776
0
ARC
8
DEFAULT_255_1_388
10
6.2774308
20
37.1225711
40
0.9363344
50
174.342123
51
180.1430283
0
ARC
8
DEFAULT_255_1_388
10
6.1726849
20
36.9882117
40
0.8315986
50
179.6817261
51
189.150555
0
ARC
8
DEFAULT_255_1_388
10
5.8913598
20
36.9413559
40
0.5464044
50
188.9911061
51
203.5772363
0
ARC
8
DEFAULT_255_1_388
10
5.769889
20
36.8909539
40
0.4149206
50
203.9075402
51
215.1312435
0
ARC
8
DEFAULT_255_1_388
10
5.6660687
20
36.8104907
40
0.2837747
50
213.9071511
51
263.8848919
0
ARC
8
DEFAULT_255_1_388
10
5.6801681
20
36.8987519
40
0.3730641
50
263.1757928
51
270.1031044
0
ARC
8
DEFAULT_255_1_388
10
5.683776
20
37.0390511
40
0.5133712
50
269.6722503
51
279.0606936
0
ARC
8
DEFAULT_255_1_388
10
5.7137916
20
36.857615
40
0.3294739
50
278.8749101
51
293.6349581
0
ARC
8
DEFAULT_255_1_388
10
5.7498119
20
36.7730251
40
0.2375405
50
293.8553806
51
310.0518171
0
ARC
8
DEFAULT_255_1_388
10
5.7503628
20
36.7660021
40
0.2318463
50
311.0644687
51
332.0111037
0
ARC
8
DEFAULT_255_1_388
10
5.6162302
20
36.8399702
40
0.3850112
50
331.6586806
51
343.2877423
0
ARC
8
DEFAULT_255_1_388
10
5.3841767
20
36.9112806
40
0.6277712
50
343.1446576
51
351.0103568
0
ARC
8
DEFAULT_255_1_388
10
5.220909
20
36.9412873
40
0.7937327
50
350.71248
51
351.1626997
0
LINE
8
DEFAULT_255_1_388
10
6.6160286
20
37.0045775
11
6.6160286
21
37.1410157
0
LINE
8
DEFAULT_255_1_388
10
6.6160286
20
37.1410157
11
6.7416241
21
37.1410157
0
LINE
8
DEFAULT_255_1_388
10
6.5274793
20
37.3723282
11
6.3603199
21
37.3723282
0
LINE
8
DEFAULT_255_1_388
10
6.3485735
20
36.7488688
11
6.5166365
21
36.7488688
0
LINE
8
DEFAULT_255_1_388
10
6.7416241
20
37.0045775
11
6.6160286
21
37.0045775
0
ARC
8
DEFAULT_255_1_388
10
6.7383467
20
37.5226922
40
0.3816905
50
270.491971
51
281.8953028
0
ARC
8
DEFAULT_255_1_388
10
6.7654894
20
37.3987199
40
0.2547877
50
281.6690378
51
301.2943765
0
ARC
8
DEFAULT_255_1_388
10
6.7846345
20
37.3636926
40
0.2149197
50
301.7834992
51
311.754567
0
ARC
8
DEFAULT_255_1_388
10
6.7949387
20
37.352265
40
0.1995326
50
311.7325027
51
354.2803031
0
ARC
8
DEFAULT_255_1_388
10
6.7131803
20
37.366328
40
0.2823461
50
353.0941646
51
0.1174696
0
ARC
8
DEFAULT_255_1_388
10
6.6613361
20
37.3716874
40
0.3342238
50
359.1804452
51
15.0452323
0
ARC
8
DEFAULT_255_1_388
10
6.8127419
20
37.4158546
40
0.1765747
50
13.957816
51
77.6713812
0
ARC
8
DEFAULT_255_1_388
10
6.7692655
20
37.2600464
40
0.3381982
50
76.111571
51
90.7028736
0
ARC
8
DEFAULT_255_1_388
10
6.7626067
20
37.290825
40
0.3074046
50
89.5321574
51
103.5319393
0
ARC
8
DEFAULT_255_1_388
10
6.7400451
20
37.3807443
40
0.2147041
50
103.2930114
51
133.5619756
0
ARC
8
DEFAULT_255_1_388
10
6.7350392
20
37.3874351
40
0.2064084
50
133.8349761
51
173.5343225
0
ARC
8
DEFAULT_255_1_388
10
6.816405
20
37.3730144
40
0.2889266
50
172.5097183
51
180.1360699
0
ARC
8
DEFAULT_255_1_388
10
6.7093814
20
37.376888
40
0.3490913
50
155.3483706
51
180.7484035
0
ARC
8
DEFAULT_255_1_388
10
6.7038789
20
37.3736519
40
0.3454798
50
131.5745177
51
154.4799474
0
ARC
8
DEFAULT_255_1_388
10
6.7391072
20
37.3380422
40
0.3955058
50
96.9874487
51
131.9690874
0
ARC
8
DEFAULT_255_1_388
10
6.7637964
20
37.1979407
40
0.537622
50
89.8592909
51
97.7827481
0
ARC
8
DEFAULT_255_1_388
10
6.7692073
20
37.168436
40
0.5671399
50
78.3654493
51
90.4132586
0
ARC
8
DEFAULT_255_1_388
10
6.8094715
20
37.3550918
40
0.3762034
50
56.6229818
51
78.6387103
0
ARC
8
DEFAULT_255_1_388
10
6.8336544
20
37.3973846
40
0.3275964
50
47.0254604
51
56.085558
0
ARC
8
DEFAULT_255_1_388
10
6.8358795
20
37.4018189
40
0.3228382
50
10.9207523
51
46.777927
0
ARC
8
DEFAULT_255_1_388
10
6.6824389
20
37.3663401
40
0.4802559
50
359.6364235
51
11.6087615
0
ARC
8
DEFAULT_255_1_388
10
6.8888554
20
37.3646404
40
0.273833
50
332.3549969
51
359.7179765
0
ARC
8
DEFAULT_255_1_388
10
6.8156955
20
37.3993285
40
0.3547505
50
325.2332381
51
332.8746682
0
ARC
8
DEFAULT_255_1_388
10
6.8328538
20
37.3873763
40
0.3338396
50
292.9803892
51
325.2391113
0
ARC
8
DEFAULT_255_1_388
10
6.8017734
20
37.4478679
40
0.4016959
50
292.542178
51
293.6931461
0
ARC
8
DEFAULT_255_1_388
10
6.8461306
20
36.7213036
40
0.372079
50
57.643292
51
72.8626085
0
ARC
8
DEFAULT_255_1_388
10
6.886014
20
36.7859273
40
0.2961455
50
36.7246661
51
57.4701329
0
ARC
8
DEFAULT_255_1_388
10
6.8847297
20
36.787347
40
0.2963321
50
8.054535
51
36.3561529
0
ARC
8
DEFAULT_255_1_388
10
6.787697
20
36.7699073
40
0.3948682
50
359.8316595
51
8.5873361
0
ARC
8
DEFAULT_255_1_388
10
6.7454444
20
36.764497
40
0.4371398
50
343.9831631
51
0.557075
0
ARC
8
DEFAULT_255_1_388
10
6.8451493
20
36.7371963
40
0.3337749
50
311.6358204
51
343.7652116
0
ARC
8
DEFAULT_255_1_388
10
6.8025747
20
36.7851955
40
0.3979351
50
279.7829743
51
311.625622
0
ARC
8
DEFAULT_255_1_388
10
6.7686882
20
36.9468642
40
0.5630417
50
269.7285092
51
280.3857694
0
ARC
8
DEFAULT_255_1_388
10
6.7617195
20
36.9422241
40
0.5584119
50
256.6827433
51
270.4412869
0
ARC
8
DEFAULT_255_1_388
10
6.7236182
20
36.7864698
40
0.3980715
50
229.4223821
51
256.8554507
0
ARC
8
DEFAULT_255_1_388
10
6.6769735
20
36.7339683
40
0.3278564
50
181.8183354
51
229.6455015
0
ARC
8
DEFAULT_255_1_388
10
6.7939345
20
36.7486825
40
0.4453611
50
179.9760419
51
183.2330638
0
ARC
8
DEFAULT_255_1_388
10
6.7745897
20
36.7463781
40
0.2579652
50
179.4467996
51
196.2871626
0
ARC
8
DEFAULT_255_1_388
10
6.7197351
20
36.7313709
40
0.2011057
50
196.5661293
51
227.7059371
0
ARC
8
DEFAULT_255_1_388
10
6.7381958
20
36.7520155
40
0.2287994
50
227.7653015
51
257.8763321
0
ARC
8
DEFAULT_255_1_388
10
6.7635041
20
36.8580961
40
0.3378385
50
257.4583525
51
270.4267406
0
ARC
8
DEFAULT_255_1_388
10
6.7686291
20
36.890723
40
0.3704652
50
269.5965319
51
280.8788143
0
ARC
8
DEFAULT_255_1_388
10
6.7944519
20
36.7617529
40
0.2389415
50
280.6347277
51
299.8594068
0
ARC
8
DEFAULT_255_1_388
10
6.8159288
20
36.7209736
40
0.19289
50
300.3575552
51
314.5515667
0
ARC
8
DEFAULT_255_1_388
10
6.8065964
20
36.7278025
40
0.204312
50
315.0730962
51
345.0429362
0
ARC
8
DEFAULT_255_1_388
10
6.7027471
20
36.7580539
40
0.31246
50
344.598526
51
357.9270698
0
ARC
8
DEFAULT_255_1_388
10
6.6017776
20
36.7649705
40
0.4136265
50
357.4755098
51
0.0224936
0
ARC
8
DEFAULT_255_1_388
10
6.7170654
20
36.7677099
40
0.2983498
50
359.5051035
51
13.4236939
0
ARC
8
DEFAULT_255_1_388
10
6.8145744
20
36.7926637
40
0.1977186
50
12.9497905
51
48.7550905
0
ARC
8
DEFAULT_255_1_388
10
6.7940666
20
36.7646373
40
0.2323321
50
49.509109
51
72.1832965
0
ARC
8
DEFAULT_255_1_388
10
6.7538134
20
36.6451632
40
0.358397
50
71.9008458
51
84.3555134
0
ARC
8
DEFAULT_255_1_388
10
6.7356529
20
36.4919712
40
0.512641
50
84.019632
51
89.3326067
0
LINE
8
DEFAULT_255_1_388
10
4.3625389
20
44.3394
11
3.9984024
21
44.3394
0
LINE
8
DEFAULT_255_1_388
10
3.9984024
20
44.3394
11
3.9984024
21
45.6549898
0
LINE
8
DEFAULT_255_1_388
10
3.9984024
20
45.6549898
11
4.3697674
21
45.6549898
0
LINE
8
DEFAULT_255_1_388
10
4.9498558
20
45.0414696
11
4.9498558
21
44.9574381
0
LINE
8
DEFAULT_255_1_388
10
4.3742852
20
45.5122267
11
4.1718868
21
45.5122267
0
LINE
8
DEFAULT_255_1_388
10
4.1718868
20
45.5122267
11
4.1718868
21
44.4812596
0
LINE
8
DEFAULT_255_1_388
10
4.1718868
20
44.4812596
11
4.3544068
21
44.4812596
0
LINE
8
DEFAULT_255_1_388
10
4.7781785
20
44.9610523
11
4.7781785
21
45.0378553
0
ARC
8
DEFAULT_255_1_388
10
4.3741469
20
44.9951436
40
0.6598608
50
75.4100343
51
90.3802731
0
ARC
8
DEFAULT_255_1_388
10
4.3999714
20
45.1027691
40
0.5492049
50
60.1455157
51
75.1889627
0
ARC
8
DEFAULT_255_1_388
10
4.4178306
20
45.1338914
40
0.5133226
50
26.525419
51
60.1451222
0
ARC
8
DEFAULT_255_1_388
10
4.2918092
20
45.0670642
40
0.6559324
50
7.4029944
51
26.832209
0
ARC
8
DEFAULT_255_1_388
10
4.1124489
20
45.0391229
40
0.8374103
50
0.1605597
51
7.7176135
0
ARC
8
DEFAULT_255_1_388
10
4.1308889
20
44.9531321
40
0.8189782
50
348.7289744
51
0.30125
0
ARC
8
DEFAULT_255_1_388
10
4.3172353
20
44.9161156
40
0.628991
50
333.0706936
51
348.7181455
0
ARC
8
DEFAULT_255_1_388
10
4.4259981
20
44.8570449
40
0.5052808
50
299.2531435
51
333.4571133
0
ARC
8
DEFAULT_255_1_388
10
4.3854012
20
44.9341629
40
0.5924066
50
278.1072193
51
299.0340218
0
ARC
8
DEFAULT_255_1_388
10
4.3566061
20
45.1037979
40
0.7644209
50
270.4446841
51
278.4508355
0
ARC
8
DEFAULT_255_1_388
10
4.3589545
20
44.99923
40
0.5179903
50
269.4969684
51
284.0204874
0
ARC
8
DEFAULT_255_1_388
10
4.3989263
20
44.8456415
40
0.3592968
50
283.7699076
51
318.1557121
0
ARC
8
DEFAULT_255_1_388
10
4.3609808
20
44.8740399
40
0.4065308
50
318.7417595
51
343.687252
0
ARC
8
DEFAULT_255_1_388
10
4.1580387
20
44.9374275
40
0.6191194
50
343.3324891
51
355.8548594
0
ARC
8
DEFAULT_255_1_388
10
3.9219424
20
44.9598719
40
0.856237
50
355.4988754
51
0.0789913
0
ARC
8
DEFAULT_255_1_388
10
4.0100224
20
45.042608
40
0.7681709
50
359.6455047
51
9.8607559
0
ARC
8
DEFAULT_255_1_388
10
4.2755947
20
45.0905664
40
0.498312
50
9.6573037
51
26.1931522
0
ARC
8
DEFAULT_255_1_388
10
4.3800022
20
45.1390587
40
0.3832303
50
26.5777895
51
40.1533752
0
ARC
8
DEFAULT_255_1_388
10
4.4087687
20
45.161502
40
0.3467742
50
40.3839958
51
80.1430923
0
ARC
8
DEFAULT_255_1_388
10
4.3719942
20
44.9984486
40
0.5137832
50
79.2153636
51
89.7445174
0
LINE
8
DEFAULT_255_1_388
10
6.005219
20
44.7568468
11
6.179607
21
44.7568468
0
LINE
8
DEFAULT_255_1_388
10
5.1667112
20
44.9357525
11
5.1667112
21
45.0622516
0
LINE
8
DEFAULT_255_1_388
10
6.179607
20
45.2321217
11
6.005219
21
45.2321217
0
LINE
8
DEFAULT_255_1_388
10
5.3410992
20
45.0577337
11
5.3410992
21
44.9303312
0
ARC
8
DEFAULT_255_1_388
10
5.5630304
20
44.8240329
40
0.6202263
50
340.1774904
51
353.7812217
0
ARC
8
DEFAULT_255_1_388
10
5.7398157
20
44.7581893
40
0.4315926
50
311.4560052
51
340.4420756
0
ARC
8
DEFAULT_255_1_388
10
5.7360696
20
44.7706665
40
0.4434573
50
282.4332229
51
310.7514507
0
ARC
8
DEFAULT_255_1_388
10
5.6866514
20
44.9748703
40
0.6535262
50
269.9358869
51
282.8096729
0
ARC
8
DEFAULT_255_1_388
10
5.6808454
20
45.1261329
40
0.8048043
50
269.9995752
51
270.3612856
0
ARC
8
DEFAULT_255_1_388
10
5.6748944
20
44.8462781
40
0.5249831
50
250.7885263
51
270.6488451
0
ARC
8
DEFAULT_255_1_388
10
5.6559768
20
44.7745853
40
0.4510942
50
219.3628377
51
250.0611024
0
ARC
8
DEFAULT_255_1_388
10
5.7492643
20
44.8538653
40
0.5735046
50
193.5480293
51
219.5755675
0
ARC
8
DEFAULT_255_1_388
10
6.0160852
20
44.923152
40
0.849146
50
181.1220183
51
193.8754971
0
ARC
8
DEFAULT_255_1_388
10
6.2484085
20
44.9355914
40
1.0816971
50
179.9914644
51
181.5398227
0
ARC
8
DEFAULT_255_1_388
10
6.0407395
20
45.0664586
40
0.8740384
50
169.5837606
51
180.275782
0
ARC
8
DEFAULT_255_1_388
10
5.8340743
20
45.1046439
40
0.6638751
50
155.0367033
51
169.6002779
0
ARC
8
DEFAULT_255_1_388
10
5.7063202
20
45.1662336
40
0.5220662
50
136.7831557
51
155.2472983
0
ARC
8
DEFAULT_255_1_388
10
5.6624992
20
45.2034577
40
0.4646502
50
121.7633063
51
136.4281161
0
ARC
8
DEFAULT_255_1_388
10
5.6776832
20
45.1754049
40
0.4964979
50
95.6460018
51
121.5489589
0
ARC
8
DEFAULT_255_1_388
10
5.6953807
20
45.0506704
40
0.6223912
50
89.9245727
51
96.1375919
0
ARC
8
DEFAULT_255_1_388
10
5.7010512
20
45.0640721
40
0.6090084
50
76.6779212
51
90.456405
0
ARC
8
DEFAULT_255_1_388
10
5.7453324
20
45.243006
40
0.42469
50
47.4858803
51
76.9287069
0
ARC
8
DEFAULT_255_1_388
10
5.7287938
20
45.2317623
40
0.4441778
50
16.5424081
51
46.8934505
0
ARC
8
DEFAULT_255_1_388
10
5.5478988
20
45.1723265
40
0.6345318
50
5.4072971
51
17.0363711
0
ARC
8
DEFAULT_255_1_388
10
5.3860713
20
45.1463304
40
0.6250632
50
7.8888693
51
15.9242022
0
ARC
8
DEFAULT_255_1_388
10
5.6095699
20
45.2112309
40
0.3923364
50
15.7650676
51
27.9410069
0
ARC
8
DEFAULT_255_1_388
10
5.7337868
20
45.2777317
40
0.2514401
50
27.8167196
51
46.4007942
0
ARC
8
DEFAULT_255_1_388
10
5.7393709
20
45.2770882
40
0.2480958
50
47.4372362
51
75.0695672
0
ARC
8
DEFAULT_255_1_388
10
5.7046545
20
45.1562277
40
0.3738281
50
74.7009379
51
87.8124314
0
ARC
8
DEFAULT_255_1_388
10
5.6964162
20
45.0378659
40
0.4924321
50
87.3802571
51
90.0251599
0
ARC
8
DEFAULT_255_1_388
10
5.692081
20
45.1698997
40
0.3604218
50
89.3451886
51
108.5744412
0
ARC
8
DEFAULT_255_1_388
10
5.6766802
20
45.2276836
40
0.3007661
50
109.2998307
51
143.3037387
0
ARC
8
DEFAULT_255_1_388
10
5.7624092
20
45.1617584
40
0.4089031
50
143.075267
51
163.1918576
0
ARC
8
DEFAULT_255_1_388
10
5.9819926
20
45.0924652
40
0.6391492
50
162.9375929
51
174.6208776
0
ARC
8
DEFAULT_255_1_388
10
6.2774308
20
45.0600711
40
0.9363344
50
174.342123
51
180.1430283
0
ARC
8
DEFAULT_255_1_388
10
6.1726849
20
44.9257117
40
0.8315986
50
179.6817261
51
189.150555
0
ARC
8
DEFAULT_255_1_388
10
5.8913598
20
44.8788559
40
0.5464044
50
188.9911061
51
203.5772363
0
ARC
8
DEFAULT_255_1_388
10
5.769889
20
44.8284539
40
0.4149206
50
203.9075402
51
215.1312435
0
ARC
8
DEFAULT_255_1_388
10
5.6660687
20
44.7479907
40
0.2837747
50
213.9071511
51
263.8848919
0
ARC
8
DEFAULT_255_1_388
10
5.6801681
20
44.8362519
40
0.3730641
50
263.1757928
51
270.1031044
0
ARC
8
DEFAULT_255_1_388
10
5.683776
20
44.9765511
40
0.5133712
50
269.6722503
51
279.0606936
0
ARC
8
DEFAULT_255_1_388
10
5.7137916
20
44.795115
40
0.3294739
50
278.8749101
51
293.6349581
0
ARC
8
DEFAULT_255_1_388
10
5.7498119
20
44.7105251
40
0.2375405
50
293.8553806
51
310.0518171
0
ARC
8
DEFAULT_255_1_388
10
5.7503628
20
44.7035021
40
0.2318463
50
311.0644687
51
332.0111037
0
ARC
8
DEFAULT_255_1_388
10
5.6162302
20
44.7774702
40
0.3850112
50
331.6586806
51
343.2877423
0
ARC
8
DEFAULT_255_1_388
10
5.3841767
20
44.8487806
40
0.6277712
50
343.1446576
51
351.0103568
0
ARC
8
DEFAULT_255_1_388
10
5.220909
20
44.8787873
40
0.7937327
50
350.71248
51
351.1626997
0
LINE
8
DEFAULT_255_1_388
10
7.2349703
20
44.4758382
11
7.2349703
21
44.3394
0
LINE
8
DEFAULT_255_1_388
10
7.2349703
20
44.3394
11
6.3729698
21
44.3394
0
LINE
8
DEFAULT_255_1_388
10
6.3729698
20
44.3394
11
6.3729698
21
44.4595741
0
LINE
8
DEFAULT_255_1_388
10
6.3729698
20
44.4595741
11
6.8283663
21
44.9655702
0
LINE
8
DEFAULT_255_1_388
10
6.5148294
20
45.2673607
11
6.34767
21
45.2673607
0
LINE
8
DEFAULT_255_1_388
10
6.9268548
20
44.858046
11
6.5744646
21
44.4758382
0
LINE
8
DEFAULT_255_1_388
10
6.5744646
20
44.4758382
11
7.2349703
21
44.4758382
0
ARC
8
DEFAULT_255_1_388
10
5.3107722
20
46.3075983
40
2.0258655
50
318.5132526
51
320.7829045
0
ARC
8
DEFAULT_255_1_388
10
5.9055679
20
45.8234929
40
1.2589638
50
320.7372878
51
323.9739031
0
ARC
8
DEFAULT_255_1_388
10
6.3464611
20
45.5040554
40
0.7145141
50
323.8962701
51
328.64194
0
ARC
8
DEFAULT_255_1_388
10
6.5766868
20
45.3620545
40
0.4440242
50
328.8294576
51
331.7891185
0
ARC
8
DEFAULT_255_1_388
10
6.6889188
20
45.3041374
40
0.3177517
50
331.4254512
51
352.9365785
0
ARC
8
DEFAULT_255_1_388
10
6.7042188
20
45.300705
40
0.3021496
50
353.2257659
51
0.0166158
0
ARC
8
DEFAULT_255_1_388
10
6.7278949
20
45.3032894
40
0.2784847
50
359.486299
51
15.9343185
0
ARC
8
DEFAULT_255_1_388
10
6.7849216
20
45.3186269
40
0.2194403
50
16.1712913
51
43.5286088
0
ARC
8
DEFAULT_255_1_388
10
6.793616
20
45.3273191
40
0.2071504
50
43.4417391
51
83.1661095
0
ARC
8
DEFAULT_255_1_388
10
6.7785321
20
45.2444316
40
0.2912888
50
82.160179
51
90.1505708
0
ARC
8
DEFAULT_255_1_388
10
6.7749803
20
45.1840279
40
0.3517025
50
89.5460741
51
102.5418361
0
ARC
8
DEFAULT_255_1_388
10
6.7476523
20
45.2999933
40
0.2325748
50
102.1738499
51
129.206123
0
ARC
8
DEFAULT_255_1_388
10
6.7387976
20
45.3139664
40
0.2161591
50
129.72865
51
135.753947
0
ARC
8
DEFAULT_255_1_388
10
6.7524459
20
45.3030728
40
0.2335433
50
136.1757367
51
166.3673339
0
ARC
8
DEFAULT_255_1_388
10
6.8657147
20
45.2727148
40
0.3507873
50
165.9090694
51
178.8684636
0
ARC
8
DEFAULT_255_1_388
10
6.9632918
20
45.2674263
40
0.4484624
50
178.4391136
51
180.0083808
0
ARC
8
DEFAULT_255_1_388
10
6.805362
20
45.2718197
40
0.4577138
50
163.2878482
51
180.5581842
0
ARC
8
DEFAULT_255_1_388
10
6.7151661
20
45.2966393
40
0.3641968
50
133.4540601
51
162.947111
0
ARC
8
DEFAULT_255_1_388
10
6.7352543
20
45.2752789
40
0.3935189
50
100.7869829
51
133.4382499
0
ARC
8
DEFAULT_255_1_388
10
6.7743788
20
45.1010399
40
0.5720313
50
89.660664
51
101.3702276
0
ARC
8
DEFAULT_255_1_388
10
6.7818397
20
45.1079263
40
0.5651495
50
78.2172678
51
90.412935
0
ARC
8
DEFAULT_255_1_388
10
6.8217863
20
45.2906511
40
0.378122
50
55.9269121
51
78.4888449
0
ARC
8
DEFAULT_255_1_388
10
6.8438578
20
45.3287187
40
0.3342379
50
47.929771
51
55.4049217
0
ARC
8
DEFAULT_255_1_388
10
6.8553108
20
45.3403618
40
0.3179217
50
4.334829
51
48.0560205
0
ARC
8
DEFAULT_255_1_388
10
6.732091
20
45.3212487
40
0.442341
50
359.9251713
51
5.5971671
0
ARC
8
DEFAULT_255_1_388
10
6.7803064
20
45.3275728
40
0.3941854
50
337.8914027
51
358.9967534
0
ARC
8
DEFAULT_255_1_388
10
6.4750635
20
45.4453295
40
0.7213271
50
326.9132501
51
338.3508308
0
ARC
8
DEFAULT_255_1_388
10
6.0266746
20
45.7327105
40
1.2538973
50
319.6471833
51
327.0959558
0
ARC
8
DEFAULT_255_1_388
10
5.5953405
20
46.088505
40
1.8129975
50
317.2588228
51
319.9045804
0
LINE
8
DEFAULT_255_1_388
10
4.3534389
20
52.2769
11
3.9893024
21
52.2769
0
LINE
8
DEFAULT_255_1_388
10
3.9893024
20
52.2769
11
3.9893024
21
53.5924898
0
LINE
8
DEFAULT_255_1_388
10
3.9893024
20
53.5924898
11
4.3606674
21
53.5924898
0
LINE
8
DEFAULT_255_1_388
10
4.9407558
20
52.9789696
11
4.9407558
21
52.8949381
0
LINE
8
DEFAULT_255_1_388
10
4.3651852
20
53.4497267
11
4.1627868
21
53.4497267
0
LINE
8
DEFAULT_255_1_388
10
4.1627868
20
53.4497267
11
4.1627868
21
52.4187596
0
LINE
8
DEFAULT_255_1_388
10
4.1627868
20
52.4187596
11
4.3453068
21
52.4187596
0
LINE
8
DEFAULT_255_1_388
10
4.7690785
20
52.8985523
11
4.7690785
21
52.9753553
0
ARC
8
DEFAULT_255_1_388
10
4.3650469
20
52.9326436
40
0.6598608
50
75.4100343
51
90.3802731
0
ARC
8
DEFAULT_255_1_388
10
4.3908714
20
53.0402691
40
0.5492049
50
60.1455157
51
75.1889627
0
ARC
8
DEFAULT_255_1_388
10
4.4087306
20
53.0713914
40
0.5133226
50
26.525419
51
60.1451222
0
ARC
8
DEFAULT_255_1_388
10
4.2827092
20
53.0045642
40
0.6559324
50
7.4029944
51
26.832209
0
ARC
8
DEFAULT_255_1_388
10
4.1033489
20
52.9766229
40
0.8374103
50
0.1605597
51
7.7176135
0
ARC
8
DEFAULT_255_1_388
10
4.1217889
20
52.8906321
40
0.8189782
50
348.7289744
51
0.30125
0
ARC
8
DEFAULT_255_1_388
10
4.3081353
20
52.8536156
40
0.628991
50
333.0706936
51
348.7181455
0
ARC
8
DEFAULT_255_1_388
10
4.4168981
20
52.7945449
40
0.5052808
50
299.2531435
51
333.4571133
0
ARC
8
DEFAULT_255_1_388
10
4.3763012
20
52.8716629
40
0.5924066
50
278.1072193
51
299.0340218
0
ARC
8
DEFAULT_255_1_388
10
4.3475061
20
53.0412979
40
0.7644209
50
270.4446841
51
278.4508355
0
ARC
8
DEFAULT_255_1_388
10
4.3498545
20
52.93673
40
0.5179903
50
269.4969684
51
284.0204874
0
ARC
8
DEFAULT_255_1_388
10
4.3898263
20
52.7831415
40
0.3592968
50
283.7699076
51
318.1557121
0
ARC
8
DEFAULT_255_1_388
10
4.3518808
20
52.8115399
40
0.4065308
50
318.7417595
51
343.687252
0
ARC
8
DEFAULT_255_1_388
10
4.1489387
20
52.8749275
40
0.6191194
50
343.3324891
51
355.8548594
0
ARC
8
DEFAULT_255_1_388
10
3.9128424
20
52.8973719
40
0.856237
50
355.4988754
51
0.0789913
0
ARC
8
DEFAULT_255_1_388
10
4.0009224
20
52.980108
40
0.7681709
50
359.6455047
51
9.8607559
0
ARC
8
DEFAULT_255_1_388
10
4.2664947
20
53.0280664
40
0.498312
50
9.6573037
51
26.1931522
0
ARC
8
DEFAULT_255_1_388
10
4.3709022
20
53.0765587
40
0.3832303
50
26.5777895
51
40.1533752
0
ARC
8
DEFAULT_255_1_388
10
4.3996687
20
53.099002
40
0.3467742
50
40.3839958
51
80.1430923
0
ARC
8
DEFAULT_255_1_388
10
4.3628942
20
52.9359486
40
0.5137832
50
79.2153636
51
89.7445174
0
LINE
8
DEFAULT_255_1_388
10
5.996119
20
52.6943468
11
6.170507
21
52.6943468
0
LINE
8
DEFAULT_255_1_388
10
5.1576112
20
52.8732525
11
5.1576112
21
52.9997516
0
LINE
8
DEFAULT_255_1_388
10
6.170507
20
53.1696217
11
5.996119
21
53.1696217
0
LINE
8
DEFAULT_255_1_388
10
5.3319992
20
52.9952337
11
5.3319992
21
52.8678312
0
ARC
8
DEFAULT_255_1_388
10
5.5539304
20
52.7615329
40
0.6202263
50
340.1774904
51
353.7812217
0
ARC
8
DEFAULT_255_1_388
10
5.7307157
20
52.6956893
40
0.4315926
50
311.4560052
51
340.4420756
0
ARC
8
DEFAULT_255_1_388
10
5.7269696
20
52.7081665
40
0.4434573
50
282.4332229
51
310.7514507
0
ARC
8
DEFAULT_255_1_388
10
5.6775514
20
52.9123703
40
0.6535262
50
269.9358869
51
282.8096729
0
ARC
8
DEFAULT_255_1_388
10
5.6717454
20
53.0636329
40
0.8048043
50
269.9995752
51
270.3612856
0
ARC
8
DEFAULT_255_1_388
10
5.6657944
20
52.7837781
40
0.5249831
50
250.7885263
51
270.6488451
0
ARC
8
DEFAULT_255_1_388
10
5.6468768
20
52.7120853
40
0.4510942
50
219.3628377
51
250.0611024
0
ARC
8
DEFAULT_255_1_388
10
5.7401643
20
52.7913653
40
0.5735046
50
193.5480293
51
219.5755675
0
ARC
8
DEFAULT_255_1_388
10
6.0069852
20
52.860652
40
0.849146
50
181.1220183
51
193.8754971
0
ARC
8
DEFAULT_255_1_388
10
6.2393085
20
52.8730914
40
1.0816971
50
179.9914644
51
181.5398227
0
ARC
8
DEFAULT_255_1_388
10
6.0316395
20
53.0039586
40
0.8740384
50
169.5837606
51
180.275782
0
ARC
8
DEFAULT_255_1_388
10
5.8249743
20
53.0421439
40
0.6638751
50
155.0367033
51
169.6002779
0
ARC
8
DEFAULT_255_1_388
10
5.6972202
20
53.1037336
40
0.5220662
50
136.7831557
51
155.2472983
0
ARC
8
DEFAULT_255_1_388
10
5.6533992
20
53.1409577
40
0.4646502
50
121.7633063
51
136.4281161
0
ARC
8
DEFAULT_255_1_388
10
5.6685832
20
53.1129049
40
0.4964979
50
95.6460018
51
121.5489589
0
ARC
8
DEFAULT_255_1_388
10
5.6862807
20
52.9881704
40
0.6223912
50
89.9245727
51
96.1375919
0
ARC
8
DEFAULT_255_1_388
10
5.6919512
20
53.0015721
40
0.6090084
50
76.6779212
51
90.456405
0
ARC
8
DEFAULT_255_1_388
10
5.7362324
20
53.180506
40
0.42469
50
47.4858803
51
76.9287069
0
ARC
8
DEFAULT_255_1_388
10
5.7196938
20
53.1692623
40
0.4441778
50
16.5424081
51
46.8934505
0
ARC
8
DEFAULT_255_1_388
10
5.5387988
20
53.1098265
40
0.6345318
50
5.4072971
51
17.0363711
0
ARC
8
DEFAULT_255_1_388
10
5.3769713
20
53.0838304
40
0.6250632
50
7.8888693
51
15.9242022
0
ARC
8
DEFAULT_255_1_388
10
5.6004699
20
53.1487309
40
0.3923364
50
15.7650676
51
27.9410069
0
ARC
8
DEFAULT_255_1_388
10
5.7246868
20
53.2152317
40
0.2514401
50
27.8167196
51
46.4007942
0
ARC
8
DEFAULT_255_1_388
10
5.7302709
20
53.2145882
40
0.2480958
50
47.4372362
51
75.0695672
0
ARC
8
DEFAULT_255_1_388
10
5.6955545
20
53.0937277
40
0.3738281
50
74.7009379
51
87.8124314
0
ARC
8
DEFAULT_255_1_388
10
5.6873162
20
52.9753659
40
0.4924321
50
87.3802571
51
90.0251599
0
ARC
8
DEFAULT_255_1_388
10
5.682981
20
53.1073997
40
0.3604218
50
89.3451886
51
108.5744412
0
ARC
8
DEFAULT_255_1_388
10
5.6675802
20
53.1651836
40
0.3007661
50
109.2998307
51
143.3037387
0
ARC
8
DEFAULT_255_1_388
10
5.7533092
20
53.0992584
40
0.4089031
50
143.075267
51
163.1918576
0
ARC
8
DEFAULT_255_1_388
10
5.9728926
20
53.0299652
40
0.6391492
50
162.9375929
51
174.6208776
0
ARC
8
DEFAULT_255_1_388
10
6.2683308
20
52.9975711
40
0.9363344
50
174.342123
51
180.1430283
0
ARC
8
DEFAULT_255_1_388
10
6.1635849
20
52.8632117
40
0.8315986
50
179.6817261
51
189.150555
0
ARC
8
DEFAULT_255_1_388
10
5.8822598
20
52.8163559
40
0.5464044
50
188.9911061
51
203.5772363
0
ARC
8
DEFAULT_255_1_388
10
5.760789
20
52.7659539
40
0.4149206
50
203.9075402
51
215.1312435
0
ARC
8
DEFAULT_255_1_388
10
5.6569687
20
52.6854907
40
0.2837747
50
213.9071511
51
263.8848919
0
ARC
8
DEFAULT_255_1_388
10
5.6710681
20
52.7737519
40
0.3730641
50
263.1757928
51
270.1031044
0
ARC
8
DEFAULT_255_1_388
10
5.674676
20
52.9140511
40
0.5133712
50
269.6722503
51
279.0606936
0
ARC
8
DEFAULT_255_1_388
10
5.7046916
20
52.732615
40
0.3294739
50
278.8749101
51
293.6349581
0
ARC
8
DEFAULT_255_1_388
10
5.7407119
20
52.6480251
40
0.2375405
50
293.8553806
51
310.0518171
0
ARC
8
DEFAULT_255_1_388
10
5.7412628
20
52.6410021
40
0.2318463
50
311.0644687
51
332.0111037
0
ARC
8
DEFAULT_255_1_388
10
5.6071302
20
52.7149702
40
0.3850112
50
331.6586806
51
343.2877423
0
ARC
8
DEFAULT_255_1_388
10
5.3750767
20
52.7862806
40
0.6277712
50
343.1446576
51
351.0103568
0
ARC
8
DEFAULT_255_1_388
10
5.211809
20
52.8162873
40
0.7937327
50
350.71248
51
351.1626997
0
LINE
8
DEFAULT_255_1_388
10
6.913237
20
53.5988148
11
6.913237
21
52.2769
0
LINE
8
DEFAULT_255_1_388
10
6.913237
20
52.2769
11
6.745174
21
52.2769
0
LINE
8
DEFAULT_255_1_388
10
6.745174
20
52.2769
11
6.745174
21
53.390995
0
LINE
8
DEFAULT_255_1_388
10
6.745174
20
53.390995
11
6.4081444
21
53.2672066
0
LINE
8
DEFAULT_255_1_388
10
6.4081444
20
53.2672066
11
6.4081444
21
53.4190055
0
LINE
8
DEFAULT_255_1_388
10
6.4081444
20
53.4190055
11
6.8870336
21
53.5988148
0
LINE
8
DEFAULT_255_1_388
10
6.8870336
20
53.5988148
11
6.913237
21
53.5988148
0
LINE
8
DEFAULT_255_1_388
10
4.3625389
20
60.2144
11
3.9984024
21
60.2144
0
LINE
8
DEFAULT_255_1_388
10
3.9984024
20
60.2144
11
3.9984024
21
61.5299898
0
LINE
8
DEFAULT_255_1_388
10
3.9984024
20
61.5299898
11
4.3697674
21
61.5299898
0
LINE
8
DEFAULT_255_1_388
10
4.9498558
20
60.9164696
11
4.9498558
21
60.8324381
0
LINE
8
DEFAULT_255_1_388
10
4.3742852
20
61.3872267
11
4.1718868
21
61.3872267
0
LINE
8
DEFAULT_255_1_388
10
4.1718868
20
61.3872267
11
4.1718868
21
60.3562596
0
LINE
8
DEFAULT_255_1_388
10
4.1718868
20
60.3562596
11
4.3544068
21
60.3562596
0
LINE
8
DEFAULT_255_1_388
10
4.7781785
20
60.8360523
11
4.7781785
21
60.9128553
0
ARC
8
DEFAULT_255_1_388
10
4.3741469
20
60.8701436
40
0.6598608
50
75.4100343
51
90.3802731
0
ARC
8
DEFAULT_255_1_388
10
4.3999714
20
60.9777691
40
0.5492049
50
60.1455157
51
75.1889627
0
ARC
8
DEFAULT_255_1_388
10
4.4178306
20
61.0088914
40
0.5133226
50
26.525419
51
60.1451222
0
ARC
8
DEFAULT_255_1_388
10
4.2918092
20
60.9420642
40
0.6559324
50
7.4029944
51
26.832209
0
ARC
8
DEFAULT_255_1_388
10
4.1124489
20
60.9141229
40
0.8374103
50
0.1605597
51
7.7176135
0
ARC
8
DEFAULT_255_1_388
10
4.1308889
20
60.8281321
40
0.8189782
50
348.7289744
51
0.30125
0
ARC
8
DEFAULT_255_1_388
10
4.3172353
20
60.7911156
40
0.628991
50
333.0706936
51
348.7181455
0
ARC
8
DEFAULT_255_1_388
10
4.4259981
20
60.7320449
40
0.5052808
50
299.2531435
51
333.4571133
0
ARC
8
DEFAULT_255_1_388
10
4.3854012
20
60.8091629
40
0.5924066
50
278.1072193
51
299.0340218
0
ARC
8
DEFAULT_255_1_388
10
4.3566061
20
60.9787979
40
0.7644209
50
270.4446841
51
278.4508355
0
ARC
8
DEFAULT_255_1_388
10
4.3589545
20
60.87423
40
0.5179903
50
269.4969684
51
284.0204874
0
ARC
8
DEFAULT_255_1_388
10
4.3989263
20
60.7206415
40
0.3592968
50
283.7699076
51
318.1557121
0
ARC
8
DEFAULT_255_1_388
10
4.3609808
20
60.7490399
40
0.4065308
50
318.7417595
51
343.687252
0
ARC
8
DEFAULT_255_1_388
10
4.1580387
20
60.8124275
40
0.6191194
50
343.3324891
51
355.8548594
0
ARC
8
DEFAULT_255_1_388
10
3.9219424
20
60.8348719
40
0.856237
50
355.4988754
51
0.0789913
0
ARC
8
DEFAULT_255_1_388
10
4.0100224
20
60.917608
40
0.7681709
50
359.6455047
51
9.8607559
0
ARC
8
DEFAULT_255_1_388
10
4.2755947
20
60.9655664
40
0.498312
50
9.6573037
51
26.1931522
0
ARC
8
DEFAULT_255_1_388
10
4.3800022
20
61.0140587
40
0.3832303
50
26.5777895
51
40.1533752
0
ARC
8
DEFAULT_255_1_388
10
4.4087687
20
61.036502
40
0.3467742
50
40.3839958
51
80.1430923
0
ARC
8
DEFAULT_255_1_388
10
4.3719942
20
60.8734486
40
0.5137832
50
79.2153636
51
89.7445174
0
LINE
8
DEFAULT_255_1_388
10
6.005219
20
60.6318468
11
6.179607
21
60.6318468
0
LINE
8
DEFAULT_255_1_388
10
5.1667112
20
60.8107525
11
5.1667112
21
60.9372516
0
LINE
8
DEFAULT_255_1_388
10
6.179607
20
61.1071217
11
6.005219
21
61.1071217
0
LINE
8
DEFAULT_255_1_388
10
5.3410992
20
60.9327337
11
5.3410992
21
60.8053312
0
ARC
8
DEFAULT_255_1_388
10
5.5630304
20
60.6990329
40
0.6202263
50
340.1774904
51
353.7812217
0
ARC
8
DEFAULT_255_1_388
10
5.7398157
20
60.6331893
40
0.4315926
50
311.4560052
51
340.4420756
0
ARC
8
DEFAULT_255_1_388
10
5.7360696
20
60.6456665
40
0.4434573
50
282.4332229
51
310.7514507
0
ARC
8
DEFAULT_255_1_388
10
5.6866514
20
60.8498703
40
0.6535262
50
269.9358869
51
282.8096729
0
ARC
8
DEFAULT_255_1_388
10
5.6808454
20
61.0011329
40
0.8048043
50
269.9995752
51
270.3612856
0
ARC
8
DEFAULT_255_1_388
10
5.6748944
20
60.7212781
40
0.5249831
50
250.7885263
51
270.6488451
0
ARC
8
DEFAULT_255_1_388
10
5.6559768
20
60.6495853
40
0.4510942
50
219.3628377
51
250.0611024
0
ARC
8
DEFAULT_255_1_388
10
5.7492643
20
60.7288653
40
0.5735046
50
193.5480293
51
219.5755675
0
ARC
8
DEFAULT_255_1_388
10
6.0160852
20
60.798152
40
0.849146
50
181.1220183
51
193.8754971
0
ARC
8
DEFAULT_255_1_388
10
6.2484085
20
60.8105914
40
1.0816971
50
179.9914644
51
181.5398227
0
ARC
8
DEFAULT_255_1_388
10
6.0407395
20
60.9414586
40
0.8740384
50
169.5837606
51
180.275782
0
ARC
8
DEFAULT_255_1_388
10
5.8340743
20
60.9796439
40
0.6638751
50
155.0367033
51
169.6002779
0
ARC
8
DEFAULT_255_1_388
10
5.7063202
20
61.0412336
40
0.5220662
50
136.7831557
51
155.2472983
0
ARC
8
DEFAULT_255_1_388
10
5.6624992
20
61.0784577
40
0.4646502
50
121.7633063
51
136.4281161
0
ARC
8
DEFAULT_255_1_388
10
5.6776832
20
61.0504049
40
0.4964979
50
95.6460018
51
121.5489589
0
ARC
8
DEFAULT_255_1_388
10
5.6953807
20
60.9256704
40
0.6223912
50
89.9245727
51
96.1375919
0
ARC
8
DEFAULT_255_1_388
10
5.7010512
20
60.9390721
40
0.6090084
50
76.6779212
51
90.456405
0
ARC
8
DEFAULT_255_1_388
10
5.7453324
20
61.118006
40
0.42469
50
47.4858803
51
76.9287069
0
ARC
8
DEFAULT_255_1_388
10
5.7287938
20
61.1067623
40
0.4441778
50
16.5424081
51
46.8934505
0
ARC
8
DEFAULT_255_1_388
10
5.5478988
20
61.0473265
40
0.6345318
50
5.4072971
51
17.0363711
0
ARC
8
DEFAULT_255_1_388
10
5.3860713
20
61.0213304
40
0.6250632
50
7.8888693
51
15.9242022
0
ARC
8
DEFAULT_255_1_388
10
5.6095699
20
61.0862309
40
0.3923364
50
15.7650676
51
27.9410069
0
ARC
8
DEFAULT_255_1_388
10
5.7337868
20
61.1527317
40
0.2514401
50
27.8167196
51
46.4007942
0
ARC
8
DEFAULT_255_1_388
10
5.7393709
20
61.1520882
40
0.2480958
50
47.4372362
51
75.0695672
0
ARC
8
DEFAULT_255_1_388
10
5.7046545
20
61.0312277
40
0.3738281
50
74.7009379
51
87.8124314
0
ARC
8
DEFAULT_255_1_388
10
5.6964162
20
60.9128659
40
0.4924321
50
87.3802571
51
90.0251599
0
ARC
8
DEFAULT_255_1_388
10
5.692081
20
61.0448997
40
0.3604218
50
89.3451886
51
108.5744412
0
ARC
8
DEFAULT_255_1_388
10
5.6766802
20
61.1026836
40
0.3007661
50
109.2998307
51
143.3037387
0
ARC
8
DEFAULT_255_1_388
10
5.7624092
20
61.0367584
40
0.4089031
50
143.075267
51
163.1918576
0
ARC
8
DEFAULT_255_1_388
10
5.9819926
20
60.9674652
40
0.6391492
50
162.9375929
51
174.6208776
0
ARC
8
DEFAULT_255_1_388
10
6.2774308
20
60.9350711
40
0.9363344
50
174.342123
51
180.1430283
0
ARC
8
DEFAULT_255_1_388
10
6.1726849
20
60.8007117
40
0.8315986
50
179.6817261
51
189.150555
0
ARC
8
DEFAULT_255_1_388
10
5.8913598
20
60.7538559
40
0.5464044
50
188.9911061
51
203.5772363
0
ARC
8
DEFAULT_255_1_388
10
5.769889
20
60.7034539
40
0.4149206
50
203.9075402
51
215.1312435
0
ARC
8
DEFAULT_255_1_388
10
5.6660687
20
60.6229907
40
0.2837747
50
213.9071511
51
263.8848919
0
ARC
8
DEFAULT_255_1_388
10
5.6801681
20
60.7112519
40
0.3730641
50
263.1757928
51
270.1031044
0
ARC
8
DEFAULT_255_1_388
10
5.683776
20
60.8515511
40
0.5133712
50
269.6722503
51
279.0606936
0
ARC
8
DEFAULT_255_1_388
10
5.7137916
20
60.670115
40
0.3294739
50
278.8749101
51
293.6349581
0
ARC
8
DEFAULT_255_1_388
10
5.7498119
20
60.5855251
40
0.2375405
50
293.8553806
51
310.0518171
0
ARC
8
DEFAULT_255_1_388
10
5.7503628
20
60.5785021
40
0.2318463
50
311.0644687
51
332.0111037
0
ARC
8
DEFAULT_255_1_388
10
5.6162302
20
60.6524702
40
0.3850112
50
331.6586806
51
343.2877423
0
ARC
8
DEFAULT_255_1_388
10
5.3841767
20
60.7237806
40
0.6277712
50
343.1446576
51
351.0103568
0
ARC
8
DEFAULT_255_1_388
10
5.220909
20
60.7537873
40
0.7937327
50
350.71248
51
351.1626997
0
LINE
8
DEFAULT_255_1_388
10
7.1979241
20
60.992369
11
7.1979241
21
60.7755135
0
LINE
8
DEFAULT_255_1_388
10
6.3675484
20
60.7529244
11
6.3675484
21
60.9761048
0
LINE
8
DEFAULT_255_1_388
10
7.0307647
20
60.7303353
11
7.0307647
21
61.0041153
0
LINE
8
DEFAULT_255_1_388
10
6.5347078
20
61.0167652
11
6.5347078
21
60.7493102
0
ARC
8
DEFAULT_255_1_388
10
5.8201575
20
60.7700118
40
1.3777776
50
353.8440855
51
0.2287917
0
ARC
8
DEFAULT_255_1_388
10
6.3420593
20
60.7117414
40
0.852639
50
344.4934746
51
353.9763743
0
ARC
8
DEFAULT_255_1_388
10
6.67874
20
60.6160191
40
0.5026273
50
329.2803599
51
344.7473406
0
ARC
8
DEFAULT_255_1_388
10
6.7902896
20
60.5548038
40
0.3754848
50
324.9361395
51
328.6153007
0
ARC
8
DEFAULT_255_1_388
10
6.8328545
20
60.5250586
40
0.3235566
50
280.5801797
51
324.9173226
0
ARC
8
DEFAULT_255_1_388
10
6.7877174
20
60.7130236
40
0.5167077
50
269.5979457
51
281.6732777
0
ARC
8
DEFAULT_255_1_388
10
6.7796077
20
60.6995113
40
0.5032026
50
256.6228565
51
270.5105488
0
ARC
8
DEFAULT_255_1_388
10
6.734382
20
60.5253345
40
0.3233092
50
215.8618351
51
257.2787793
0
ARC
8
DEFAULT_255_1_388
10
6.8492527
20
60.6024106
40
0.4615831
50
197.9695203
51
215.2622745
0
ARC
8
DEFAULT_255_1_388
10
7.1288203
20
60.6967641
40
0.7566307
50
187.8816486
51
198.2346584
0
ARC
8
DEFAULT_255_1_388
10
7.5741441
20
60.7610453
40
1.2065653
50
180.8977266
51
188.0054894
0
ARC
8
DEFAULT_255_1_388
10
7.8791655
20
60.77254
40
1.5117443
50
180.7434591
51
181.152202
0
ARC
8
DEFAULT_255_1_388
10
7.7116651
20
60.9815371
40
1.3441277
50
173.7674302
51
180.2315596
0
ARC
8
DEFAULT_255_1_388
10
7.203452
20
61.0389779
40
0.8326847
50
164.3058537
51
173.9000553
0
ARC
8
DEFAULT_255_1_388
10
6.875852
20
61.1333652
40
0.4917711
50
148.7922028
51
164.5682288
0
ARC
8
DEFAULT_255_1_388
10
6.7689257
20
61.1930457
40
0.3694204
50
144.5883979
51
148.1161588
0
ARC
8
DEFAULT_255_1_388
10
6.7302002
20
61.2200667
40
0.322202
50
101.6440149
51
144.5142619
0
ARC
8
DEFAULT_255_1_388
10
6.7780195
20
61.0300337
40
0.5180451
50
89.528284
51
102.5820197
0
ARC
8
DEFAULT_255_1_388
10
6.7869186
20
61.0256376
40
0.5224441
50
77.0437914
51
90.508231
0
ARC
8
DEFAULT_255_1_388
10
6.832144
20
61.2104272
40
0.3322297
50
48.2777708
51
77.4996087
0
ARC
8
DEFAULT_255_1_388
10
6.840318
20
61.2249557
40
0.315966
50
36.3141586
51
47.6307332
0
ARC
8
DEFAULT_255_1_388
10
6.7425902
20
61.1591159
40
0.4337313
50
18.2931065
51
35.6770203
0
ARC
8
DEFAULT_255_1_388
10
6.4564743
20
61.0609107
40
0.7362203
50
8.0246996
51
18.5605636
0
ARC
8
DEFAULT_255_1_388
10
5.9881099
20
60.9917432
40
1.2096583
50
1.127539
51
8.1718423
0
ARC
8
DEFAULT_255_1_388
10
5.6232232
20
60.9774374
40
1.5747719
50
0.5432713
51
1.38669
0
ARC
8
DEFAULT_255_1_388
10
5.8289611
20
61.0081163
40
1.2018103
50
359.8092569
51
4.9408001
0
ARC
8
DEFAULT_255_1_388
10
6.3026192
20
61.05039
40
0.7262727
50
4.8364937
51
12.2906017
0
ARC
8
DEFAULT_255_1_388
10
6.6125657
20
61.1194485
40
0.4087324
50
12.0806994
51
23.8171225
0
ARC
8
DEFAULT_255_1_388
10
6.7446053
20
61.1753508
40
0.2653719
50
24.2874621
51
31.3934353
0
ARC
8
DEFAULT_255_1_388
10
6.8036489
20
61.2139822
40
0.1948607
50
30.7407708
51
82.4658033
0
ARC
8
DEFAULT_255_1_388
10
6.783415
20
61.1146017
40
0.2961198
50
81.1057101
51
90.2187368
0
ARC
8
DEFAULT_255_1_388
10
6.7793961
20
61.1436421
40
0.2670929
50
89.380395
51
105.6763916
0
ARC
8
DEFAULT_255_1_388
10
6.7587683
20
61.218632
40
0.1893189
50
105.7980655
51
149.7387869
0
ARC
8
DEFAULT_255_1_388
10
6.8784824
20
61.1466719
40
0.3289892
50
149.4208441
51
163.628295
0
ARC
8
DEFAULT_255_1_388
10
7.1137053
20
61.0749345
40
0.5749004
50
163.3764549
51
172.141138
0
ARC
8
DEFAULT_255_1_388
10
7.4849775
20
61.0217582
40
0.9499585
50
172.0258462
51
178.0705453
0
ARC
8
DEFAULT_255_1_388
10
7.8271327
20
61.0055682
40
1.2924734
50
177.8639301
51
179.5036263
0
ARC
8
DEFAULT_255_1_388
10
7.7052346
20
60.7452151
40
1.170534
50
179.7995545
51
185.246089
0
ARC
8
DEFAULT_255_1_388
10
7.2503939
20
60.7021404
40
0.7136613
50
185.1411911
51
193.0082205
0
ARC
8
DEFAULT_255_1_388
10
6.95302
20
60.6318441
40
0.4080987
50
192.7897338
51
205.2507384
0
ARC
8
DEFAULT_255_1_388
10
6.835241
20
60.5792538
40
0.2791522
50
205.8001921
51
211.2545876
0
ARC
8
DEFAULT_255_1_388
10
6.7763949
20
60.5398132
40
0.2084074
50
210.3789935
51
238.4007996
0
ARC
8
DEFAULT_255_1_388
10
6.7742035
20
60.5450786
40
0.2117943
50
239.6521916
51
265.9793852
0
ARC
8
DEFAULT_255_1_388
10
6.7837884
20
60.6207358
40
0.2879689
50
265.1324455
51
270.0603288
0
ARC
8
DEFAULT_255_1_388
10
6.7870261
20
60.5842418
40
0.2514919
50
269.3314378
51
287.2180039
0
ARC
8
DEFAULT_255_1_388
10
6.8025343
20
60.5276291
40
0.1928357
50
287.7957942
51
329.0808983
0
ARC
8
DEFAULT_255_1_388
10
6.69481
20
60.5948651
40
0.319808
50
328.6635261
51
343.3325043
0
ARC
8
DEFAULT_255_1_388
10
6.4503559
20
60.6710195
40
0.5758408
50
343.0498092
51
351.9392499
0
ARC
8
DEFAULT_255_1_388
10
6.060288
20
60.7285205
40
0.9701202
50
351.8071632
51
357.7957897
0
ARC
8
DEFAULT_255_1_388
10
5.6968357
20
60.7473724
40
1.3340376
50
357.5870923
51
359.2682493
0
LINE
8
DEFAULT_255_1_388
10
23.1190856
20
68.929869
11
23.1190856
21
68.7130135
0
LINE
8
DEFAULT_255_1_388
10
22.2887099
20
68.6904244
11
22.2887099
21
68.9136048
0
LINE
8
DEFAULT_255_1_388
10
22.9519262
20
68.6678353
11
22.9519262
21
68.9416153
0
LINE
8
DEFAULT_255_1_388
10
22.4558693
20
68.9542652
11
22.4558693
21
68.6868102
0
ARC
8
DEFAULT_255_1_388
10
21.741319
20
68.7075118
40
1.3777776
50
353.8440855
51
0.2287917
0
ARC
8
DEFAULT_255_1_388
10
22.2632208
20
68.6492414
40
0.852639
50
344.4934746
51
353.9763743
0
ARC
8
DEFAULT_255_1_388
10
22.5999015
20
68.5535191
40
0.5026273
50
329.2803599
51
344.7473406
0
ARC
8
DEFAULT_255_1_388
10
22.7114511
20
68.4923038
40
0.3754848
50
324.9361395
51
328.6153007
0
ARC
8
DEFAULT_255_1_388
10
22.7540161
20
68.4625586
40
0.3235566
50
280.5801797
51
324.9173226
0
ARC
8
DEFAULT_255_1_388
10
22.7088789
20
68.6505236
40
0.5167077
50
269.5979457
51
281.6732777
0
ARC
8
DEFAULT_255_1_388
10
22.7007693
20
68.6370113
40
0.5032026
50
256.6228565
51
270.5105488
0
ARC
8
DEFAULT_255_1_388
10
22.6555435
20
68.4628345
40
0.3233092
50
215.8618351
51
257.2787793
0
ARC
8
DEFAULT_255_1_388
10
22.7704142
20
68.5399106
40
0.4615831
50
197.9695203
51
215.2622745
0
ARC
8
DEFAULT_255_1_388
10
23.0499818
20
68.6342641
40
0.7566307
50
187.8816486
51
198.2346584
0
ARC
8
DEFAULT_255_1_388
10
23.4953056
20
68.6985453
40
1.2065653
50
180.8977266
51
188.0054894
0
ARC
8
DEFAULT_255_1_388
10
23.800327
20
68.71004
40
1.5117443
50
180.7434591
51
181.152202
0
ARC
8
DEFAULT_255_1_388
10
23.6328266
20
68.9190371
40
1.3441277
50
173.7674302
51
180.2315596
0
ARC
8
DEFAULT_255_1_388
10
23.1246135
20
68.9764779
40
0.8326847
50
164.3058537
51
173.9000553
0
ARC
8
DEFAULT_255_1_388
10
22.7970135
20
69.0708652
40
0.4917711
50
148.7922028
51
164.5682288
0
ARC
8
DEFAULT_255_1_388
10
22.6900872
20
69.1305457
40
0.3694204
50
144.5883979
51
148.1161588
0
ARC
8
DEFAULT_255_1_388
10
22.6513618
20
69.1575667
40
0.322202
50
101.6440149
51
144.5142619
0
ARC
8
DEFAULT_255_1_388
10
22.699181
20
68.9675337
40
0.5180451
50
89.528284
51
102.5820197
0
ARC
8
DEFAULT_255_1_388
10
22.7080802
20
68.9631376
40
0.5224441
50
77.0437914
51
90.508231
0
ARC
8
DEFAULT_255_1_388
10
22.7533055
20
69.1479272
40
0.3322297
50
48.2777708
51
77.4996087
0
ARC
8
DEFAULT_255_1_388
10
22.7614795
20
69.1624557
40
0.315966
50
36.3141586
51
47.6307332
0
ARC
8
DEFAULT_255_1_388
10
22.6637518
20
69.0966159
40
0.4337313
50
18.2931065
51
35.6770203
0
ARC
8
DEFAULT_255_1_388
10
22.3776358
20
68.9984107
40
0.7362203
50
8.0246996
51
18.5605636
0
ARC
8
DEFAULT_255_1_388
10
21.9092714
20
68.9292432
40
1.2096583
50
1.127539
51
8.1718423
0
ARC
8
DEFAULT_255_1_388
10
21.5443847
20
68.9149374
40
1.5747719
50
0.5432713
51
1.38669
0
ARC
8
DEFAULT_255_1_388
10
21.7501226
20
68.9456163
40
1.2018103
50
359.8092569
51
4.9408001
0
ARC
8
DEFAULT_255_1_388
10
22.2237807
20
68.98789
40
0.7262727
50
4.8364937
51
12.2906017
0
ARC
8
DEFAULT_255_1_388
10
22.5337272
20
69.0569485
40
0.4087324
50
12.0806994
51
23.8171225
0
ARC
8
DEFAULT_255_1_388
10
22.6657668
20
69.1128508
40
0.2653719
50
24.2874621
51
31.3934353
0
ARC
8
DEFAULT_255_1_388
10
22.7248104
20
69.1514822
40
0.1948607
50
30.7407708
51
82.4658033
0
ARC
8
DEFAULT_255_1_388
10
22.7045765
20
69.0521017
40
0.2961198
50
81.1057101
51
90.2187368
0
ARC
8
DEFAULT_255_1_388
10
22.7005577
20
69.0811421
40
0.2670929
50
89.380395
51
105.6763916
0
ARC
8
DEFAULT_255_1_388
10
22.6799299
20
69.156132
40
0.1893189
50
105.7980655
51
149.7387869
0
ARC
8
DEFAULT_255_1_388
10
22.7996439
20
69.0841719
40
0.3289892
50
149.4208441
51
163.628295
0
ARC
8
DEFAULT_255_1_388
10
23.0348668
20
69.0124345
40
0.5749004
50
163.3764549
51
172.141138
0
ARC
8
DEFAULT_255_1_388
10
23.406139
20
68.9592582
40
0.9499585
50
172.0258462
51
178.0705453
0
ARC
8
DEFAULT_255_1_388
10
23.7482943
20
68.9430682
40
1.2924734
50
177.8639301
51
179.5036263
0
ARC
8
DEFAULT_255_1_388
10
23.6263961
20
68.6827151
40
1.170534
50
179.7995545
51
185.246089
0
ARC
8
DEFAULT_255_1_388
10
23.1715554
20
68.6396404
40
0.7136613
50
185.1411911
51
193.0082205
0
ARC
8
DEFAULT_255_1_388
10
22.8741815
20
68.5693441
40
0.4080987
50
192.7897338
51
205.2507384
0
ARC
8
DEFAULT_255_1_388
10
22.7564025
20
68.5167538
40
0.2791522
50
205.8001921
51
211.2545876
0
ARC
8
DEFAULT_255_1_388
10
22.6975564
20
68.4773132
40
0.2084074
50
210.3789935
51
238.4007996
0
ARC
8
DEFAULT_255_1_388
10
22.695365
20
68.4825786
40
0.2117943
50
239.6521916
51
265.9793852
0
ARC
8
DEFAULT_255_1_388
10
22.7049499
20
68.5582358
40
0.2879689
50
265.1324455
51
270.0603288
0
ARC
8
DEFAULT_255_1_388
10
22.7081876
20
68.5217418
40
0.2514919
50
269.3314378
51
287.2180039
0
ARC
8
DEFAULT_255_1_388
10
22.7236958
20
68.4651291
40
0.1928357
50
287.7957942
51
329.0808983
0
ARC
8
DEFAULT_255_1_388
10
22.6159715
20
68.5323651
40
0.319808
50
328.6635261
51
343.3325043
0
ARC
8
DEFAULT_255_1_388
10
22.3715174
20
68.6085195
40
0.5758408
50
343.0498092
51
351.9392499
0
ARC
8
DEFAULT_255_1_388
10
21.9814496
20
68.6660205
40
0.9701202
50
351.8071632
51
357.7957897
0
ARC
8
DEFAULT_255_1_388
10
21.6179973
20
68.6848724
40
1.3340376
50
357.5870923
51
359.2682493
0
LINE
8
DEFAULT_255_1_388
10
23.4380439
20
69.4674898
11
23.8121196
21
68.3823089
0
LINE
8
DEFAULT_255_1_388
10
23.8121196
20
68.3823089
11
24.1880024
21
69.4674898
0
LINE
8
DEFAULT_255_1_388
10
24.1880024
20
69.4674898
11
24.3777509
21
69.4674898
0
LINE
8
DEFAULT_255_1_388
10
24.3777509
20
69.4674898
11
23.8898261
21
68.1519
0
LINE
8
DEFAULT_255_1_388
10
23.8898261
20
68.1519
11
23.7362202
21
68.1519
0
LINE
8
DEFAULT_255_1_388
10
23.7362202
20
68.1519
11
23.2491989
21
69.4674898
0
LINE
8
DEFAULT_255_1_388
10
23.2491989
20
69.4674898
11
23.4380439
21
69.4674898
0
LINE
8
DEFAULT_255_1_388
10
23.3185946
20
5.3503553
11
23.3185946
21
5.2672274
0
LINE
8
DEFAULT_255_1_388
10
22.2605206
20
5.2554811
11
22.2605206
21
5.3503553
0
LINE
8
DEFAULT_255_1_388
10
23.1460138
20
5.2545775
11
23.1460138
21
5.3521625
0
LINE
8
DEFAULT_255_1_388
10
22.4331014
20
5.3639088
11
22.4331014
21
5.2672274
0
ARC
8
DEFAULT_255_1_388
10
22.3463684
20
5.2627726
40
0.9722364
50
350.4878118
51
0.2625322
0
ARC
8
DEFAULT_255_1_388
10
22.6043644
20
5.2183994
40
0.7104556
50
336.0277991
51
350.5787241
0
ARC
8
DEFAULT_255_1_388
10
22.7556751
20
5.1500243
40
0.544417
50
319.887443
51
336.1331163
0
ARC
8
DEFAULT_255_1_388
10
22.8234563
20
5.0957733
40
0.4576311
50
302.4806296
51
319.6144102
0
ARC
8
DEFAULT_255_1_388
10
22.8105184
20
5.1207067
40
0.4856183
50
275.8196423
51
302.1885521
0
ARC
8
DEFAULT_255_1_388
10
22.7918046
20
5.2492466
40
0.6154183
50
269.9169897
51
276.339506
0
ARC
8
DEFAULT_255_1_388
10
22.7867646
20
5.172068
40
0.5382553
50
252.5221437
51
270.441579
0
ARC
8
DEFAULT_255_1_388
10
22.7705897
20
5.1114046
40
0.4755426
50
237.5349961
51
252.1858334
0
ARC
8
DEFAULT_255_1_388
10
22.7806273
20
5.124212
40
0.4917393
50
209.0632754
51
237.3492577
0
ARC
8
DEFAULT_255_1_388
10
22.8785599
20
5.1857104
40
0.6072464
50
205.118533
51
209.6465345
0
ARC
8
DEFAULT_255_1_388
10
22.9681601
20
5.2237174
40
0.7045164
50
188.7216633
51
204.8239753
0
ARC
8
DEFAULT_255_1_388
10
23.1928376
20
5.2615387
40
0.9323368
50
180.3722704
51
188.9253909
0
ARC
8
DEFAULT_255_1_388
10
23.1897938
20
5.3548416
40
0.929284
50
169.5253055
51
180.2766048
0
ARC
8
DEFAULT_255_1_388
10
22.9757737
20
5.3942024
40
0.7116745
50
155.8314601
51
169.5088611
0
ARC
8
DEFAULT_255_1_388
10
22.83172
20
5.4610312
40
0.5528904
50
139.6259579
51
156.0379072
0
ARC
8
DEFAULT_255_1_388
10
22.7653733
20
5.5144143
40
0.4677708
50
122.6414784
51
139.3431662
0
ARC
8
DEFAULT_255_1_388
10
22.7766988
20
5.4937787
40
0.4912586
50
93.0224537
51
122.4556091
0
ARC
8
DEFAULT_255_1_388
10
22.7888509
20
5.3851776
40
0.6003837
50
89.9756766
51
93.6340839
0
ARC
8
DEFAULT_255_1_388
10
22.7932107
20
5.4300879
40
0.5554884
50
73.7463329
51
90.4234008
0
ARC
8
DEFAULT_255_1_388
10
22.812958
20
5.5065772
40
0.4765353
50
57.663051
51
73.4516911
0
ARC
8
DEFAULT_255_1_388
10
22.8120618
20
5.5090108
40
0.4749629
50
29.1441355
51
57.4146687
0
ARC
8
DEFAULT_255_1_388
10
22.7068429
20
5.4433046
40
0.5988917
50
24.0985653
51
29.732054
0
ARC
8
DEFAULT_255_1_388
10
22.5906061
20
5.3951154
40
0.7246823
50
8.6654943
51
23.8241215
0
ARC
8
DEFAULT_255_1_388
10
22.3392479
20
5.3541037
40
0.9793537
50
359.7807044
51
8.8218476
0
ARC
8
DEFAULT_255_1_388
10
22.2102184
20
5.3569731
40
0.9358078
50
359.7054632
51
8.0359751
0
ARC
8
DEFAULT_255_1_388
10
22.5477235
20
5.4061252
40
0.5947474
50
7.8926278
51
20.2962188
0
ARC
8
DEFAULT_255_1_388
10
22.7308085
20
5.4736367
40
0.3996117
50
20.3231056
51
36.4990255
0
ARC
8
DEFAULT_255_1_388
10
22.8079383
20
5.5330399
40
0.3022818
50
36.1436715
51
85.6627846
0
ARC
8
DEFAULT_255_1_388
10
22.7896638
20
5.4160881
40
0.4203853
50
84.3845912
51
90.076054
0
ARC
8
DEFAULT_255_1_388
10
22.7848993
20
5.4903416
40
0.346157
50
89.3037228
51
109.9046209
0
ARC
8
DEFAULT_255_1_388
10
22.7744826
20
5.5333379
40
0.3022217
50
110.8229774
51
143.917961
0
ARC
8
DEFAULT_255_1_388
10
22.8795185
20
5.4531455
40
0.434348
50
143.5289166
51
163.2980252
0
ARC
8
DEFAULT_255_1_388
10
23.0941472
20
5.3856685
40
0.659321
50
163.0418884
51
174.3139873
0
ARC
8
DEFAULT_255_1_388
10
23.3646437
20
5.3544378
40
0.9315905
50
174.050934
51
179.4174954
0
ARC
8
DEFAULT_255_1_388
10
23.3078381
20
5.2625382
40
0.8747493
50
179.6928582
51
188.7908948
0
ARC
8
DEFAULT_255_1_388
10
23.0082181
20
5.2146086
40
0.5713262
50
188.6328449
51
202.5630732
0
ARC
8
DEFAULT_255_1_388
10
22.8671018
20
5.1579142
40
0.4192612
50
202.8078931
51
216.1195888
0
ARC
8
DEFAULT_255_1_388
10
22.7760535
20
5.0846479
40
0.3025752
50
215.0755613
51
264.6379773
0
ARC
8
DEFAULT_255_1_388
10
22.7903372
20
5.1781376
40
0.3970284
50
263.8464302
51
270.0830805
0
ARC
8
DEFAULT_255_1_388
10
22.7949917
20
5.1490808
40
0.3679937
50
269.3649295
51
287.5149684
0
ARC
8
DEFAULT_255_1_388
10
22.8150358
20
5.0762714
40
0.2925408
50
288.0629019
51
323.8115617
0
ARC
8
DEFAULT_255_1_388
10
22.7170334
20
5.1493754
40
0.4148018
50
323.6546541
51
342.6591359
0
ARC
8
DEFAULT_255_1_388
10
22.4884992
20
5.223728
40
0.6551163
50
342.4092446
51
353.6451501
0
ARC
8
DEFAULT_255_1_388
10
22.1699785
20
5.2633565
40
0.9760748
50
353.4027553
51
359.4846611
0
LINE
8
DEFAULT_255_1_388
10
24.3848006
20
5.9674898
11
24.3848006
21
5.8735191
0
LINE
8
DEFAULT_255_1_388
10
24.3848006
20
5.8735191
11
23.8399513
21
4.6519
0
LINE
8
DEFAULT_255_1_388
10
23.8399513
20
4.6519
11
23.6646598
21
4.6519
0
LINE
8
DEFAULT_255_1_388
10
23.6646598
20
4.6519
11
24.207702
21
5.830148
0
LINE
8
DEFAULT_255_1_388
10
24.207702
20
5.830148
11
23.4956932
21
5.830148
0
LINE
8
DEFAULT_255_1_388
10
23.4956932
20
5.830148
11
23.4956932
21
5.9674898
0
LINE
8
DEFAULT_255_1_388
10
23.4956932
20
5.9674898
11
24.3848006
21
5.9674898
0
LINE
8
DEFAULT_255_1_388
10
23.3185946
20
13.2878553
11
23.3185946
21
13.2047274
0
LINE
8
DEFAULT_255_1_388
10
22.2605206
20
13.1929811
11
22.2605206
21
13.2878553
0
LINE
8
DEFAULT_255_1_388
10
23.1460138
20
13.1920775
11
23.1460138
21
13.2896625
0
LINE
8
DEFAULT_255_1_388
10
22.4331014
20
13.3014088
11
22.4331014
21
13.2047274
0
ARC
8
DEFAULT_255_1_388
10
22.3463684
20
13.2002726
40
0.9722364
50
350.4878118
51
0.2625322
0
ARC
8
DEFAULT_255_1_388
10
22.6043644
20
13.1558994
40
0.7104556
50
336.0277991
51
350.5787241
0
ARC
8
DEFAULT_255_1_388
10
22.7556751
20
13.0875243
40
0.544417
50
319.887443
51
336.1331163
0
ARC
8
DEFAULT_255_1_388
10
22.8234563
20
13.0332733
40
0.4576311
50
302.4806296
51
319.6144102
0
ARC
8
DEFAULT_255_1_388
10
22.8105184
20
13.0582067
40
0.4856183
50
275.8196423
51
302.1885521
0
ARC
8
DEFAULT_255_1_388
10
22.7918046
20
13.1867466
40
0.6154183
50
269.9169897
51
276.339506
0
ARC
8
DEFAULT_255_1_388
10
22.7867646
20
13.109568
40
0.5382553
50
252.5221437
51
270.441579
0
ARC
8
DEFAULT_255_1_388
10
22.7705897
20
13.0489046
40
0.4755426
50
237.5349961
51
252.1858334
0
ARC
8
DEFAULT_255_1_388
10
22.7806273
20
13.061712
40
0.4917393
50
209.0632754
51
237.3492577
0
ARC
8
DEFAULT_255_1_388
10
22.8785599
20
13.1232104
40
0.6072464
50
205.118533
51
209.6465345
0
ARC
8
DEFAULT_255_1_388
10
22.9681601
20
13.1612174
40
0.7045164
50
188.7216633
51
204.8239753
0
ARC
8
DEFAULT_255_1_388
10
23.1928376
20
13.1990387
40
0.9323368
50
180.3722704
51
188.9253909
0
ARC
8
DEFAULT_255_1_388
10
23.1897938
20
13.2923416
40
0.929284
50
169.5253055
51
180.2766048
0
ARC
8
DEFAULT_255_1_388
10
22.9757737
20
13.3317024
40
0.7116745
50
155.8314601
51
169.5088611
0
ARC
8
DEFAULT_255_1_388
10
22.83172
20
13.3985312
40
0.5528904
50
139.6259579
51
156.0379072
0
ARC
8
DEFAULT_255_1_388
10
22.7653733
20
13.4519143
40
0.4677708
50
122.6414784
51
139.3431662
0
ARC
8
DEFAULT_255_1_388
10
22.7766988
20
13.4312787
40
0.4912586
50
93.0224537
51
122.4556091
0
ARC
8
DEFAULT_255_1_388
10
22.7888509
20
13.3226776
40
0.6003837
50
89.9756766
51
93.6340839
0
ARC
8
DEFAULT_255_1_388
10
22.7932107
20
13.3675879
40
0.5554884
50
73.7463329
51
90.4234008
0
ARC
8
DEFAULT_255_1_388
10
22.812958
20
13.4440772
40
0.4765353
50
57.663051
51
73.4516911
0
ARC
8
DEFAULT_255_1_388
10
22.8120618
20
13.4465108
40
0.4749629
50
29.1441355
51
57.4146687
0
ARC
8
DEFAULT_255_1_388
10
22.7068429
20
13.3808046
40
0.5988917
50
24.0985653
51
29.732054
0
ARC
8
DEFAULT_255_1_388
10
22.5906061
20
13.3326154
40
0.7246823
50
8.6654943
51
23.8241215
0
ARC
8
DEFAULT_255_1_388
10
22.3392479
20
13.2916037
40
0.9793537
50
359.7807044
51
8.8218476
0
ARC
8
DEFAULT_255_1_388
10
22.2102184
20
13.2944731
40
0.9358078
50
359.7054632
51
8.0359751
0
ARC
8
DEFAULT_255_1_388
10
22.5477235
20
13.3436252
40
0.5947474
50
7.8926278
51
20.2962188
0
ARC
8
DEFAULT_255_1_388
10
22.7308085
20
13.4111367
40
0.3996117
50
20.3231056
51
36.4990255
0
ARC
8
DEFAULT_255_1_388
10
22.8079383
20
13.4705399
40
0.3022818
50
36.1436715
51
85.6627846
0
ARC
8
DEFAULT_255_1_388
10
22.7896638
20
13.3535881
40
0.4203853
50
84.3845912
51
90.076054
0
ARC
8
DEFAULT_255_1_388
10
22.7848993
20
13.4278416
40
0.346157
50
89.3037228
51
109.9046209
0
ARC
8
DEFAULT_255_1_388
10
22.7744826
20
13.4708379
40
0.3022217
50
110.8229774
51
143.917961
0
ARC
8
DEFAULT_255_1_388
10
22.8795185
20
13.3906455
40
0.434348
50
143.5289166
51
163.2980252
0
ARC
8
DEFAULT_255_1_388
10
23.0941472
20
13.3231685
40
0.659321
50
163.0418884
51
174.3139873
0
ARC
8
DEFAULT_255_1_388
10
23.3646437
20
13.2919378
40
0.9315905
50
174.050934
51
179.4174954
0
ARC
8
DEFAULT_255_1_388
10
23.3078381
20
13.2000382
40
0.8747493
50
179.6928582
51
188.7908948
0
ARC
8
DEFAULT_255_1_388
10
23.0082181
20
13.1521086
40
0.5713262
50
188.6328449
51
202.5630732
0
ARC
8
DEFAULT_255_1_388
10
22.8671018
20
13.0954142
40
0.4192612
50
202.8078931
51
216.1195888
0
ARC
8
DEFAULT_255_1_388
10
22.7760535
20
13.0221479
40
0.3025752
50
215.0755613
51
264.6379773
0
ARC
8
DEFAULT_255_1_388
10
22.7903372
20
13.1156376
40
0.3970284
50
263.8464302
51
270.0830805
0
ARC
8
DEFAULT_255_1_388
10
22.7949917
20
13.0865808
40
0.3679937
50
269.3649295
51
287.5149684
0
ARC
8
DEFAULT_255_1_388
10
22.8150358
20
13.0137714
40
0.2925408
50
288.0629019
51
323.8115617
0
ARC
8
DEFAULT_255_1_388
10
22.7170334
20
13.0868754
40
0.4148018
50
323.6546541
51
342.6591359
0
ARC
8
DEFAULT_255_1_388
10
22.4884992
20
13.161228
40
0.6551163
50
342.4092446
51
353.6451501
0
ARC
8
DEFAULT_255_1_388
10
22.1699785
20
13.2008565
40
0.9760748
50
353.4027553
51
359.4846611
0
LINE
8
DEFAULT_255_1_388
10
24.1616202
20
13.9058934
11
24.1914378
21
13.9058934
0
LINE
8
DEFAULT_255_1_388
10
24.1914378
20
13.9058934
11
24.1914378
21
13.7640338
0
LINE
8
DEFAULT_255_1_388
10
24.1914378
20
13.7640338
11
24.1607167
21
13.7640338
0
LINE
8
DEFAULT_255_1_388
10
23.5453893
20
13.0899747
11
23.5453893
21
13.1541278
0
LINE
8
DEFAULT_255_1_388
10
23.7134522
20
13.1324422
11
23.7134522
21
13.0709999
0
ARC
8
DEFAULT_255_1_388
10
24.1666058
20
13.2017826
40
0.562282
50
90.6001079
51
104.5146616
0
ARC
8
DEFAULT_255_1_388
10
24.1229018
20
13.36431
40
0.3939917
50
104.2855758
51
133.8630124
0
ARC
8
DEFAULT_255_1_388
10
24.141327
20
13.3521243
40
0.4155734
50
134.5304124
51
161.6210222
0
ARC
8
DEFAULT_255_1_388
10
24.3273202
20
13.2865421
40
0.6127682
50
161.2850533
51
174.2074364
0
ARC
8
DEFAULT_255_1_388
10
24.4862769
20
13.2646437
40
0.7731446
50
173.7817938
51
174.9251711
0
ARC
8
DEFAULT_255_1_388
10
23.9736963
20
13.109127
40
0.3412588
50
95.8332067
51
138.995412
0
ARC
8
DEFAULT_255_1_388
10
23.9988243
20
12.9652695
40
0.4870358
50
89.8755506
51
97.0540979
0
ARC
8
DEFAULT_255_1_388
10
24.0041632
20
13.0592841
40
0.3930432
50
71.6407016
51
90.6240821
0
ARC
8
DEFAULT_255_1_388
10
24.0211026
20
13.1216433
40
0.3285421
50
39.6368051
51
71.0190743
0
ARC
8
DEFAULT_255_1_388
10
23.9494933
20
13.0597586
40
0.4231706
50
10.6588054
51
39.9044509
0
ARC
8
DEFAULT_255_1_388
10
23.7753479
20
13.0219223
40
0.60133
50
359.6827842
51
11.1326896
0
ARC
8
DEFAULT_255_1_388
10
23.7708815
20
13.0139715
40
0.6058047
50
347.2485908
51
0.4371098
0
ARC
8
DEFAULT_255_1_388
10
23.95846
20
12.9688379
40
0.4128987
50
318.1408565
51
347.6118497
0
ARC
8
DEFAULT_255_1_388
10
23.9950197
20
12.9387903
40
0.3656244
50
275.6342406
51
317.824739
0
ARC
8
DEFAULT_255_1_388
10
23.9701718
20
13.0849827
40
0.513655
50
269.8872513
51
276.7916069
0
ARC
8
DEFAULT_255_1_388
10
23.963991
20
12.9696181
40
0.398323
50
246.9139443
51
270.7436787
0
ARC
8
DEFAULT_255_1_388
10
23.9647106
20
12.9536044
40
0.3839368
50
218.1665534
51
245.8780431
0
ARC
8
DEFAULT_255_1_388
10
24.0636478
20
13.0363903
40
0.5128958
50
191.4115343
51
218.6077624
0
ARC
8
DEFAULT_255_1_388
10
24.2816795
20
13.0852777
40
0.7363054
50
179.6344971
51
191.7836758
0
ARC
8
DEFAULT_255_1_388
10
24.9096669
20
13.1616495
40
1.3642984
50
171.4523743
51
180.3158856
0
ARC
8
DEFAULT_255_1_388
10
24.4152396
20
13.2385895
40
0.8639311
50
157.9802296
51
171.6246761
0
ARC
8
DEFAULT_255_1_388
10
24.1661747
20
13.3379038
40
0.5958004
50
141.4299236
51
157.8541251
0
ARC
8
DEFAULT_255_1_388
10
24.093983
20
13.3889746
40
0.5075416
50
102.871586
51
140.8564533
0
ARC
8
DEFAULT_255_1_388
10
24.1668383
20
13.1144943
40
0.7914163
50
90.377773
51
103.5868422
0
ARC
8
DEFAULT_255_1_388
10
23.9712904
20
13.0464543
40
0.2667015
50
89.8751238
51
126.2072139
0
ARC
8
DEFAULT_255_1_388
10
23.9764375
20
13.0290847
40
0.2838229
50
124.9742447
51
144.8960197
0
ARC
8
DEFAULT_255_1_388
10
23.956662
20
13.0451981
40
0.2583845
50
145.2974778
51
160.2660922
0
ARC
8
DEFAULT_255_1_388
10
24.3023108
20
13.0674151
40
0.5888695
50
179.6512124
51
190.285571
0
ARC
8
DEFAULT_255_1_388
10
24.1117588
20
13.0314968
40
0.3949683
50
190.0944895
51
207.5099647
0
ARC
8
DEFAULT_255_1_388
10
24.048117
20
13.0012177
40
0.3245464
50
207.9585471
51
216.325377
0
ARC
8
DEFAULT_255_1_388
10
24.0098807
20
12.9697712
40
0.2751259
50
215.7661336
51
232.5457193
0
ARC
8
DEFAULT_255_1_388
10
23.9667923
20
12.9150273
40
0.2054668
50
232.8005815
51
270.6605497
0
ARC
8
DEFAULT_255_1_388
10
23.9719347
20
12.9559853
40
0.2464268
50
269.3550767
51
288.474612
0
ARC
8
DEFAULT_255_1_388
10
23.9823854
20
12.9166721
40
0.2058436
50
289.1831976
51
322.9685307
0
ARC
8
DEFAULT_255_1_388
10
23.9135956
20
12.9709279
40
0.2934408
50
322.6007085
51
346.5183319
0
ARC
8
DEFAULT_255_1_388
10
23.7833712
20
13.0041434
40
0.4278249
50
346.2584622
51
358.7739592
0
ARC
8
DEFAULT_255_1_388
10
23.6682287
20
13.0103829
40
0.5430876
50
358.3757628
51
0.0082477
0
ARC
8
DEFAULT_255_1_388
10
23.7539106
20
13.0134856
40
0.4574157
50
359.6211417
51
11.28403
0
ARC
8
DEFAULT_255_1_388
10
23.8975712
20
13.0434535
40
0.3106708
50
11.0483152
51
31.8145585
0
ARC
8
DEFAULT_255_1_388
10
23.9323417
20
13.0623045
40
0.2711963
50
32.3028554
51
38.0820598
0
ARC
8
DEFAULT_255_1_388
10
23.979665
20
13.1051717
40
0.2075566
50
36.8249851
51
85.741667
0
ARC
8
DEFAULT_255_1_388
10
23.9721063
20
13.0488065
40
0.2643487
50
85.0150021
51
90.050843
0
LINE
8
DEFAULT_255_1_388
10
23.3185946
20
21.2253553
11
23.3185946
21
21.1422274
0
LINE
8
DEFAULT_255_1_388
10
22.2605206
20
21.1304811
11
22.2605206
21
21.2253553
0
LINE
8
DEFAULT_255_1_388
10
23.1460138
20
21.1295775
11
23.1460138
21
21.2271625
0
LINE
8
DEFAULT_255_1_388
10
22.4331014
20
21.2389088
11
22.4331014
21
21.1422274
0
ARC
8
DEFAULT_255_1_388
10
22.3463684
20
21.1377726
40
0.9722364
50
350.4878118
51
0.2625322
0
ARC
8
DEFAULT_255_1_388
10
22.6043644
20
21.0933994
40
0.7104556
50
336.0277991
51
350.5787241
0
ARC
8
DEFAULT_255_1_388
10
22.7556751
20
21.0250243
40
0.544417
50
319.887443
51
336.1331163
0
ARC
8
DEFAULT_255_1_388
10
22.8234563
20
20.9707733
40
0.4576311
50
302.4806296
51
319.6144102
0
ARC
8
DEFAULT_255_1_388
10
22.8105184
20
20.9957067
40
0.4856183
50
275.8196423
51
302.1885521
0
ARC
8
DEFAULT_255_1_388
10
22.7918046
20
21.1242466
40
0.6154183
50
269.9169897
51
276.339506
0
ARC
8
DEFAULT_255_1_388
10
22.7867646
20
21.047068
40
0.5382553
50
252.5221437
51
270.441579
0
ARC
8
DEFAULT_255_1_388
10
22.7705897
20
20.9864046
40
0.4755426
50
237.5349961
51
252.1858334
0
ARC
8
DEFAULT_255_1_388
10
22.7806273
20
20.999212
40
0.4917393
50
209.0632754
51
237.3492577
0
ARC
8
DEFAULT_255_1_388
10
22.8785599
20
21.0607104
40
0.6072464
50
205.118533
51
209.6465345
0
ARC
8
DEFAULT_255_1_388
10
22.9681601
20
21.0987174
40
0.7045164
50
188.7216633
51
204.8239753
0
ARC
8
DEFAULT_255_1_388
10
23.1928376
20
21.1365387
40
0.9323368
50
180.3722704
51
188.9253909
0
ARC
8
DEFAULT_255_1_388
10
23.1897938
20
21.2298416
40
0.929284
50
169.5253055
51
180.2766048
0
ARC
8
DEFAULT_255_1_388
10
22.9757737
20
21.2692024
40
0.7116745
50
155.8314601
51
169.5088611
0
ARC
8
DEFAULT_255_1_388
10
22.83172
20
21.3360312
40
0.5528904
50
139.6259579
51
156.0379072
0
ARC
8
DEFAULT_255_1_388
10
22.7653733
20
21.3894143
40
0.4677708
50
122.6414784
51
139.3431662
0
ARC
8
DEFAULT_255_1_388
10
22.7766988
20
21.3687787
40
0.4912586
50
93.0224537
51
122.4556091
0
ARC
8
DEFAULT_255_1_388
10
22.7888509
20
21.2601776
40
0.6003837
50
89.9756766
51
93.6340839
0
ARC
8
DEFAULT_255_1_388
10
22.7932107
20
21.3050879
40
0.5554884
50
73.7463329
51
90.4234008
0
ARC
8
DEFAULT_255_1_388
10
22.812958
20
21.3815772
40
0.4765353
50
57.663051
51
73.4516911
0
ARC
8
DEFAULT_255_1_388
10
22.8120618
20
21.3840108
40
0.4749629
50
29.1441355
51
57.4146687
0
ARC
8
DEFAULT_255_1_388
10
22.7068429
20
21.3183046
40
0.5988917
50
24.0985653
51
29.732054
0
ARC
8
DEFAULT_255_1_388
10
22.5906061
20
21.2701154
40
0.7246823
50
8.6654943
51
23.8241215
0
ARC
8
DEFAULT_255_1_388
10
22.3392479
20
21.2291037
40
0.9793537
50
359.7807044
51
8.8218476
0
ARC
8
DEFAULT_255_1_388
10
22.2102184
20
21.2319731
40
0.9358078
50
359.7054632
51
8.0359751
0
ARC
8
DEFAULT_255_1_388
10
22.5477235
20
21.2811252
40
0.5947474
50
7.8926278
51
20.2962188
0
ARC
8
DEFAULT_255_1_388
10
22.7308085
20
21.3486367
40
0.3996117
50
20.3231056
51
36.4990255
0
ARC
8
DEFAULT_255_1_388
10
22.8079383
20
21.4080399
40
0.3022818
50
36.1436715
51
85.6627846
0
ARC
8
DEFAULT_255_1_388
10
22.7896638
20
21.2910881
40
0.4203853
50
84.3845912
51
90.076054
0
ARC
8
DEFAULT_255_1_388
10
22.7848993
20
21.3653416
40
0.346157
50
89.3037228
51
109.9046209
0
ARC
8
DEFAULT_255_1_388
10
22.7744826
20
21.4083379
40
0.3022217
50
110.8229774
51
143.917961
0
ARC
8
DEFAULT_255_1_388
10
22.8795185
20
21.3281455
40
0.434348
50
143.5289166
51
163.2980252
0
ARC
8
DEFAULT_255_1_388
10
23.0941472
20
21.2606685
40
0.659321
50
163.0418884
51
174.3139873
0
ARC
8
DEFAULT_255_1_388
10
23.3646437
20
21.2294378
40
0.9315905
50
174.050934
51
179.4174954
0
ARC
8
DEFAULT_255_1_388
10
23.3078381
20
21.1375382
40
0.8747493
50
179.6928582
51
188.7908948
0
ARC
8
DEFAULT_255_1_388
10
23.0082181
20
21.0896086
40
0.5713262
50
188.6328449
51
202.5630732
0
ARC
8
DEFAULT_255_1_388
10
22.8671018
20
21.0329142
40
0.4192612
50
202.8078931
51
216.1195888
0
ARC
8
DEFAULT_255_1_388
10
22.7760535
20
20.9596479
40
0.3025752
50
215.0755613
51
264.6379773
0
ARC
8
DEFAULT_255_1_388
10
22.7903372
20
21.0531376
40
0.3970284
50
263.8464302
51
270.0830805
0
ARC
8
DEFAULT_255_1_388
10
22.7949917
20
21.0240808
40
0.3679937
50
269.3649295
51
287.5149684
0
ARC
8
DEFAULT_255_1_388
10
22.8150358
20
20.9512714
40
0.2925408
50
288.0629019
51
323.8115617
0
ARC
8
DEFAULT_255_1_388
10
22.7170334
20
21.0243754
40
0.4148018
50
323.6546541
51
342.6591359
0
ARC
8
DEFAULT_255_1_388
10
22.4884992
20
21.098728
40
0.6551163
50
342.4092446
51
353.6451501
0
ARC
8
DEFAULT_255_1_388
10
22.1699785
20
21.1383565
40
0.9760748
50
353.4027553
51
359.4846611
0
LINE
8
DEFAULT_255_1_388
10
23.7459806
20
21.1521666
11
23.612253
21
21.1865021
0
LINE
8
DEFAULT_255_1_388
10
23.612253
20
21.1865021
11
23.6791168
21
21.8424898
0
LINE
8
DEFAULT_255_1_388
10
23.6791168
20
21.8424898
11
24.3531759
21
21.8424898
0
LINE
8
DEFAULT_255_1_388
10
24.3531759
20
21.8424898
11
24.3531759
21
21.6879803
0
LINE
8
DEFAULT_255_1_388
10
24.3531759
20
21.6879803
11
23.8209764
21
21.6879803
0
LINE
8
DEFAULT_255_1_388
10
23.8209764
20
21.6879803
11
23.7812196
21
21.3292652
0
LINE
8
DEFAULT_255_1_388
10
23.5652677
20
20.8729652
11
23.7233915
21
20.8729652
0
LINE
8
DEFAULT_255_1_388
10
23.7902552
20
21.1883092
11
23.7459806
21
21.1521666
0
ARC
8
DEFAULT_255_1_388
10
23.9898809
20
20.9715241
40
0.4141476
50
93.7181681
51
120.253934
0
ARC
8
DEFAULT_255_1_388
10
24.0004862
20
20.8806284
40
0.5055616
50
89.9660471
51
94.2495185
0
ARC
8
DEFAULT_255_1_388
10
24.0050683
20
20.9469154
40
0.4392953
50
73.8045384
51
90.5585736
0
ARC
8
DEFAULT_255_1_388
10
24.0314941
20
21.043452
40
0.3392225
50
41.3071072
51
73.543002
0
ARC
8
DEFAULT_255_1_388
10
23.9846761
20
21.0031461
40
0.4009977
50
13.5075837
51
41.2174839
0
ARC
8
DEFAULT_255_1_388
10
23.7999858
20
20.9547907
40
0.5918864
50
1.1330171
51
13.8830737
0
ARC
8
DEFAULT_255_1_388
10
23.6403504
20
20.9462522
40
0.7516787
50
359.9925091
51
1.5431298
0
ARC
8
DEFAULT_255_1_388
10
23.7848119
20
20.9416027
40
0.6072343
50
347.8572712
51
0.4294349
0
ARC
8
DEFAULT_255_1_388
10
23.9817254
20
20.8969898
40
0.4053482
50
323.6727442
51
348.1674594
0
ARC
8
DEFAULT_255_1_388
10
24.0148219
20
20.8768175
40
0.3667495
50
316.8171818
51
323.1486802
0
ARC
8
DEFAULT_255_1_388
10
24.0217342
20
20.8726612
40
0.358869
50
281.839603
51
316.5458142
0
ARC
8
DEFAULT_255_1_388
10
23.979463
20
21.0476363
40
0.5388223
50
269.5770964
51
282.4214641
0
ARC
8
DEFAULT_255_1_388
10
23.9714551
20
21.023593
40
0.5147801
50
256.2425863
51
270.4486481
0
ARC
8
DEFAULT_255_1_388
10
23.9378078
20
20.8886124
40
0.3756708
50
228.9024379
51
256.33135
0
ARC
8
DEFAULT_255_1_388
10
23.9295058
20
20.8755054
40
0.360344
50
193.7536029
51
228.5272638
0
ARC
8
DEFAULT_255_1_388
10
24.0687623
20
20.9163463
40
0.5053599
50
184.9244437
51
194.4976052
0
ARC
8
DEFAULT_255_1_388
10
24.0904265
20
20.9203722
40
0.3700839
50
187.3596909
51
198.6733728
0
ARC
8
DEFAULT_255_1_388
10
23.9723508
20
20.8794373
40
0.2451195
50
198.4453795
51
217.7945479
0
ARC
8
DEFAULT_255_1_388
10
23.9390681
20
20.8558563
40
0.2043754
50
218.2887146
51
228.5613203
0
ARC
8
DEFAULT_255_1_388
10
23.9500688
20
20.8706902
40
0.2227819
50
228.9652423
51
258.1237049
0
ARC
8
DEFAULT_255_1_388
10
23.9732125
20
20.9697964
40
0.3245374
50
257.7260585
51
270.4013717
0
ARC
8
DEFAULT_255_1_388
10
23.9782623
20
20.9197255
40
0.2744726
50
269.4204315
51
286.420998
0
ARC
8
DEFAULT_255_1_388
10
23.9949679
20
20.8590705
40
0.2115721
50
286.7250065
51
320.6004665
0
ARC
8
DEFAULT_255_1_388
10
23.9518594
20
20.8940527
40
0.2670878
50
320.6712228
51
344.5440474
0
ARC
8
DEFAULT_255_1_388
10
23.8217308
20
20.9322394
40
0.4026927
50
344.241448
51
356.735803
0
ARC
8
DEFAULT_255_1_388
10
23.6813615
20
20.9438656
40
0.5435085
50
356.3547471
51
0.0507222
0
ARC
8
DEFAULT_255_1_388
10
23.831588
20
20.9473812
40
0.3932934
50
359.5579289
51
12.9534322
0
ARC
8
DEFAULT_255_1_388
10
23.950272
20
20.9761586
40
0.2711827
50
12.6489751
51
41.608121
0
ARC
8
DEFAULT_255_1_388
10
23.976188
20
20.9981946
40
0.2371737
50
41.7851122
51
85.9892156
0
ARC
8
DEFAULT_255_1_388
10
23.962319
20
20.9066738
40
0.3295244
50
84.6965848
51
90.0672125
0
ARC
8
DEFAULT_255_1_388
10
23.9596758
20
20.8315118
40
0.4046926
50
89.6804991
51
99.161352
0
ARC
8
DEFAULT_255_1_388
10
23.9365767
20
20.9695848
40
0.2647044
50
98.9836248
51
113.8905702
0
ARC
8
DEFAULT_255_1_388
10
23.9107442
20
21.0305118
40
0.1985386
50
114.195234
51
127.3641866
0
LINE
8
DEFAULT_255_1_388
10
23.1862946
20
29.1628553
11
23.1862946
21
29.0797274
0
LINE
8
DEFAULT_255_1_388
10
22.1282206
20
29.0679811
11
22.1282206
21
29.1628553
0
LINE
8
DEFAULT_255_1_388
10
23.0137138
20
29.0670775
11
23.0137138
21
29.1646625
0
LINE
8
DEFAULT_255_1_388
10
22.3008014
20
29.1764088
11
22.3008014
21
29.0797274
0
ARC
8
DEFAULT_255_1_388
10
22.2140684
20
29.0752726
40
0.9722364
50
350.4878118
51
0.2625322
0
ARC
8
DEFAULT_255_1_388
10
22.4720644
20
29.0308994
40
0.7104556
50
336.0277991
51
350.5787241
0
ARC
8
DEFAULT_255_1_388
10
22.6233751
20
28.9625243
40
0.544417
50
319.887443
51
336.1331163
0
ARC
8
DEFAULT_255_1_388
10
22.6911563
20
28.9082733
40
0.4576311
50
302.4806296
51
319.6144102
0
ARC
8
DEFAULT_255_1_388
10
22.6782184
20
28.9332067
40
0.4856183
50
275.8196423
51
302.1885521
0
ARC
8
DEFAULT_255_1_388
10
22.6595046
20
29.0617466
40
0.6154183
50
269.9169897
51
276.339506
0
ARC
8
DEFAULT_255_1_388
10
22.6544646
20
28.984568
40
0.5382553
50
252.5221437
51
270.441579
0
ARC
8
DEFAULT_255_1_388
10
22.6382897
20
28.9239046
40
0.4755426
50
237.5349961
51
252.1858334
0
ARC
8
DEFAULT_255_1_388
10
22.6483273
20
28.936712
40
0.4917393
50
209.0632754
51
237.3492577
0
ARC
8
DEFAULT_255_1_388
10
22.7462599
20
28.9982104
40
0.6072464
50
205.118533
51
209.6465345
0
ARC
8
DEFAULT_255_1_388
10
22.8358601
20
29.0362174
40
0.7045164
50
188.7216633
51
204.8239753
0
ARC
8
DEFAULT_255_1_388
10
23.0605376
20
29.0740387
40
0.9323368
50
180.3722704
51
188.9253909
0
ARC
8
DEFAULT_255_1_388
10
23.0574938
20
29.1673416
40
0.929284
50
169.5253055
51
180.2766048
0
ARC
8
DEFAULT_255_1_388
10
22.8434737
20
29.2067024
40
0.7116745
50
155.8314601
51
169.5088611
0
ARC
8
DEFAULT_255_1_388
10
22.69942
20
29.2735312
40
0.5528904
50
139.6259579
51
156.0379072
0
ARC
8
DEFAULT_255_1_388
10
22.6330733
20
29.3269143
40
0.4677708
50
122.6414784
51
139.3431662
0
ARC
8
DEFAULT_255_1_388
10
22.6443988
20
29.3062787
40
0.4912586
50
93.0224537
51
122.4556091
0
ARC
8
DEFAULT_255_1_388
10
22.6565509
20
29.1976776
40
0.6003837
50
89.9756766
51
93.6340839
0
ARC
8
DEFAULT_255_1_388
10
22.6609107
20
29.2425879
40
0.5554884
50
73.7463329
51
90.4234008
0
ARC
8
DEFAULT_255_1_388
10
22.680658
20
29.3190772
40
0.4765353
50
57.663051
51
73.4516911
0
ARC
8
DEFAULT_255_1_388
10
22.6797618
20
29.3215108
40
0.4749629
50
29.1441355
51
57.4146687
0
ARC
8
DEFAULT_255_1_388
10
22.5745429
20
29.2558046
40
0.5988917
50
24.0985653
51
29.732054
0
ARC
8
DEFAULT_255_1_388
10
22.4583061
20
29.2076154
40
0.7246823
50
8.6654943
51
23.8241215
0
ARC
8
DEFAULT_255_1_388
10
22.2069479
20
29.1666037
40
0.9793537
50
359.7807044
51
8.8218476
0
ARC
8
DEFAULT_255_1_388
10
22.0779184
20
29.1694731
40
0.9358078
50
359.7054632
51
8.0359751
0
ARC
8
DEFAULT_255_1_388
10
22.4154235
20
29.2186252
40
0.5947474
50
7.8926278
51
20.2962188
0
ARC
8
DEFAULT_255_1_388
10
22.5985085
20
29.2861367
40
0.3996117
50
20.3231056
51
36.4990255
0
ARC
8
DEFAULT_255_1_388
10
22.6756383
20
29.3455399
40
0.3022818
50
36.1436715
51
85.6627846
0
ARC
8
DEFAULT_255_1_388
10
22.6573638
20
29.2285881
40
0.4203853
50
84.3845912
51
90.076054
0
ARC
8
DEFAULT_255_1_388
10
22.6525993
20
29.3028416
40
0.346157
50
89.3037228
51
109.9046209
0
ARC
8
DEFAULT_255_1_388
10
22.6421826
20
29.3458379
40
0.3022217
50
110.8229774
51
143.917961
0
ARC
8
DEFAULT_255_1_388
10
22.7472185
20
29.2656455
40
0.434348
50
143.5289166
51
163.2980252
0
ARC
8
DEFAULT_255_1_388
10
22.9618472
20
29.1981685
40
0.659321
50
163.0418884
51
174.3139873
0
ARC
8
DEFAULT_255_1_388
10
23.2323437
20
29.1669378
40
0.9315905
50
174.050934
51
179.4174954
0
ARC
8
DEFAULT_255_1_388
10
23.1755381
20
29.0750382
40
0.8747493
50
179.6928582
51
188.7908948
0
ARC
8
DEFAULT_255_1_388
10
22.8759181
20
29.0271086
40
0.5713262
50
188.6328449
51
202.5630732
0
ARC
8
DEFAULT_255_1_388
10
22.7348018
20
28.9704142
40
0.4192612
50
202.8078931
51
216.1195888
0
ARC
8
DEFAULT_255_1_388
10
22.6437535
20
28.8971479
40
0.3025752
50
215.0755613
51
264.6379773
0
ARC
8
DEFAULT_255_1_388
10
22.6580372
20
28.9906376
40
0.3970284
50
263.8464302
51
270.0830805
0
ARC
8
DEFAULT_255_1_388
10
22.6626917
20
28.9615808
40
0.3679937
50
269.3649295
51
287.5149684
0
ARC
8
DEFAULT_255_1_388
10
22.6827358
20
28.8887714
40
0.2925408
50
288.0629019
51
323.8115617
0
ARC
8
DEFAULT_255_1_388
10
22.5847334
20
28.9618754
40
0.4148018
50
323.6546541
51
342.6591359
0
ARC
8
DEFAULT_255_1_388
10
22.3561992
20
29.036228
40
0.6551163
50
342.4092446
51
353.6451501
0
ARC
8
DEFAULT_255_1_388
10
22.0376785
20
29.0758565
40
0.9760748
50
353.4027553
51
359.4846611
0
LINE
8
DEFAULT_255_1_388
10
24.1088339
20
29.7799898
11
24.1088339
21
28.906243
0
LINE
8
DEFAULT_255_1_388
10
24.1088339
20
28.906243
11
24.2913539
21
28.906243
0
LINE
8
DEFAULT_255_1_388
10
24.2913539
20
28.906243
11
24.2913539
21
28.7698048
0
LINE
8
DEFAULT_255_1_388
10
24.2913539
20
28.7698048
11
24.1088339
21
28.7698048
0
LINE
8
DEFAULT_255_1_388
10
24.1088339
20
28.7698048
11
24.1088339
21
28.4644
0
LINE
8
DEFAULT_255_1_388
10
24.1088339
20
28.4644
11
23.9407709
21
28.4644
0
LINE
8
DEFAULT_255_1_388
10
23.9407709
20
28.4644
11
23.9407709
21
28.7698048
0
LINE
8
DEFAULT_255_1_388
10
23.9407709
20
28.7698048
11
23.3417077
21
28.7698048
0
LINE
8
DEFAULT_255_1_388
10
23.3417077
20
28.7698048
11
23.3417077
21
28.8682933
0
LINE
8
DEFAULT_255_1_388
10
23.3417077
20
28.8682933
11
23.9308317
21
29.7799898
0
LINE
8
DEFAULT_255_1_388
10
23.9308317
20
29.7799898
11
24.1088339
21
29.7799898
0
LINE
8
DEFAULT_255_1_388
10
23.9208925
20
29.5152455
11
23.5314562
21
28.906243
0
LINE
8
DEFAULT_255_1_388
10
23.5314562
20
28.906243
11
23.9407709
21
28.906243
0
LINE
8
DEFAULT_255_1_388
10
23.9407709
20
28.906243
11
23.9407709
21
29.551388
0
LINE
8
DEFAULT_255_1_388
10
23.9407709
20
29.551388
11
23.9208925
21
29.5152455
0
LINE
8
DEFAULT_255_1_388
10
23.3185946
20
37.1003553
11
23.3185946
21
37.0172274
0
LINE
8
DEFAULT_255_1_388
10
22.2605206
20
37.0054811
11
22.2605206
21
37.1003553
0
LINE
8
DEFAULT_255_1_388
10
23.1460138
20
37.0045775
11
23.1460138
21
37.1021625
0
LINE
8
DEFAULT_255_1_388
10
22.4331014
20
37.1139088
11
22.4331014
21
37.0172274
0
ARC
8
DEFAULT_255_1_388
10
22.3463684
20
37.0127726
40
0.9722364
50
350.4878118
51
0.2625322
0
ARC
8
DEFAULT_255_1_388
10
22.6043644
20
36.9683994
40
0.7104556
50
336.0277991
51
350.5787241
0
ARC
8
DEFAULT_255_1_388
10
22.7556751
20
36.9000243
40
0.544417
50
319.887443
51
336.1331163
0
ARC
8
DEFAULT_255_1_388
10
22.8234563
20
36.8457733
40
0.4576311
50
302.4806296
51
319.6144102
0
ARC
8
DEFAULT_255_1_388
10
22.8105184
20
36.8707067
40
0.4856183
50
275.8196423
51
302.1885521
0
ARC
8
DEFAULT_255_1_388
10
22.7918046
20
36.9992466
40
0.6154183
50
269.9169897
51
276.339506
0
ARC
8
DEFAULT_255_1_388
10
22.7867646
20
36.922068
40
0.5382553
50
252.5221437
51
270.441579
0
ARC
8
DEFAULT_255_1_388
10
22.7705897
20
36.8614046
40
0.4755426
50
237.5349961
51
252.1858334
0
ARC
8
DEFAULT_255_1_388
10
22.7806273
20
36.874212
40
0.4917393
50
209.0632754
51
237.3492577
0
ARC
8
DEFAULT_255_1_388
10
22.8785599
20
36.9357104
40
0.6072464
50
205.118533
51
209.6465345
0
ARC
8
DEFAULT_255_1_388
10
22.9681601
20
36.9737174
40
0.7045164
50
188.7216633
51
204.8239753
0
ARC
8
DEFAULT_255_1_388
10
23.1928376
20
37.0115387
40
0.9323368
50
180.3722704
51
188.9253909
0
ARC
8
DEFAULT_255_1_388
10
23.1897938
20
37.1048416
40
0.929284
50
169.5253055
51
180.2766048
0
ARC
8
DEFAULT_255_1_388
10
22.9757737
20
37.1442024
40
0.7116745
50
155.8314601
51
169.5088611
0
ARC
8
DEFAULT_255_1_388
10
22.83172
20
37.2110312
40
0.5528904
50
139.6259579
51
156.0379072
0
ARC
8
DEFAULT_255_1_388
10
22.7653733
20
37.2644143
40
0.4677708
50
122.6414784
51
139.3431662
0
ARC
8
DEFAULT_255_1_388
10
22.7766988
20
37.2437787
40
0.4912586
50
93.0224537
51
122.4556091
0
ARC
8
DEFAULT_255_1_388
10
22.7888509
20
37.1351776
40
0.6003837
50
89.9756766
51
93.6340839
0
ARC
8
DEFAULT_255_1_388
10
22.7932107
20
37.1800879
40
0.5554884
50
73.7463329
51
90.4234008
0
ARC
8
DEFAULT_255_1_388
10
22.812958
20
37.2565772
40
0.4765353
50
57.663051
51
73.4516911
0
ARC
8
DEFAULT_255_1_388
10
22.8120618
20
37.2590108
40
0.4749629
50
29.1441355
51
57.4146687
0
ARC
8
DEFAULT_255_1_388
10
22.7068429
20
37.1933046
40
0.5988917
50
24.0985653
51
29.732054
0
ARC
8
DEFAULT_255_1_388
10
22.5906061
20
37.1451154
40
0.7246823
50
8.6654943
51
23.8241215
0
ARC
8
DEFAULT_255_1_388
10
22.3392479
20
37.1041037
40
0.9793537
50
359.7807044
51
8.8218476
0
ARC
8
DEFAULT_255_1_388
10
22.2102184
20
37.1069731
40
0.9358078
50
359.7054632
51
8.0359751
0
ARC
8
DEFAULT_255_1_388
10
22.5477235
20
37.1561252
40
0.5947474
50
7.8926278
51
20.2962188
0
ARC
8
DEFAULT_255_1_388
10
22.7308085
20
37.2236367
40
0.3996117
50
20.3231056
51
36.4990255
0
ARC
8
DEFAULT_255_1_388
10
22.8079383
20
37.2830399
40
0.3022818
50
36.1436715
51
85.6627846
0
ARC
8
DEFAULT_255_1_388
10
22.7896638
20
37.1660881
40
0.4203853
50
84.3845912
51
90.076054
0
ARC
8
DEFAULT_255_1_388
10
22.7848993
20
37.2403416
40
0.346157
50
89.3037228
51
109.9046209
0
ARC
8
DEFAULT_255_1_388
10
22.7744826
20
37.2833379
40
0.3022217
50
110.8229774
51
143.917961
0
ARC
8
DEFAULT_255_1_388
10
22.8795185
20
37.2031455
40
0.434348
50
143.5289166
51
163.2980252
0
ARC
8
DEFAULT_255_1_388
10
23.0941472
20
37.1356685
40
0.659321
50
163.0418884
51
174.3139873
0
ARC
8
DEFAULT_255_1_388
10
23.3646437
20
37.1044378
40
0.9315905
50
174.050934
51
179.4174954
0
ARC
8
DEFAULT_255_1_388
10
23.3078381
20
37.0125382
40
0.8747493
50
179.6928582
51
188.7908948
0
ARC
8
DEFAULT_255_1_388
10
23.0082181
20
36.9646086
40
0.5713262
50
188.6328449
51
202.5630732
0
ARC
8
DEFAULT_255_1_388
10
22.8671018
20
36.9079142
40
0.4192612
50
202.8078931
51
216.1195888
0
ARC
8
DEFAULT_255_1_388
10
22.7760535
20
36.8346479
40
0.3025752
50
215.0755613
51
264.6379773
0
ARC
8
DEFAULT_255_1_388
10
22.7903372
20
36.9281376
40
0.3970284
50
263.8464302
51
270.0830805
0
ARC
8
DEFAULT_255_1_388
10
22.7949917
20
36.8990808
40
0.3679937
50
269.3649295
51
287.5149684
0
ARC
8
DEFAULT_255_1_388
10
22.8150358
20
36.8262714
40
0.2925408
50
288.0629019
51
323.8115617
0
ARC
8
DEFAULT_255_1_388
10
22.7170334
20
36.8993754
40
0.4148018
50
323.6546541
51
342.6591359
0
ARC
8
DEFAULT_255_1_388
10
22.4884992
20
36.973728
40
0.6551163
50
342.4092446
51
353.6451501
0
ARC
8
DEFAULT_255_1_388
10
22.1699785
20
37.0133565
40
0.9760748
50
353.4027553
51
359.4846611
0
LINE
8
DEFAULT_255_1_388
10
23.7785089
20
37.0045775
11
23.7785089
21
37.1410157
0
LINE
8
DEFAULT_255_1_388
10
23.7785089
20
37.1410157
11
23.9041043
21
37.1410157
0
LINE
8
DEFAULT_255_1_388
10
23.6899596
20
37.3723282
11
23.5228001
21
37.3723282
0
LINE
8
DEFAULT_255_1_388
10
23.5110538
20
36.7488688
11
23.6791168
21
36.7488688
0
LINE
8
DEFAULT_255_1_388
10
23.9041043
20
37.0045775
11
23.7785089
21
37.0045775
0
ARC
8
DEFAULT_255_1_388
10
23.900827
20
37.5226922
40
0.3816905
50
270.491971
51
281.8953028
0
ARC
8
DEFAULT_255_1_388
10
23.9279697
20
37.3987199
40
0.2547877
50
281.6690378
51
301.2943765
0
ARC
8
DEFAULT_255_1_388
10
23.9471148
20
37.3636926
40
0.2149197
50
301.7834992
51
311.754567
0
ARC
8
DEFAULT_255_1_388
10
23.957419
20
37.352265
40
0.1995326
50
311.7325027
51
354.2803031
0
ARC
8
DEFAULT_255_1_388
10
23.8756606
20
37.366328
40
0.2823461
50
353.0941646
51
0.1174696
0
ARC
8
DEFAULT_255_1_388
10
23.8238163
20
37.3716874
40
0.3342238
50
359.1804452
51
15.0452323
0
ARC
8
DEFAULT_255_1_388
10
23.9752222
20
37.4158546
40
0.1765747
50
13.957816
51
77.6713812
0
ARC
8
DEFAULT_255_1_388
10
23.9317458
20
37.2600464
40
0.3381982
50
76.111571
51
90.7028736
0
ARC
8
DEFAULT_255_1_388
10
23.925087
20
37.290825
40
0.3074046
50
89.5321574
51
103.5319393
0
ARC
8
DEFAULT_255_1_388
10
23.9025253
20
37.3807443
40
0.2147041
50
103.2930114
51
133.5619756
0
ARC
8
DEFAULT_255_1_388
10
23.8975195
20
37.3874351
40
0.2064084
50
133.8349761
51
173.5343225
0
ARC
8
DEFAULT_255_1_388
10
23.9788852
20
37.3730144
40
0.2889266
50
172.5097183
51
180.1360699
0
ARC
8
DEFAULT_255_1_388
10
23.8718616
20
37.376888
40
0.3490913
50
155.3483706
51
180.7484035
0
ARC
8
DEFAULT_255_1_388
10
23.8663592
20
37.3736519
40
0.3454798
50
131.5745177
51
154.4799474
0
ARC
8
DEFAULT_255_1_388
10
23.9015874
20
37.3380422
40
0.3955058
50
96.9874487
51
131.9690874
0
ARC
8
DEFAULT_255_1_388
10
23.9262767
20
37.1979407
40
0.537622
50
89.8592909
51
97.7827481
0
ARC
8
DEFAULT_255_1_388
10
23.9316876
20
37.168436
40
0.5671399
50
78.3654493
51
90.4132586
0
ARC
8
DEFAULT_255_1_388
10
23.9719517
20
37.3550918
40
0.3762034
50
56.6229818
51
78.6387103
0
ARC
8
DEFAULT_255_1_388
10
23.9961347
20
37.3973846
40
0.3275964
50
47.0254604
51
56.085558
0
ARC
8
DEFAULT_255_1_388
10
23.9983598
20
37.4018189
40
0.3228382
50
10.9207523
51
46.777927
0
ARC
8
DEFAULT_255_1_388
10
23.8449191
20
37.3663401
40
0.4802559
50
359.6364235
51
11.6087615
0
ARC
8
DEFAULT_255_1_388
10
24.0513357
20
37.3646404
40
0.273833
50
332.3549969
51
359.7179765
0
ARC
8
DEFAULT_255_1_388
10
23.9781758
20
37.3993285
40
0.3547505
50
325.2332381
51
332.8746682
0
ARC
8
DEFAULT_255_1_388
10
23.9953341
20
37.3873763
40
0.3338396
50
292.9803892
51
325.2391113
0
ARC
8
DEFAULT_255_1_388
10
23.9642536
20
37.4478679
40
0.4016959
50
292.542178
51
293.6931461
0
ARC
8
DEFAULT_255_1_388
10
24.0086108
20
36.7213036
40
0.372079
50
57.643292
51
72.8626085
0
ARC
8
DEFAULT_255_1_388
10
24.0484943
20
36.7859273
40
0.2961455
50
36.7246661
51
57.4701329
0
ARC
8
DEFAULT_255_1_388
10
24.04721
20
36.787347
40
0.2963321
50
8.054535
51
36.3561529
0
ARC
8
DEFAULT_255_1_388
10
23.9501772
20
36.7699073
40
0.3948682
50
359.8316595
51
8.5873361
0
ARC
8
DEFAULT_255_1_388
10
23.9079246
20
36.764497
40
0.4371398
50
343.9831631
51
0.557075
0
ARC
8
DEFAULT_255_1_388
10
24.0076296
20
36.7371963
40
0.3337749
50
311.6358204
51
343.7652116
0
ARC
8
DEFAULT_255_1_388
10
23.965055
20
36.7851955
40
0.3979351
50
279.7829743
51
311.625622
0
ARC
8
DEFAULT_255_1_388
10
23.9311685
20
36.9468642
40
0.5630417
50
269.7285092
51
280.3857694
0
ARC
8
DEFAULT_255_1_388
10
23.9241998
20
36.9422241
40
0.5584119
50
256.6827433
51
270.4412869
0
ARC
8
DEFAULT_255_1_388
10
23.8860984
20
36.7864698
40
0.3980715
50
229.4223821
51
256.8554507
0
ARC
8
DEFAULT_255_1_388
10
23.8394538
20
36.7339683
40
0.3278564
50
181.8183354
51
229.6455015
0
ARC
8
DEFAULT_255_1_388
10
23.9564147
20
36.7486825
40
0.4453611
50
179.9760419
51
183.2330638
0
ARC
8
DEFAULT_255_1_388
10
23.93707
20
36.7463781
40
0.2579652
50
179.4467996
51
196.2871626
0
ARC
8
DEFAULT_255_1_388
10
23.8822153
20
36.7313709
40
0.2011057
50
196.5661293
51
227.7059371
0
ARC
8
DEFAULT_255_1_388
10
23.9006761
20
36.7520155
40
0.2287994
50
227.7653015
51
257.8763321
0
ARC
8
DEFAULT_255_1_388
10
23.9259844
20
36.8580961
40
0.3378385
50
257.4583525
51
270.4267406
0
ARC
8
DEFAULT_255_1_388
10
23.9311093
20
36.890723
40
0.3704652
50
269.5965319
51
280.8788143
0
ARC
8
DEFAULT_255_1_388
10
23.9569321
20
36.7617529
40
0.2389415
50
280.6347277
51
299.8594068
0
ARC
8
DEFAULT_255_1_388
10
23.9784091
20
36.7209736
40
0.19289
50
300.3575552
51
314.5515667
0
ARC
8
DEFAULT_255_1_388
10
23.9690767
20
36.7278025
40
0.204312
50
315.0730962
51
345.0429362
0
ARC
8
DEFAULT_255_1_388
10
23.8652274
20
36.7580539
40
0.31246
50
344.598526
51
357.9270698
0
ARC
8
DEFAULT_255_1_388
10
23.7642579
20
36.7649705
40
0.4136265
50
357.4755098
51
0.0224936
0
ARC
8
DEFAULT_255_1_388
10
23.8795457
20
36.7677099
40
0.2983498
50
359.5051035
51
13.4236939
0
ARC
8
DEFAULT_255_1_388
10
23.9770546
20
36.7926637
40
0.1977186
50
12.9497905
51
48.7550905
0
ARC
8
DEFAULT_255_1_388
10
23.9565468
20
36.7646373
40
0.2323321
50
49.509109
51
72.1832965
0
ARC
8
DEFAULT_255_1_388
10
23.9162937
20
36.6451632
40
0.358397
50
71.9008458
51
84.3555134
0
ARC
8
DEFAULT_255_1_388
10
23.8981331
20
36.4919712
40
0.512641
50
84.019632
51
89.3326067
0
LINE
8
DEFAULT_255_1_388
10
23.3185946
20
45.0378553
11
23.3185946
21
44.9547274
0
LINE
8
DEFAULT_255_1_388
10
22.2605206
20
44.9429811
11
22.2605206
21
45.0378553
0
LINE
8
DEFAULT_255_1_388
10
23.1460138
20
44.9420775
11
23.1460138
21
45.0396625
0
LINE
8
DEFAULT_255_1_388
10
22.4331014
20
45.0514088
11
22.4331014
21
44.9547274
0
ARC
8
DEFAULT_255_1_388
10
22.3463684
20
44.9502726
40
0.9722364
50
350.4878118
51
0.2625322
0
ARC
8
DEFAULT_255_1_388
10
22.6043644
20
44.9058994
40
0.7104556
50
336.0277991
51
350.5787241
0
ARC
8
DEFAULT_255_1_388
10
22.7556751
20
44.8375243
40
0.544417
50
319.887443
51
336.1331163
0
ARC
8
DEFAULT_255_1_388
10
22.8234563
20
44.7832733
40
0.4576311
50
302.4806296
51
319.6144102
0
ARC
8
DEFAULT_255_1_388
10
22.8105184
20
44.8082067
40
0.4856183
50
275.8196423
51
302.1885521
0
ARC
8
DEFAULT_255_1_388
10
22.7918046
20
44.9367466
40
0.6154183
50
269.9169897
51
276.339506
0
ARC
8
DEFAULT_255_1_388
10
22.7867646
20
44.859568
40
0.5382553
50
252.5221437
51
270.441579
0
ARC
8
DEFAULT_255_1_388
10
22.7705897
20
44.7989046
40
0.4755426
50
237.5349961
51
252.1858334
0
ARC
8
DEFAULT_255_1_388
10
22.7806273
20
44.811712
40
0.4917393
50
209.0632754
51
237.3492577
0
ARC
8
DEFAULT_255_1_388
10
22.8785599
20
44.8732104
40
0.6072464
50
205.118533
51
209.6465345
0
ARC
8
DEFAULT_255_1_388
10
22.9681601
20
44.9112174
40
0.7045164
50
188.7216633
51
204.8239753
0
ARC
8
DEFAULT_255_1_388
10
23.1928376
20
44.9490387
40
0.9323368
50
180.3722704
51
188.9253909
0
ARC
8
DEFAULT_255_1_388
10
23.1897938
20
45.0423416
40
0.929284
50
169.5253055
51
180.2766048
0
ARC
8
DEFAULT_255_1_388
10
22.9757737
20
45.0817024
40
0.7116745
50
155.8314601
51
169.5088611
0
ARC
8
DEFAULT_255_1_388
10
22.83172
20
45.1485312
40
0.5528904
50
139.6259579
51
156.0379072
0
ARC
8
DEFAULT_255_1_388
10
22.7653733
20
45.2019143
40
0.4677708
50
122.6414784
51
139.3431662
0
ARC
8
DEFAULT_255_1_388
10
22.7766988
20
45.1812787
40
0.4912586
50
93.0224537
51
122.4556091
0
ARC
8
DEFAULT_255_1_388
10
22.7888509
20
45.0726776
40
0.6003837
50
89.9756766
51
93.6340839
0
ARC
8
DEFAULT_255_1_388
10
22.7932107
20
45.1175879
40
0.5554884
50
73.7463329
51
90.4234008
0
ARC
8
DEFAULT_255_1_388
10
22.812958
20
45.1940772
40
0.4765353
50
57.663051
51
73.4516911
0
ARC
8
DEFAULT_255_1_388
10
22.8120618
20
45.1965108
40
0.4749629
50
29.1441355
51
57.4146687
0
ARC
8
DEFAULT_255_1_388
10
22.7068429
20
45.1308046
40
0.5988917
50
24.0985653
51
29.732054
0
ARC
8
DEFAULT_255_1_388
10
22.5906061
20
45.0826154
40
0.7246823
50
8.6654943
51
23.8241215
0
ARC
8
DEFAULT_255_1_388
10
22.3392479
20
45.0416037
40
0.9793537
50
359.7807044
51
8.8218476
0
ARC
8
DEFAULT_255_1_388
10
22.2102184
20
45.0444731
40
0.9358078
50
359.7054632
51
8.0359751
0
ARC
8
DEFAULT_255_1_388
10
22.5477235
20
45.0936252
40
0.5947474
50
7.8926278
51
20.2962188
0
ARC
8
DEFAULT_255_1_388
10
22.7308085
20
45.1611367
40
0.3996117
50
20.3231056
51
36.4990255
0
ARC
8
DEFAULT_255_1_388
10
22.8079383
20
45.2205399
40
0.3022818
50
36.1436715
51
85.6627846
0
ARC
8
DEFAULT_255_1_388
10
22.7896638
20
45.1035881
40
0.4203853
50
84.3845912
51
90.076054
0
ARC
8
DEFAULT_255_1_388
10
22.7848993
20
45.1778416
40
0.346157
50
89.3037228
51
109.9046209
0
ARC
8
DEFAULT_255_1_388
10
22.7744826
20
45.2208379
40
0.3022217
50
110.8229774
51
143.917961
0
ARC
8
DEFAULT_255_1_388
10
22.8795185
20
45.1406455
40
0.434348
50
143.5289166
51
163.2980252
0
ARC
8
DEFAULT_255_1_388
10
23.0941472
20
45.0731685
40
0.659321
50
163.0418884
51
174.3139873
0
ARC
8
DEFAULT_255_1_388
10
23.3646437
20
45.0419378
40
0.9315905
50
174.050934
51
179.4174954
0
ARC
8
DEFAULT_255_1_388
10
23.3078381
20
44.9500382
40
0.8747493
50
179.6928582
51
188.7908948
0
ARC
8
DEFAULT_255_1_388
10
23.0082181
20
44.9021086
40
0.5713262
50
188.6328449
51
202.5630732
0
ARC
8
DEFAULT_255_1_388
10
22.8671018
20
44.8454142
40
0.4192612
50
202.8078931
51
216.1195888
0
ARC
8
DEFAULT_255_1_388
10
22.7760535
20
44.7721479
40
0.3025752
50
215.0755613
51
264.6379773
0
ARC
8
DEFAULT_255_1_388
10
22.7903372
20
44.8656376
40
0.3970284
50
263.8464302
51
270.0830805
0
ARC
8
DEFAULT_255_1_388
10
22.7949917
20
44.8365808
40
0.3679937
50
269.3649295
51
287.5149684
0
ARC
8
DEFAULT_255_1_388
10
22.8150358
20
44.7637714
40
0.2925408
50
288.0629019
51
323.8115617
0
ARC
8
DEFAULT_255_1_388
10
22.7170334
20
44.8368754
40
0.4148018
50
323.6546541
51
342.6591359
0
ARC
8
DEFAULT_255_1_388
10
22.4884992
20
44.911228
40
0.6551163
50
342.4092446
51
353.6451501
0
ARC
8
DEFAULT_255_1_388
10
22.1699785
20
44.9508565
40
0.9760748
50
353.4027553
51
359.4846611
0
LINE
8
DEFAULT_255_1_388
10
24.3974505
20
44.4758382
11
24.3974505
21
44.3394
0
LINE
8
DEFAULT_255_1_388
10
24.3974505
20
44.3394
11
23.53545
21
44.3394
0
LINE
8
DEFAULT_255_1_388
10
23.53545
20
44.3394
11
23.53545
21
44.4595741
0
LINE
8
DEFAULT_255_1_388
10
23.53545
20
44.4595741
11
23.9908465
21
44.9655702
0
LINE
8
DEFAULT_255_1_388
10
23.6773097
20
45.2673607
11
23.5101502
21
45.2673607
0
LINE
8
DEFAULT_255_1_388
10
24.0893351
20
44.858046
11
23.7369449
21
44.4758382
0
LINE
8
DEFAULT_255_1_388
10
23.7369449
20
44.4758382
11
24.3974505
21
44.4758382
0
ARC
8
DEFAULT_255_1_388
10
22.4732525
20
46.3075983
40
2.0258655
50
318.5132526
51
320.7829045
0
ARC
8
DEFAULT_255_1_388
10
23.0680482
20
45.8234929
40
1.2589638
50
320.7372878
51
323.9739031
0
ARC
8
DEFAULT_255_1_388
10
23.5089413
20
45.5040554
40
0.7145141
50
323.8962701
51
328.64194
0
ARC
8
DEFAULT_255_1_388
10
23.7391671
20
45.3620545
40
0.4440242
50
328.8294576
51
331.7891185
0
ARC
8
DEFAULT_255_1_388
10
23.8513991
20
45.3041374
40
0.3177517
50
331.4254512
51
352.9365785
0
ARC
8
DEFAULT_255_1_388
10
23.8666991
20
45.300705
40
0.3021496
50
353.2257659
51
0.0166158
0
ARC
8
DEFAULT_255_1_388
10
23.8903752
20
45.3032894
40
0.2784847
50
359.486299
51
15.9343185
0
ARC
8
DEFAULT_255_1_388
10
23.9474018
20
45.3186269
40
0.2194403
50
16.1712913
51
43.5286088
0
ARC
8
DEFAULT_255_1_388
10
23.9560963
20
45.3273191
40
0.2071504
50
43.4417391
51
83.1661095
0
ARC
8
DEFAULT_255_1_388
10
23.9410124
20
45.2444316
40
0.2912888
50
82.160179
51
90.1505708
0
ARC
8
DEFAULT_255_1_388
10
23.9374606
20
45.1840279
40
0.3517025
50
89.5460741
51
102.5418361
0
ARC
8
DEFAULT_255_1_388
10
23.9101326
20
45.2999933
40
0.2325748
50
102.1738499
51
129.206123
0
ARC
8
DEFAULT_255_1_388
10
23.9012779
20
45.3139664
40
0.2161591
50
129.72865
51
135.753947
0
ARC
8
DEFAULT_255_1_388
10
23.9149261
20
45.3030728
40
0.2335433
50
136.1757367
51
166.3673339
0
ARC
8
DEFAULT_255_1_388
10
24.028195
20
45.2727148
40
0.3507873
50
165.9090694
51
178.8684636
0
ARC
8
DEFAULT_255_1_388
10
24.1257721
20
45.2674263
40
0.4484624
50
178.4391136
51
180.0083808
0
ARC
8
DEFAULT_255_1_388
10
23.9678423
20
45.2718197
40
0.4577138
50
163.2878482
51
180.5581842
0
ARC
8
DEFAULT_255_1_388
10
23.8776464
20
45.2966393
40
0.3641968
50
133.4540601
51
162.947111
0
ARC
8
DEFAULT_255_1_388
10
23.8977346
20
45.2752789
40
0.3935189
50
100.7869829
51
133.4382499
0
ARC
8
DEFAULT_255_1_388
10
23.9368591
20
45.1010399
40
0.5720313
50
89.660664
51
101.3702276
0
ARC
8
DEFAULT_255_1_388
10
23.94432
20
45.1079263
40
0.5651495
50
78.2172678
51
90.412935
0
ARC
8
DEFAULT_255_1_388
10
23.9842665
20
45.2906511
40
0.378122
50
55.9269121
51
78.4888449
0
ARC
8
DEFAULT_255_1_388
10
24.006338
20
45.3287187
40
0.3342379
50
47.929771
51
55.4049217
0
ARC
8
DEFAULT_255_1_388
10
24.0177911
20
45.3403618
40
0.3179217
50
4.334829
51
48.0560205
0
ARC
8
DEFAULT_255_1_388
10
23.8945713
20
45.3212487
40
0.442341
50
359.9251713
51
5.5971671
0
ARC
8
DEFAULT_255_1_388
10
23.9427867
20
45.3275728
40
0.3941854
50
337.8914027
51
358.9967534
0
ARC
8
DEFAULT_255_1_388
10
23.6375437
20
45.4453295
40
0.7213271
50
326.9132501
51
338.3508308
0
ARC
8
DEFAULT_255_1_388
10
23.1891549
20
45.7327105
40
1.2538973
50
319.6471833
51
327.0959558
0
ARC
8
DEFAULT_255_1_388
10
22.7578207
20
46.088505
40
1.8129975
50
317.2588228
51
319.9045804
0
LINE
8
DEFAULT_255_1_388
10
23.3268946
20
52.9753553
11
23.3268946
21
52.8922274
0
LINE
8
DEFAULT_255_1_388
10
22.2688206
20
52.8804811
11
22.2688206
21
52.9753553
0
LINE
8
DEFAULT_255_1_388
10
23.1543138
20
52.8795775
11
23.1543138
21
52.9771625
0
LINE
8
DEFAULT_255_1_388
10
22.4414014
20
52.9889088
11
22.4414014
21
52.8922274
0
ARC
8
DEFAULT_255_1_388
10
22.3546684
20
52.8877726
40
0.9722364
50
350.4878118
51
0.2625322
0
ARC
8
DEFAULT_255_1_388
10
22.6126644
20
52.8433994
40
0.7104556
50
336.0277991
51
350.5787241
0
ARC
8
DEFAULT_255_1_388
10
22.7639751
20
52.7750243
40
0.544417
50
319.887443
51
336.1331163
0
ARC
8
DEFAULT_255_1_388
10
22.8317563
20
52.7207733
40
0.4576311
50
302.4806296
51
319.6144102
0
ARC
8
DEFAULT_255_1_388
10
22.8188184
20
52.7457067
40
0.4856183
50
275.8196423
51
302.1885521
0
ARC
8
DEFAULT_255_1_388
10
22.8001046
20
52.8742466
40
0.6154183
50
269.9169897
51
276.339506
0
ARC
8
DEFAULT_255_1_388
10
22.7950646
20
52.797068
40
0.5382553
50
252.5221437
51
270.441579
0
ARC
8
DEFAULT_255_1_388
10
22.7788897
20
52.7364046
40
0.4755426
50
237.5349961
51
252.1858334
0
ARC
8
DEFAULT_255_1_388
10
22.7889273
20
52.749212
40
0.4917393
50
209.0632754
51
237.3492577
0
ARC
8
DEFAULT_255_1_388
10
22.8868599
20
52.8107104
40
0.6072464
50
205.118533
51
209.6465345
0
ARC
8
DEFAULT_255_1_388
10
22.9764601
20
52.8487174
40
0.7045164
50
188.7216633
51
204.8239753
0
ARC
8
DEFAULT_255_1_388
10
23.2011376
20
52.8865387
40
0.9323368
50
180.3722704
51
188.9253909
0
ARC
8
DEFAULT_255_1_388
10
23.1980938
20
52.9798416
40
0.929284
50
169.5253055
51
180.2766048
0
ARC
8
DEFAULT_255_1_388
10
22.9840737
20
53.0192024
40
0.7116745
50
155.8314601
51
169.5088611
0
ARC
8
DEFAULT_255_1_388
10
22.84002
20
53.0860312
40
0.5528904
50
139.6259579
51
156.0379072
0
ARC
8
DEFAULT_255_1_388
10
22.7736733
20
53.1394143
40
0.4677708
50
122.6414784
51
139.3431662
0
ARC
8
DEFAULT_255_1_388
10
22.7849988
20
53.1187787
40
0.4912586
50
93.0224537
51
122.4556091
0
ARC
8
DEFAULT_255_1_388
10
22.7971509
20
53.0101776
40
0.6003837
50
89.9756766
51
93.6340839
0
ARC
8
DEFAULT_255_1_388
10
22.8015107
20
53.0550879
40
0.5554884
50
73.7463329
51
90.4234008
0
ARC
8
DEFAULT_255_1_388
10
22.821258
20
53.1315772
40
0.4765353
50
57.663051
51
73.4516911
0
ARC
8
DEFAULT_255_1_388
10
22.8203618
20
53.1340108
40
0.4749629
50
29.1441355
51
57.4146687
0
ARC
8
DEFAULT_255_1_388
10
22.7151429
20
53.0683046
40
0.5988917
50
24.0985653
51
29.732054
0
ARC
8
DEFAULT_255_1_388
10
22.5989061
20
53.0201154
40
0.7246823
50
8.6654943
51
23.8241215
0
ARC
8
DEFAULT_255_1_388
10
22.3475479
20
52.9791037
40
0.9793537
50
359.7807044
51
8.8218476
0
ARC
8
DEFAULT_255_1_388
10
22.2185184
20
52.9819731
40
0.9358078
50
359.7054632
51
8.0359751
0
ARC
8
DEFAULT_255_1_388
10
22.5560235
20
53.0311252
40
0.5947474
50
7.8926278
51
20.2962188
0
ARC
8
DEFAULT_255_1_388
10
22.7391085
20
53.0986367
40
0.3996117
50
20.3231056
51
36.4990255
0
ARC
8
DEFAULT_255_1_388
10
22.8162383
20
53.1580399
40
0.3022818
50
36.1436715
51
85.6627846
0
ARC
8
DEFAULT_255_1_388
10
22.7979638
20
53.0410881
40
0.4203853
50
84.3845912
51
90.076054
0
ARC
8
DEFAULT_255_1_388
10
22.7931993
20
53.1153416
40
0.346157
50
89.3037228
51
109.9046209
0
ARC
8
DEFAULT_255_1_388
10
22.7827826
20
53.1583379
40
0.3022217
50
110.8229774
51
143.917961
0
ARC
8
DEFAULT_255_1_388
10
22.8878185
20
53.0781455
40
0.434348
50
143.5289166
51
163.2980252
0
ARC
8
DEFAULT_255_1_388
10
23.1024472
20
53.0106685
40
0.659321
50
163.0418884
51
174.3139873
0
ARC
8
DEFAULT_255_1_388
10
23.3729437
20
52.9794378
40
0.9315905
50
174.050934
51
179.4174954
0
ARC
8
DEFAULT_255_1_388
10
23.3161381
20
52.8875382
40
0.8747493
50
179.6928582
51
188.7908948
0
ARC
8
DEFAULT_255_1_388
10
23.0165181
20
52.8396086
40
0.5713262
50
188.6328449
51
202.5630732
0
ARC
8
DEFAULT_255_1_388
10
22.8754018
20
52.7829142
40
0.4192612
50
202.8078931
51
216.1195888
0
ARC
8
DEFAULT_255_1_388
10
22.7843535
20
52.7096479
40
0.3025752
50
215.0755613
51
264.6379773
0
ARC
8
DEFAULT_255_1_388
10
22.7986372
20
52.8031376
40
0.3970284
50
263.8464302
51
270.0830805
0
ARC
8
DEFAULT_255_1_388
10
22.8032917
20
52.7740808
40
0.3679937
50
269.3649295
51
287.5149684
0
ARC
8
DEFAULT_255_1_388
10
22.8233358
20
52.7012714
40
0.2925408
50
288.0629019
51
323.8115617
0
ARC
8
DEFAULT_255_1_388
10
22.7253334
20
52.7743754
40
0.4148018
50
323.6546541
51
342.6591359
0
ARC
8
DEFAULT_255_1_388
10
22.4967992
20
52.848728
40
0.6551163
50
342.4092446
51
353.6451501
0
ARC
8
DEFAULT_255_1_388
10
22.1782785
20
52.8883565
40
0.9760748
50
353.4027553
51
359.4846611
0
LINE
8
DEFAULT_255_1_388
10
24.0931172
20
53.5988148
11
24.0931172
21
52.2769
0
LINE
8
DEFAULT_255_1_388
10
24.0931172
20
52.2769
11
23.9250542
21
52.2769
0
LINE
8
DEFAULT_255_1_388
10
23.9250542
20
52.2769
11
23.9250542
21
53.390995
0
LINE
8
DEFAULT_255_1_388
10
23.9250542
20
53.390995
11
23.5880247
21
53.2672066
0
LINE
8
DEFAULT_255_1_388
10
23.5880247
20
53.2672066
11
23.5880247
21
53.4190055
0
LINE
8
DEFAULT_255_1_388
10
23.5880247
20
53.4190055
11
24.0669139
21
53.5988148
0
LINE
8
DEFAULT_255_1_388
10
24.0669139
20
53.5988148
11
24.0931172
21
53.5988148
0
LINE
8
DEFAULT_255_1_388
10
23.3185946
20
60.9128553
11
23.3185946
21
60.8297274
0
LINE
8
DEFAULT_255_1_388
10
22.2605206
20
60.8179811
11
22.2605206
21
60.9128553
0
LINE
8
DEFAULT_255_1_388
10
23.1460138
20
60.8170775
11
23.1460138
21
60.9146625
0
LINE
8
DEFAULT_255_1_388
10
22.4331014
20
60.9264088
11
22.4331014
21
60.8297274
0
ARC
8
DEFAULT_255_1_388
10
22.3463684
20
60.8252726
40
0.9722364
50
350.4878118
51
0.2625322
0
ARC
8
DEFAULT_255_1_388
10
22.6043644
20
60.7808994
40
0.7104556
50
336.0277991
51
350.5787241
0
ARC
8
DEFAULT_255_1_388
10
22.7556751
20
60.7125243
40
0.544417
50
319.887443
51
336.1331163
0
ARC
8
DEFAULT_255_1_388
10
22.8234563
20
60.6582733
40
0.4576311
50
302.4806296
51
319.6144102
0
ARC
8
DEFAULT_255_1_388
10
22.8105184
20
60.6832067
40
0.4856183
50
275.8196423
51
302.1885521
0
ARC
8
DEFAULT_255_1_388
10
22.7918046
20
60.8117466
40
0.6154183
50
269.9169897
51
276.339506
0
ARC
8
DEFAULT_255_1_388
10
22.7867646
20
60.734568
40
0.5382553
50
252.5221437
51
270.441579
0
ARC
8
DEFAULT_255_1_388
10
22.7705897
20
60.6739046
40
0.4755426
50
237.5349961
51
252.1858334
0
ARC
8
DEFAULT_255_1_388
10
22.7806273
20
60.686712
40
0.4917393
50
209.0632754
51
237.3492577
0
ARC
8
DEFAULT_255_1_388
10
22.8785599
20
60.7482104
40
0.6072464
50
205.118533
51
209.6465345
0
ARC
8
DEFAULT_255_1_388
10
22.9681601
20
60.7862174
40
0.7045164
50
188.7216633
51
204.8239753
0
ARC
8
DEFAULT_255_1_388
10
23.1928376
20
60.8240387
40
0.9323368
50
180.3722704
51
188.9253909
0
ARC
8
DEFAULT_255_1_388
10
23.1897938
20
60.9173416
40
0.929284
50
169.5253055
51
180.2766048
0
ARC
8
DEFAULT_255_1_388
10
22.9757737
20
60.9567024
40
0.7116745
50
155.8314601
51
169.5088611
0
ARC
8
DEFAULT_255_1_388
10
22.83172
20
61.0235312
40
0.5528904
50
139.6259579
51
156.0379072
0
ARC
8
DEFAULT_255_1_388
10
22.7653733
20
61.0769143
40
0.4677708
50
122.6414784
51
139.3431662
0
ARC
8
DEFAULT_255_1_388
10
22.7766988
20
61.0562787
40
0.4912586
50
93.0224537
51
122.4556091
0
ARC
8
DEFAULT_255_1_388
10
22.7888509
20
60.9476776
40
0.6003837
50
89.9756766
51
93.6340839
0
ARC
8
DEFAULT_255_1_388
10
22.7932107
20
60.9925879
40
0.5554884
50
73.7463329
51
90.4234008
0
ARC
8
DEFAULT_255_1_388
10
22.812958
20
61.0690772
40
0.4765353
50
57.663051
51
73.4516911
0
ARC
8
DEFAULT_255_1_388
10
22.8120618
20
61.0715108
40
0.4749629
50
29.1441355
51
57.4146687
0
ARC
8
DEFAULT_255_1_388
10
22.7068429
20
61.0058046
40
0.5988917
50
24.0985653
51
29.732054
0
ARC
8
DEFAULT_255_1_388
10
22.5906061
20
60.9576154
40
0.7246823
50
8.6654943
51
23.8241215
0
ARC
8
DEFAULT_255_1_388
10
22.3392479
20
60.9166037
40
0.9793537
50
359.7807044
51
8.8218476
0
ARC
8
DEFAULT_255_1_388
10
22.2102184
20
60.9194731
40
0.9358078
50
359.7054632
51
8.0359751
0
ARC
8
DEFAULT_255_1_388
10
22.5477235
20
60.9686252
40
0.5947474
50
7.8926278
51
20.2962188
0
ARC
8
DEFAULT_255_1_388
10
22.7308085
20
61.0361367
40
0.3996117
50
20.3231056
51
36.4990255
0
ARC
8
DEFAULT_255_1_388
10
22.8079383
20
61.0955399
40
0.3022818
50
36.1436715
51
85.6627846
0
ARC
8
DEFAULT_255_1_388
10
22.7896638
20
60.9785881
40
0.4203853
50
84.3845912
51
90.076054
0
ARC
8
DEFAULT_255_1_388
10
22.7848993
20
61.0528416
40
0.346157
50
89.3037228
51
109.9046209
0
ARC
8
DEFAULT_255_1_388
10
22.7744826
20
61.0958379
40
0.3022217
50
110.8229774
51
143.917961
0
ARC
8
DEFAULT_255_1_388
10
22.8795185
20
61.0156455
40
0.434348
50
143.5289166
51
163.2980252
0
ARC
8
DEFAULT_255_1_388
10
23.0941472
20
60.9481685
40
0.659321
50
163.0418884
51
174.3139873
0
ARC
8
DEFAULT_255_1_388
10
23.3646437
20
60.9169378
40
0.9315905
50
174.050934
51
179.4174954
0
ARC
8
DEFAULT_255_1_388
10
23.3078381
20
60.8250382
40
0.8747493
50
179.6928582
51
188.7908948
0
ARC
8
DEFAULT_255_1_388
10
23.0082181
20
60.7771086
40
0.5713262
50
188.6328449
51
202.5630732
0
ARC
8
DEFAULT_255_1_388
10
22.8671018
20
60.7204142
40
0.4192612
50
202.8078931
51
216.1195888
0
ARC
8
DEFAULT_255_1_388
10
22.7760535
20
60.6471479
40
0.3025752
50
215.0755613
51
264.6379773
0
ARC
8
DEFAULT_255_1_388
10
22.7903372
20
60.7406376
40
0.3970284
50
263.8464302
51
270.0830805
0
ARC
8
DEFAULT_255_1_388
10
22.7949917
20
60.7115808
40
0.3679937
50
269.3649295
51
287.5149684
0
ARC
8
DEFAULT_255_1_388
10
22.8150358
20
60.6387714
40
0.2925408
50
288.0629019
51
323.8115617
0
ARC
8
DEFAULT_255_1_388
10
22.7170334
20
60.7118754
40
0.4148018
50
323.6546541
51
342.6591359
0
ARC
8
DEFAULT_255_1_388
10
22.4884992
20
60.786228
40
0.6551163
50
342.4092446
51
353.6451501
0
ARC
8
DEFAULT_255_1_388
10
22.1699785
20
60.8258565
40
0.9760748
50
353.4027553
51
359.4846611
0
LINE
8
DEFAULT_255_1_388
10
24.3604044
20
60.992369
11
24.3604044
21
60.7755135
0
LINE
8
DEFAULT_255_1_388
10
23.5300287
20
60.7529244
11
23.5300287
21
60.9761048
0
LINE
8
DEFAULT_255_1_388
10
24.193245
20
60.7303353
11
24.193245
21
61.0041153
0
LINE
8
DEFAULT_255_1_388
10
23.6971881
20
61.0167652
11
23.6971881
21
60.7493102
0
ARC
8
DEFAULT_255_1_388
10
22.9826378
20
60.7700118
40
1.3777776
50
353.8440855
51
0.2287917
0
ARC
8
DEFAULT_255_1_388
10
23.5045395
20
60.7117414
40
0.852639
50
344.4934746
51
353.9763743
0
ARC
8
DEFAULT_255_1_388
10
23.8412202
20
60.6160191
40
0.5026273
50
329.2803599
51
344.7473406
0
ARC
8
DEFAULT_255_1_388
10
23.9527698
20
60.5548038
40
0.3754848
50
324.9361395
51
328.6153007
0
ARC
8
DEFAULT_255_1_388
10
23.9953348
20
60.5250586
40
0.3235566
50
280.5801797
51
324.9173226
0
ARC
8
DEFAULT_255_1_388
10
23.9501977
20
60.7130236
40
0.5167077
50
269.5979457
51
281.6732777
0
ARC
8
DEFAULT_255_1_388
10
23.942088
20
60.6995113
40
0.5032026
50
256.6228565
51
270.5105488
0
ARC
8
DEFAULT_255_1_388
10
23.8968623
20
60.5253345
40
0.3233092
50
215.8618351
51
257.2787793
0
ARC
8
DEFAULT_255_1_388
10
24.011733
20
60.6024106
40
0.4615831
50
197.9695203
51
215.2622745
0
ARC
8
DEFAULT_255_1_388
10
24.2913006
20
60.6967641
40
0.7566307
50
187.8816486
51
198.2346584
0
ARC
8
DEFAULT_255_1_388
10
24.7366244
20
60.7610453
40
1.2065653
50
180.8977266
51
188.0054894
0
ARC
8
DEFAULT_255_1_388
10
25.0416458
20
60.77254
40
1.5117443
50
180.7434591
51
181.152202
0
ARC
8
DEFAULT_255_1_388
10
24.8741453
20
60.9815371
40
1.3441277
50
173.7674302
51
180.2315596
0
ARC
8
DEFAULT_255_1_388
10
24.3659322
20
61.0389779
40
0.8326847
50
164.3058537
51
173.9000553
0
ARC
8
DEFAULT_255_1_388
10
24.0383322
20
61.1333652
40
0.4917711
50
148.7922028
51
164.5682288
0
ARC
8
DEFAULT_255_1_388
10
23.931406
20
61.1930457
40
0.3694204
50
144.5883979
51
148.1161588
0
ARC
8
DEFAULT_255_1_388
10
23.8926805
20
61.2200667
40
0.322202
50
101.6440149
51
144.5142619
0
ARC
8
DEFAULT_255_1_388
10
23.9404997
20
61.0300337
40
0.5180451
50
89.528284
51
102.5820197
0
ARC
8
DEFAULT_255_1_388
10
23.9493989
20
61.0256376
40
0.5224441
50
77.0437914
51
90.508231
0
ARC
8
DEFAULT_255_1_388
10
23.9946243
20
61.2104272
40
0.3322297
50
48.2777708
51
77.4996087
0
ARC
8
DEFAULT_255_1_388
10
24.0027983
20
61.2249557
40
0.315966
50
36.3141586
51
47.6307332
0
ARC
8
DEFAULT_255_1_388
10
23.9050705
20
61.1591159
40
0.4337313
50
18.2931065
51
35.6770203
0
ARC
8
DEFAULT_255_1_388
10
23.6189546
20
61.0609107
40
0.7362203
50
8.0246996
51
18.5605636
0
ARC
8
DEFAULT_255_1_388
10
23.1505901
20
60.9917432
40
1.2096583
50
1.127539
51
8.1718423
0
ARC
8
DEFAULT_255_1_388
10
22.7857035
20
60.9774374
40
1.5747719
50
0.5432713
51
1.38669
0
ARC
8
DEFAULT_255_1_388
10
22.9914414
20
61.0081163
40
1.2018103
50
359.8092569
51
4.9408001
0
ARC
8
DEFAULT_255_1_388
10
23.4650995
20
61.05039
40
0.7262727
50
4.8364937
51
12.2906017
0
ARC
8
DEFAULT_255_1_388
10
23.775046
20
61.1194485
40
0.4087324
50
12.0806994
51
23.8171225
0
ARC
8
DEFAULT_255_1_388
10
23.9070856
20
61.1753508
40
0.2653719
50
24.2874621
51
31.3934353
0
ARC
8
DEFAULT_255_1_388
10
23.9661291
20
61.2139822
40
0.1948607
50
30.7407708
51
82.4658033
0
ARC
8
DEFAULT_255_1_388
10
23.9458952
20
61.1146017
40
0.2961198
50
81.1057101
51
90.2187368
0
ARC
8
DEFAULT_255_1_388
10
23.9418764
20
61.1436421
40
0.2670929
50
89.380395
51
105.6763916
0
ARC
8
DEFAULT_255_1_388
10
23.9212486
20
61.218632
40
0.1893189
50
105.7980655
51
149.7387869
0
ARC
8
DEFAULT_255_1_388
10
24.0409626
20
61.1466719
40
0.3289892
50
149.4208441
51
163.628295
0
ARC
8
DEFAULT_255_1_388
10
24.2761856
20
61.0749345
40
0.5749004
50
163.3764549
51
172.141138
0
ARC
8
DEFAULT_255_1_388
10
24.6474577
20
61.0217582
40
0.9499585
50
172.0258462
51
178.0705453
0
ARC
8
DEFAULT_255_1_388
10
24.989613
20
61.0055682
40
1.2924734
50
177.8639301
51
179.5036263
0
ARC
8
DEFAULT_255_1_388
10
24.8677149
20
60.7452151
40
1.170534
50
179.7995545
51
185.246089
0
ARC
8
DEFAULT_255_1_388
10
24.4128742
20
60.7021404
40
0.7136613
50
185.1411911
51
193.0082205
0
ARC
8
DEFAULT_255_1_388
10
24.1155003
20
60.6318441
40
0.4080987
50
192.7897338
51
205.2507384
0
ARC
8
DEFAULT_255_1_388
10
23.9977213
20
60.5792538
40
0.2791522
50
205.8001921
51
211.2545876
0
ARC
8
DEFAULT_255_1_388
10
23.9388752
20
60.5398132
40
0.2084074
50
210.3789935
51
238.4007996
0
ARC
8
DEFAULT_255_1_388
10
23.9366838
20
60.5450786
40
0.2117943
50
239.6521916
51
265.9793852
0
ARC
8
DEFAULT_255_1_388
10
23.9462687
20
60.6207358
40
0.2879689
50
265.1324455
51
270.0603288
0
ARC
8
DEFAULT_255_1_388
10
23.9495064
20
60.5842418
40
0.2514919
50
269.3314378
51
287.2180039
0
ARC
8
DEFAULT_255_1_388
10
23.9650146
20
60.5276291
40
0.1928357
50
287.7957942
51
329.0808983
0
ARC
8
DEFAULT_255_1_388
10
23.8572903
20
60.5948651
40
0.319808
50
328.6635261
51
343.3325043
0
ARC
8
DEFAULT_255_1_388
10
23.6128362
20
60.6710195
40
0.5758408
50
343.0498092
51
351.9392499
0
ARC
8
DEFAULT_255_1_388
10
23.2227683
20
60.7285205
40
0.9701202
50
351.8071632
51
357.7957897
0
ARC
8
DEFAULT_255_1_388
10
22.859316
20
60.7473724
40
1.3340376
50
357.5870923
51
359.2682493
0
ENDSEC
0
EOF