0
SECTION
2
HEADER
9
$MEASUREMENT
70
1
0
ENDSEC
0
SECTION
2
TABLES
0
TABLE
2
LTYPE
0
LTYPE
72
65
70
64
2
CONTINUOUS
3
______
73
0
40
0
0
ENDTAB
0
TABLE
2
LAYER
0
LAYER
2
DEFAULT_255_2_778
70
0
62
255
6
CONTINUOUS
0
ENDTAB
0
ENDSEC
0
SECTION
2
ENTITIES
0
ARC
8
DEFAULT_255_2_778
10
7.0759322
20
0.9912166
40
1.1867749
50
140.0041012
51
180.1904258
0
ARC
8
DEFAULT_255_2_778
10
7.1076212
20
0.9594289
40
1.2314889
50
104.43898
51
139.8187096
0
ARC
8
DEFAULT_255_2_778
10
7.1405394
20
0.8468465
40
1.3487287
50
89.8800127
51
104.6006732
0
ARC
8
DEFAULT_255_2_778
10
7.1501725
20
0.8703268
40
1.325263
50
67.8108345
51
90.2943619
0
ARC
8
DEFAULT_255_2_778
10
7.2081756
20
1.0028553
40
1.1806492
50
1.0426472
51
67.9882578
0
ARC
8
DEFAULT_255_2_778
10
7.134778
20
0.995379
40
1.2541859
50
359.9996918
51
1.3231215
0
ARC
8
DEFAULT_255_2_778
10
7.2021577
20
0.9835319
40
1.1868127
50
320.0053853
51
0.1902269
0
ARC
8
DEFAULT_255_2_778
10
7.1705335
20
1.015248
40
1.2314311
50
284.4411551
51
319.8205564
0
ARC
8
DEFAULT_255_2_778
10
7.1376847
20
1.1275968
40
1.3484276
50
269.8801422
51
284.6023127
0
ARC
8
DEFAULT_255_2_778
10
7.1280214
20
1.104242
40
1.3250874
50
247.7267249
51
270.2958655
0
ARC
8
DEFAULT_255_2_778
10
7.069903
20
0.9719213
40
1.1806167
50
180.907021
51
247.9028521
0
ARC
8
DEFAULT_255_2_778
10
7.1417908
20
0.9792485
40
1.2526267
50
179.9989149
51
181.1900807
0
ARC
8
DEFAULT_255_2_778
10
7.1101841
20
1.0007198
40
0.6249245
50
358.7669753
51
59.1978716
0
ARC
8
DEFAULT_255_2_778
10
7.144034
20
1.0267427
40
0.5854507
50
60.7393931
51
90.4864115
0
ARC
8
DEFAULT_255_2_778
10
7.1321169
20
1.0441623
40
0.5680524
50
89.2992835
51
127.7608407
0
ARC
8
DEFAULT_255_2_778
10
7.1818578
20
1.0045659
40
0.6299964
50
129.1321012
51
180.1121792
0
ARC
8
DEFAULT_255_2_778
10
7.2653291
20
0.9914825
40
0.713565
50
179.0484694
51
180.0008253
0
ARC
8
DEFAULT_255_2_778
10
7.1855573
20
0.9725126
40
0.6338882
50
179.0093348
51
233.393271
0
ARC
8
DEFAULT_255_2_778
10
7.1380741
20
0.9307321
40
0.5721861
50
234.7154207
51
270.549728
0
ARC
8
DEFAULT_255_2_778
10
7.1507781
20
0.9361792
40
0.577652
50
269.2844251
51
305.6248228
0
ARC
8
DEFAULT_255_2_778
10
7.1099066
20
0.9655026
40
0.6255025
50
307.1036039
51
0.3636136
0
ARC
8
DEFAULT_255_2_778
10
7.0260803
20
0.9792508
40
0.7093836
50
359.2101691
51
0.0017348
0
ARC
8
DEFAULT_255_2_778
10
10.5590263
20
0.8446735
40
0.7239429
50
179.1453128
51
196.0544715
0
ARC
8
DEFAULT_255_2_778
10
10.2360991
20
0.7457729
40
0.3863017
50
195.2034579
51
233.0890395
0
ARC
8
DEFAULT_255_2_778
10
10.2438316
20
0.7894948
40
0.4263772
50
235.787742
51
271.9800874
0
ARC
8
DEFAULT_255_2_778
10
10.2743162
20
0.7937581
40
0.430674
50
267.9038813
51
304.8664733
0
ARC
8
DEFAULT_255_2_778
10
10.2858081
20
0.7442207
40
0.3839246
50
307.6866955
51
346.1680389
0
ARC
8
DEFAULT_255_2_778
10
9.9862878
20
0.8310294
40
0.6956286
50
345.1233001
51
0.7036584
0
ARC
8
DEFAULT_255_2_778
10
9.7406691
20
0.849065
40
1.5947334
50
349.0814293
51
0.3990676
0
ARC
8
DEFAULT_255_2_778
10
10.2877243
20
0.7396245
40
1.036859
50
331.0293901
51
349.2936019
0
ARC
8
DEFAULT_255_2_778
10
10.4519703
20
0.6677598
40
0.8585191
50
282.2528348
51
329.9159801
0
ARC
8
DEFAULT_255_2_778
10
10.2673761
20
1.3194034
40
1.5350716
50
270.2229717
51
283.8241515
0
ARC
8
DEFAULT_255_2_778
10
10.2472266
20
1.7773298
40
1.9931576
50
269.9981963
51
270.7509695
0
ARC
8
DEFAULT_255_2_778
10
10.2330144
20
1.324811
40
1.5407037
50
256.920286
51
270.5261992
0
ARC
8
DEFAULT_255_2_778
10
10.0883283
20
0.737703
40
0.9361191
50
230.5625311
51
257.413982
0
ARC
8
DEFAULT_255_2_778
10
10.0387056
20
0.6484183
40
0.8358431
50
198.9845314
51
229.3016632
0
ARC
8
DEFAULT_255_2_778
10
10.4203512
20
0.7874026
40
1.2419642
50
184.8530292
51
199.3199318
0
ARC
8
DEFAULT_255_2_778
10
10.9018539
20
0.8406832
40
1.7262924
50
179.9041122
51
185.2630764
0
ARC
8
DEFAULT_255_2_778
10
13.2224793
20
0.301032
40
1.8456669
50
78.2003853
51
90.3078106
0
ARC
8
DEFAULT_255_2_778
10
13.326934
20
0.7857321
40
1.3498529
50
60.9586978
51
78.333299
0
ARC
8
DEFAULT_255_2_778
10
13.4765255
20
1.0523429
40
1.0441464
50
5.1287253
51
61.0333128
0
ARC
8
DEFAULT_255_2_778
10
13.2039508
20
1.0017066
40
1.3204137
50
359.9464405
51
6.2599127
0
ARC
8
DEFAULT_255_2_778
10
13.3392582
20
0.9801764
40
1.1851695
50
335.4976407
51
0.5944406
0
ARC
8
DEFAULT_255_2_778
10
13.4532066
20
0.9421987
40
1.0658081
50
297.1032758
51
334.8148817
0
ARC
8
DEFAULT_255_2_778
10
13.297987
20
1.2297162
40
1.3924883
50
280.6892706
51
297.3988181
0
ARC
8
DEFAULT_255_2_778
10
13.2081838
20
1.6786847
40
1.8503297
50
269.751662
51
280.8431372
0
ARC
8
DEFAULT_255_2_778
10
13.2370222
20
1.2150162
40
0.8189313
50
269.1633162
51
289.9531726
0
ARC
8
DEFAULT_255_2_778
10
13.3414484
20
0.9365467
40
0.5215515
50
289.6093847
51
355.4187482
0
ARC
8
DEFAULT_255_2_778
10
13.105454
20
0.9822461
40
0.7609108
50
353.4075653
51
0.0923287
0
ARC
8
DEFAULT_255_2_778
10
13.2346536
20
1.0024159
40
0.6318051
50
359.0075149
51
24.6850144
0
ARC
8
DEFAULT_255_2_778
10
13.3268327
20
1.0276369
40
0.5377423
50
26.3453245
51
77.6476843
0
ARC
8
DEFAULT_255_2_778
10
13.2313034
20
0.7120836
40
0.8668111
50
75.9411428
51
90.4124297
0
ARC
8
DEFAULT_255_2_778
10
25.2121362
20
0.5060886
40
1.6379224
50
80.2701548
51
90.3943155
0
ARC
8
DEFAULT_255_2_778
10
25.3222935
20
1.1262621
40
1.0080599
50
64.3260306
51
80.4839659
0
ARC
8
DEFAULT_255_2_778
10
25.4442307
20
1.387093
40
0.7201572
50
44.4681403
51
64.078909
0
ARC
8
DEFAULT_255_2_778
10
25.4882422
20
1.4112528
40
0.6719622
50
6.6326039
51
45.6269222
0
ARC
8
DEFAULT_255_2_778
10
25.1631686
20
1.3522247
40
1.0018998
50
359.8254413
51
7.8385553
0
ARC
8
DEFAULT_255_2_778
10
25.3517464
20
1.3314966
40
0.8133763
50
338.6949204
51
0.688631
0
ARC
8
DEFAULT_255_2_778
10
25.4159827
20
1.3283763
40
0.7526736
50
291.2486666
51
337.1393704
0
ARC
8
DEFAULT_255_2_778
10
25.1823831
20
1.5021009
40
0.4713483
50
268.7090515
51
291.6133687
0
ARC
8
DEFAULT_255_2_778
10
25.2678044
20
1.2951627
40
0.2475162
50
290.8745817
51
2.0396989
0
ARC
8
DEFAULT_255_2_778
10
25.2689816
20
1.3248701
40
0.2465252
50
356.9777154
51
78.8314707
0
ARC
8
DEFAULT_255_2_778
10
25.1750342
20
1.0240794
40
0.5608427
50
75.3654778
51
90.7631892
0
ARC
8
DEFAULT_255_2_778
10
1.5229965
20
0.9301885
40
0.570991
50
272.4768126
51
336.9659581
0
ARC
8
DEFAULT_255_2_778
10
1.5189393
20
0.9863476
40
0.6272752
50
269.9931175
51
272.6253848
0
ARC
8
DEFAULT_255_2_778
10
1.5129637
20
0.9280327
40
0.5689911
50
229.0588866
51
270.5941404
0
ARC
8
DEFAULT_255_2_778
10
1.5687794
20
0.9759695
40
0.6418667
50
179.2766923
51
228.0992432
0
ARC
8
DEFAULT_255_2_778
10
1.5635038
20
1.0025718
40
0.6366282
50
132.4847638
51
180.9539935
0
ARC
8
DEFAULT_255_2_778
10
1.5061653
20
1.0481136
40
0.5644348
50
90.6048087
51
131.314676
0
ARC
8
DEFAULT_255_2_778
10
1.5143329
20
0.9697801
40
0.6428921
50
89.9972339
51
91.2589964
0
ARC
8
DEFAULT_255_2_778
10
1.5218568
20
1.0360406
40
0.5766804
50
51.2931342
51
90.7444707
0
ARC
8
DEFAULT_255_2_778
10
1.5069163
20
1.0277468
40
0.5925306
50
19.7293953
51
50.6672495
0
ARC
8
DEFAULT_255_2_778
10
1.582132
20
0.9985193
40
1.1835473
50
11.168782
51
75.3122528
0
ARC
8
DEFAULT_255_2_778
10
1.5218981
20
0.8287688
40
1.3631081
50
74.6722782
51
90.1527571
0
ARC
8
DEFAULT_255_2_778
10
1.5121799
20
0.8744112
40
1.3174751
50
89.7354112
51
113.2482725
0
ARC
8
DEFAULT_255_2_778
10
1.4595578
20
0.9846846
40
1.1953945
50
113.0171215
51
180.0581092
0
ARC
8
DEFAULT_255_2_778
10
1.451847
20
0.9718682
40
1.1876889
50
179.8213099
51
214.2699391
0
ARC
8
DEFAULT_255_2_778
10
1.4615978
20
0.9869746
40
1.2042734
50
214.6026592
51
253.2857987
0
ARC
8
DEFAULT_255_2_778
10
1.5066055
20
1.1222493
40
1.3467837
50
253.1070571
51
270.181165
0
ARC
8
DEFAULT_255_2_778
10
1.5170624
20
1.0894014
40
1.3139438
50
269.729709
51
293.145234
0
ARC
8
DEFAULT_255_2_778
10
1.568296
20
0.9780945
40
1.1914625
50
292.9836934
51
346.6294963
0
LINE
8
DEFAULT_255_2_778
10
4.1016639
20
0.3879723
11
5.2234639
21
0.3879723
0
LINE
8
DEFAULT_255_2_778
10
5.2234639
20
0.3879723
11
5.2234639
21
-0.1748277
0
LINE
8
DEFAULT_255_2_778
10
5.2234639
20
-0.1748277
11
3.4560639
21
-0.1748277
0
LINE
8
DEFAULT_255_2_778
10
3.4560639
20
-0.1748277
11
3.4560639
21
2.1466723
0
LINE
8
DEFAULT_255_2_778
10
3.4560639
20
2.1466723
11
4.1016639
21
2.1466723
0
LINE
8
DEFAULT_255_2_778
10
4.1016639
20
2.1466723
11
4.1016639
21
0.3879723
0
LINE
8
DEFAULT_255_2_778
10
5.8891639
20
0.9792723
11
5.8891639
21
0.9872723
0
LINE
8
DEFAULT_255_2_778
10
8.3889639
20
0.9953723
11
8.3889639
21
0.9874723
0
LINE
8
DEFAULT_255_2_778
10
7.7349639
20
0.9792723
11
7.7349639
21
0.9872723
0
LINE
8
DEFAULT_255_2_778
10
6.5517639
20
0.9914723
11
6.5517639
21
0.9834723
0
LINE
8
DEFAULT_255_2_778
10
9.1816639
20
0.8430723
11
9.1816639
21
2.1466723
0
LINE
8
DEFAULT_255_2_778
10
9.1816639
20
2.1466723
11
9.8351639
21
2.1466723
0
LINE
8
DEFAULT_255_2_778
10
9.8351639
20
2.1466723
11
9.8351639
21
0.8554723
0
LINE
8
DEFAULT_255_2_778
10
10.6818639
20
0.8395723
11
10.6818639
21
2.1471723
0
LINE
8
DEFAULT_255_2_778
10
10.6818639
20
2.1471723
11
11.3353639
21
2.1471723
0
LINE
8
DEFAULT_255_2_778
10
11.3353639
20
2.1471723
11
11.3353639
21
0.8601723
0
LINE
8
DEFAULT_255_2_778
10
12.3188639
20
2.1466723
11
13.2125639
21
2.1466723
0
LINE
8
DEFAULT_255_2_778
10
14.5243639
20
1.0004723
11
14.5243639
21
0.9924723
0
LINE
8
DEFAULT_255_2_778
10
13.2001639
20
-0.1716277
11
12.3190639
21
-0.1716277
0
LINE
8
DEFAULT_255_2_778
10
12.3190639
20
-0.1716277
11
12.3190639
21
2.1497723
0
LINE
8
DEFAULT_255_2_778
10
12.3190639
20
2.1497723
11
12.3188639
21
2.1466723
0
LINE
8
DEFAULT_255_2_778
10
13.8663639
20
0.9834723
11
13.8663639
21
0.9914723
0
LINE
8
DEFAULT_255_2_778
10
13.2250639
20
1.5788723
11
12.9644639
21
1.5788723
0
LINE
8
DEFAULT_255_2_778
10
12.9644639
20
1.5788723
11
12.9644639
21
0.3992723
0
LINE
8
DEFAULT_255_2_778
10
12.9644639
20
0.3992723
11
13.2250639
21
0.3992723
0
LINE
8
DEFAULT_255_2_778
10
13.2250639
20
0.3992723
11
13.2250639
21
0.3961723
0
LINE
8
DEFAULT_255_2_778
10
15.4649639
20
2.1466723
11
17.3231639
21
2.1466723
0
LINE
8
DEFAULT_255_2_778
10
17.3231639
20
2.1466723
11
17.3231639
21
1.5838723
0
LINE
8
DEFAULT_255_2_778
10
17.3231639
20
1.5838723
11
16.1066639
21
1.5838723
0
LINE
8
DEFAULT_255_2_778
10
16.1066639
20
1.5838723
11
16.1066639
21
1.1864723
0
LINE
8
DEFAULT_255_2_778
10
16.1066639
20
1.1864723
11
17.2072639
21
1.1864723
0
LINE
8
DEFAULT_255_2_778
10
17.2072639
20
1.1864723
11
17.2072639
21
0.6524723
0
LINE
8
DEFAULT_255_2_778
10
17.2072639
20
0.6524723
11
16.1066639
21
0.6524723
0
LINE
8
DEFAULT_255_2_778
10
16.1066639
20
0.6524723
11
16.1066639
21
-0.1751277
0
LINE
8
DEFAULT_255_2_778
10
16.1066639
20
-0.1751277
11
15.4655639
21
-0.1751277
0
LINE
8
DEFAULT_255_2_778
10
15.4655639
20
-0.1751277
11
15.4649639
21
2.1466723
0
LINE
8
DEFAULT_255_2_778
10
18.8582639
20
0.3879723
11
19.9838639
21
0.3879723
0
LINE
8
DEFAULT_255_2_778
10
19.9838639
20
0.3879723
11
19.9838639
21
-0.1748277
0
LINE
8
DEFAULT_255_2_778
10
19.9838639
20
-0.1748277
11
18.2163639
21
-0.1748277
0
LINE
8
DEFAULT_255_2_778
10
18.2163639
20
-0.1748277
11
18.2163639
21
2.1466723
0
LINE
8
DEFAULT_255_2_778
10
18.2163639
20
2.1466723
11
18.8577639
21
2.1466723
0
LINE
8
DEFAULT_255_2_778
10
18.8577639
20
2.1466723
11
18.8582639
21
0.3879723
0
LINE
8
DEFAULT_255_2_778
10
21.6639639
20
2.1606723
11
22.2846639
21
2.1606723
0
LINE
8
DEFAULT_255_2_778
10
22.2846639
20
2.1606723
11
23.2736639
21
-0.1774277
0
LINE
8
DEFAULT_255_2_778
10
23.2736639
20
-0.1774277
11
22.5857639
21
-0.1774277
0
LINE
8
DEFAULT_255_2_778
10
22.5857639
20
-0.1774277
11
22.4163639
21
0.2363723
0
LINE
8
DEFAULT_255_2_778
10
22.4163639
20
0.2363723
11
21.5220639
21
0.2363723
0
LINE
8
DEFAULT_255_2_778
10
21.5220639
20
0.2363723
11
21.3564639
21
-0.1774277
0
LINE
8
DEFAULT_255_2_778
10
21.3564639
20
-0.1774277
11
20.6817639
21
-0.1774277
0
LINE
8
DEFAULT_255_2_778
10
20.6817639
20
-0.1774277
11
21.6665639
21
2.1606723
0
LINE
8
DEFAULT_255_2_778
10
21.6665639
20
2.1606723
11
21.6639639
21
2.1606723
0
LINE
8
DEFAULT_255_2_778
10
22.2309639
20
0.7371723
11
21.9742639
21
1.3951723
0
LINE
8
DEFAULT_255_2_778
10
21.9742639
20
1.3951723
11
21.7136639
21
0.7371723
0
LINE
8
DEFAULT_255_2_778
10
21.7136639
20
0.7371723
11
22.2309639
21
0.7371723
0
LINE
8
DEFAULT_255_2_778
10
22.2309639
20
0.7371723
11
22.2309639
21
0.7371723
0
LINE
8
DEFAULT_255_2_778
10
24.1041639
20
2.1439723
11
25.2008639
21
2.1439723
0
LINE
8
DEFAULT_255_2_778
10
26.1650639
20
1.3491723
11
26.1650639
21
1.3412723
0
LINE
8
DEFAULT_255_2_778
10
25.6887639
20
0.6268723
11
26.2433639
21
-0.1843277
0
LINE
8
DEFAULT_255_2_778
10
26.2433639
20
-0.1843277
11
25.4985639
21
-0.1843277
0
LINE
8
DEFAULT_255_2_778
10
25.4985639
20
-0.1843277
11
25.0309639
21
0.5194723
0
LINE
8
DEFAULT_255_2_778
10
25.0309639
20
0.5194723
11
24.7471639
21
0.5194723
0
LINE
8
DEFAULT_255_2_778
10
24.7471639
20
0.5194723
11
24.7471639
21
-0.1843277
0
LINE
8
DEFAULT_255_2_778
10
24.7471639
20
-0.1843277
11
24.1041639
21
-0.1843277
0
LINE
8
DEFAULT_255_2_778
10
24.1041639
20
-0.1843277
11
24.1041639
21
2.1439723
0
LINE
8
DEFAULT_255_2_778
10
24.1041639
20
2.1439723
11
24.1041639
21
2.1439723
0
LINE
8
DEFAULT_255_2_778
10
25.5151639
20
1.3039723
11
25.5151639
21
1.3118723
0
LINE
8
DEFAULT_255_2_778
10
25.1675639
20
1.5848723
11
24.7455639
21
1.5848723
0
LINE
8
DEFAULT_255_2_778
10
24.7455639
20
1.5848723
11
24.7455639
21
1.0303723
0
LINE
8
DEFAULT_255_2_778
10
24.7455639
20
1.0303723
11
25.1688639
21
1.0303723
0
LINE
8
DEFAULT_255_2_778
10
25.1688639
20
1.0303723
11
25.1717639
21
1.0308723
0
LINE
8
DEFAULT_255_2_778
10
27.7289639
20
0.3712723
11
28.9746639
21
0.3712723
0
LINE
8
DEFAULT_255_2_778
10
28.9746639
20
0.3712723
11
28.9746639
21
-0.1751277
0
LINE
8
DEFAULT_255_2_778
10
28.9746639
20
-0.1751277
11
27.0918639
21
-0.1751277
0
LINE
8
DEFAULT_255_2_778
10
27.0918639
20
-0.1751277
11
27.0918639
21
2.1460723
0
LINE
8
DEFAULT_255_2_778
10
27.0918639
20
2.1460723
11
28.9582639
21
2.1460723
0
LINE
8
DEFAULT_255_2_778
10
28.9582639
20
2.1460723
11
28.9582639
21
1.5997723
0
LINE
8
DEFAULT_255_2_778
10
28.9582639
20
1.5997723
11
27.7289639
21
1.5997723
0
LINE
8
DEFAULT_255_2_778
10
27.7289639
20
1.5997723
11
27.7289639
21
1.2478723
0
LINE
8
DEFAULT_255_2_778
10
27.7289639
20
1.2478723
11
28.8420639
21
1.2478723
0
LINE
8
DEFAULT_255_2_778
10
28.8420639
20
1.2478723
11
28.8420639
21
0.7387723
0
LINE
8
DEFAULT_255_2_778
10
28.8420639
20
0.7387723
11
27.7289639
21
0.7387723
0
LINE
8
DEFAULT_255_2_778
10
27.7289639
20
0.7387723
11
27.7289639
21
0.3712723
0
LINE
8
DEFAULT_255_2_778
10
0.9269639
20
0.9840723
11
0.9269639
21
0.9919723
0
LINE
8
DEFAULT_255_2_778
10
2.0646639
20
1.2277723
11
2.7432639
21
1.2277723
0
LINE
8
DEFAULT_255_2_778
10
0.2641639
20
0.9834723
11
0.2641639
21
0.9755723
0
LINE
8
DEFAULT_255_2_778
10
2.7274639
20
0.7025723
11
2.0487639
21
0.7067723
0
LINE
8
DEFAULT_255_2_778
10
2.0487639
20
0.7067723
11
2.0484639
21
0.7067723
0
LINE
8
DEFAULT_255_2_778
10
26.1149904
20
6.9984865
11
18.8521904
21
6.9487865
0
LINE
8
DEFAULT_255_2_778
10
18.8521904
20
6.9487865
11
18.8521904
21
3.2614865
0
LINE
8
DEFAULT_255_2_778
10
18.8521904
20
3.2614865
11
28.1961904
21
3.2614865
0
LINE
8
DEFAULT_255_2_778
10
28.1961904
20
3.2614865
11
28.1961904
21
5.8501865
0
LINE
8
DEFAULT_255_2_778
10
28.1961904
20
5.8501865
11
26.4234904
21
6.8682865
0
LINE
8
DEFAULT_255_2_778
10
26.4234904
20
6.8682865
11
26.1149904
21
6.9984865
0
ARC
8
DEFAULT_255_2_778
10
23.8169756
20
3.940997
40
1.1940741
50
343.5778873
51
354.1044437
0
ARC
8
DEFAULT_255_2_778
10
23.9974031
20
3.9196821
40
1.012415
50
354.2555161
51
359.950346
0
ARC
8
DEFAULT_255_2_778
10
24.1960315
20
3.9279237
40
0.8138374
50
359.3579924
51
24.2709633
0
ARC
8
DEFAULT_255_2_778
10
24.291997
20
3.9641766
40
0.7114811
50
24.7862247
51
35.4982664
0
ARC
8
DEFAULT_255_2_778
10
24.2897935
20
3.9477197
40
0.7229329
50
36.4587706
51
77.1734213
0
ARC
8
DEFAULT_255_2_778
10
24.1914306
20
3.6293909
40
1.0554566
50
75.8031797
51
87.0180284
0
ARC
8
DEFAULT_255_2_778
10
19.1513698
20
4.8437917
40
0.0941757
50
214.1549467
51
270.4060938
0
ARC
8
DEFAULT_255_2_778
10
19.1621521
20
4.84747
40
0.1052065
50
178.9548908
51
212.5156689
0
ARC
8
DEFAULT_255_2_778
10
19.1896788
20
4.8492004
40
0.1327158
50
169.2851744
51
179.9185981
0
ARC
8
DEFAULT_255_2_778
10
19.1958476
20
4.8481984
40
0.1389634
50
165.9567961
51
169.3521192
0
ARC
8
DEFAULT_255_2_778
10
19.1924488
20
4.833237
40
0.1401387
50
94.6297551
51
159.6728711
0
ARC
8
DEFAULT_255_2_778
10
24.2619249
20
6.3319427
40
1.2942704
50
272.6133149
51
281.518544
0
ARC
8
DEFAULT_255_2_778
10
24.2556096
20
6.3767962
40
1.3394845
50
281.400122
51
281.5387374
0
ARC
8
DEFAULT_255_2_778
10
24.1588867
20
6.7427104
40
1.7174865
50
282.2584774
51
304.0549031
0
ARC
8
DEFAULT_255_2_778
10
24.1096427
20
6.87706
40
1.8566908
50
302.9921995
51
336.3165852
0
ARC
8
DEFAULT_255_2_778
10
24.4779029
20
6.6807318
40
1.4409365
50
337.5839093
51
339.0115824
0
ARC
8
DEFAULT_255_2_778
10
25.9620459
20
6.9928802
40
0.164641
50
337.6669567
51
359.9946134
0
ARC
8
DEFAULT_255_2_778
10
25.962332
20
6.9928559
40
0.1643551
50
0.0030897
51
1.3585765
0
ARC
8
DEFAULT_255_2_778
10
25.9629534
20
6.992891
40
0.1637332
50
1.351432
51
12.9264997
0
ARC
8
DEFAULT_255_2_778
10
22.8787298
20
6.3119453
40
3.3222279
50
12.473703
51
39.1518754
0
ARC
8
DEFAULT_255_2_778
10
22.8581173
20
6.3003478
40
3.3455372
50
39.0830159
51
74.0317634
0
ARC
8
DEFAULT_255_2_778
10
22.8604194
20
6.2916523
40
3.3532672
50
74.1104549
51
90.0492443
0
ARC
8
DEFAULT_255_2_778
10
22.8559399
20
6.3037358
40
3.3411829
50
89.9726074
51
111.9040422
0
ARC
8
DEFAULT_255_2_778
10
22.8584391
20
6.2969992
40
3.3483655
50
111.9007153
51
153.9304787
0
ARC
8
DEFAULT_255_2_778
10
22.866753
20
6.2951369
40
3.3566526
50
153.96429
51
161.2712551
0
ARC
8
DEFAULT_255_2_778
10
18.7869036
20
6.164503
40
1.5072986
50
53.29364
51
85.2267093
0
ARC
8
DEFAULT_255_2_778
10
18.7870845
20
6.152664
40
1.5190819
50
85.270667
51
90.0059977
0
ARC
8
DEFAULT_255_2_778
10
18.787267
20
6.1208154
40
1.5509305
50
90.0126149
51
95.7219657
0
ARC
8
DEFAULT_255_2_778
10
18.7864874
20
6.1670537
40
1.5048498
50
95.8679556
51
132.0405742
0
ARC
8
DEFAULT_255_2_778
10
18.7856912
20
6.1651536
40
1.505729
50
131.9696545
51
172.4199869
0
ARC
8
DEFAULT_255_2_778
10
18.8030954
20
6.1625151
40
1.5233291
50
172.4079656
51
174.099383
0
ARC
8
DEFAULT_255_2_778
10
18.8584878
20
6.165617
40
1.5781336
50
174.4181483
51
178.6339794
0
ARC
8
DEFAULT_255_2_778
10
18.8581642
20
6.1656335
40
1.5778097
50
178.6342985
51
180.0001596
0
ARC
8
DEFAULT_255_2_778
10
18.8582742
20
6.1656424
40
1.5779197
50
180.0004832
51
193.6369389
0
ARC
8
DEFAULT_255_2_778
10
17.3823213
20
3.6634847
40
2.1309091
50
91.5458135
51
115.303381
0
ARC
8
DEFAULT_255_2_778
10
17.3874247
20
3.6551459
40
2.1406295
50
115.3314773
51
170.237888
0
ARC
8
DEFAULT_255_2_778
10
17.3978424
20
3.6574663
40
2.1505067
50
170.345877
51
180.0212881
0
ARC
8
DEFAULT_255_2_778
10
17.7467453
20
3.6568716
40
2.4994093
50
180.0046842
51
180.0608229
0
ARC
8
DEFAULT_255_2_778
10
17.8666502
20
3.6721672
40
2.6193744
50
180.392614
51
187.2011957
0
ARC
8
DEFAULT_255_2_778
10
15.3684535
20
3.3587267
40
0.1016158
50
188.4364679
51
269.3142242
0
ARC
8
DEFAULT_255_2_778
10
24.7683702
20
3.3828836
40
0.1257676
50
270.3494867
51
343.9530712
0
LINE
8
DEFAULT_255_2_778
10
24.2463373
20
4.6834183
11
19.1520373
21
4.7496183
0
LINE
8
DEFAULT_255_2_778
10
19.1811373
20
4.9729183
11
24.3209373
21
5.0390183
0
LINE
8
DEFAULT_255_2_778
10
25.8232373
20
6.1646183
11
26.1143373
21
6.9303183
0
LINE
8
DEFAULT_255_2_778
10
15.3672373
20
3.2571183
11
24.7691373
21
3.2571183
0
LINE
8
DEFAULT_255_2_778
10
24.8892373
20
3.3481183
11
24.9596373
21
3.6005183
0
LINE
8
DEFAULT_255_2_778
10
24.9596373
20
3.6005183
11
24.9623373
21
3.6034183
0
ARC
8
DEFAULT_255_2_778
10
26.4489015
20
6.7889422
40
0.0837816
50
93.5808639
51
162.3389805
0
ARC
8
DEFAULT_255_2_778
10
27.3144745
20
5.7857294
40
1.192664
50
163.5603173
51
174.1005994
0
ARC
8
DEFAULT_255_2_778
10
27.1348235
20
5.806971
40
1.0117847
50
174.2514685
51
179.950293
0
ARC
8
DEFAULT_255_2_778
10
26.9370463
20
5.7987696
40
0.8140577
50
179.3609704
51
204.2655649
0
ARC
8
DEFAULT_255_2_778
10
26.8413968
20
5.7626365
40
0.7120377
50
204.7779827
51
215.4796216
0
ARC
8
DEFAULT_255_2_778
10
26.8432139
20
5.7794346
40
0.7233776
50
216.4795969
51
257.1730588
0
ARC
8
DEFAULT_255_2_778
10
26.9419494
20
6.0990174
40
1.0572086
50
255.8005962
51
266.9972504
0
ARC
8
DEFAULT_255_2_778
10
27.9714183
20
4.8827243
40
0.0943382
50
34.2807938
51
90.3944931
0
ARC
8
DEFAULT_255_2_778
10
27.9496375
20
4.8757698
40
0.1164353
50
0.0012858
51
31.0699275
0
ARC
8
DEFAULT_255_2_778
10
27.9495661
20
4.8757742
40
0.1165066
50
357.4607031
51
359.9991215
0
ARC
8
DEFAULT_255_2_778
10
27.9494915
20
4.875786
40
0.1165816
50
344.5659015
51
357.456534
0
ARC
8
DEFAULT_255_2_778
10
27.9303625
20
4.8935792
40
0.1402754
50
274.6230591
51
339.6335757
0
ARC
8
DEFAULT_255_2_778
10
26.869936
20
3.395128
40
1.2938314
50
92.567869
51
100.5251164
0
ARC
8
DEFAULT_255_2_778
10
26.9620594
20
3.0064623
40
1.6928989
50
101.1877194
51
123.6099774
0
ARC
8
DEFAULT_255_2_778
10
27.0224378
20
2.8531921
40
1.8542897
50
122.5421675
51
156.7220532
0
ARC
8
DEFAULT_255_2_778
10
26.6613649
20
3.0437692
40
1.4476559
50
158.0033392
51
159.0213018
0
ARC
8
DEFAULT_255_2_778
10
25.290519
20
3.325348
40
0.0687028
50
158.1117318
51
158.6448827
0
ARC
8
DEFAULT_255_2_778
10
25.2853193
20
3.3269877
40
0.0632643
50
158.3131502
51
179.7485508
0
ARC
8
DEFAULT_255_2_778
10
25.2822087
20
3.3282533
40
0.0601611
50
180.9409676
51
272.7248858
0
ARC
8
DEFAULT_255_2_778
10
29.1698291
20
3.3669476
40
0.0988446
50
268.0517725
51
345.8358161
0
ARC
8
DEFAULT_255_2_778
10
26.5361068
20
4.10155
40
2.8330673
50
344.4646239
51
359.8889754
0
ARC
8
DEFAULT_255_2_778
10
26.5855122
20
4.0913155
40
2.7836606
50
0.097661
51
19.8365321
0
ARC
8
DEFAULT_255_2_778
10
26.5773179
20
4.0843972
40
2.7937188
50
19.9129713
51
78.4965052
0
ARC
8
DEFAULT_255_2_778
10
26.5817493
20
4.0755569
40
2.8015043
50
78.6213718
51
89.9505191
0
LINE
8
DEFAULT_255_2_778
10
26.5843687
20
6.8767602
11
26.4436687
21
6.8725602
0
LINE
8
DEFAULT_255_2_778
10
26.3690687
20
6.8143602
11
26.1705687
21
6.1232602
0
LINE
8
DEFAULT_255_2_778
10
26.8865687
20
5.0432602
11
27.9707687
21
4.9770602
0
LINE
8
DEFAULT_255_2_778
10
27.9416687
20
4.7537602
11
26.8119687
21
4.6876602
0
LINE
8
DEFAULT_255_2_778
10
25.3096687
20
3.5620602
11
25.2267687
21
3.3509602
0
LINE
8
DEFAULT_255_2_778
10
25.2850687
20
3.2681602
11
29.1664687
21
3.2681602
0
ENDSEC
0
EOF