0
SECTION
2
HEADER
9
$MEASUREMENT
70
1
0
ENDSEC
0
SECTION
2
TABLES
0
TABLE
2
LTYPE
0
LTYPE
72
65
70
64
2
CONTINUOUS
3
______
73
0
40
0
0
ENDTAB
0
TABLE
2
LAYER
0
LAYER
2
DEFAULT_255_2_778
70
0
62
255
6
CONTINUOUS
0
ENDTAB
0
ENDSEC
0
SECTION
2
ENTITIES
0
LINE
8
DEFAULT_255_2_778
10
4.7149184
20
-0.2728742
11
15.9211184
21
-0.2728742
0
LINE
8
DEFAULT_255_2_778
10
15.9211184
20
-0.2728742
11
15.9211184
21
2.8281258
0
LINE
8
DEFAULT_255_2_778
10
15.9211184
20
2.8281258
11
13.7922184
21
4.0488258
0
LINE
8
DEFAULT_255_2_778
10
13.7922184
20
4.0488258
11
13.4250184
21
4.2076258
0
LINE
8
DEFAULT_255_2_778
10
13.4250184
20
4.2076258
11
4.7149184
21
4.1478258
0
LINE
8
DEFAULT_255_2_778
10
4.7149184
20
4.1478258
11
4.7149184
21
-0.2728742
0
ARC
8
DEFAULT_255_2_778
10
10.6606362
20
0.5473556
40
1.443263
50
343.5624215
51
353.0798985
0
ARC
8
DEFAULT_255_2_778
10
10.8782109
20
0.5189212
40
1.2238491
50
353.1741244
51
359.9295763
0
ARC
8
DEFAULT_255_2_778
10
11.1104188
20
0.5261544
40
0.9916786
50
359.495175
51
21.1738822
0
ARC
8
DEFAULT_255_2_778
10
11.2364702
20
0.5688506
40
0.8587344
50
21.5552597
51
35.4618502
0
ARC
8
DEFAULT_255_2_778
10
11.2408713
20
0.5573006
40
0.8619335
50
36.2569591
51
75.4145257
0
ARC
8
DEFAULT_255_2_778
10
11.1368789
20
0.2403736
40
1.1950163
50
74.4157112
51
87.6148756
0
LINE
8
DEFAULT_255_2_778
10
5.077411
20
1.5137546
11
5.0771085
21
1.5137542
0
ARC
8
DEFAULT_255_2_778
10
5.0770826
20
1.6272542
40
0.1135
50
214.2019066
51
270.0131082
0
ARC
8
DEFAULT_255_2_778
10
5.084931
20
1.6301942
40
0.1216599
50
178.9440573
51
213.269298
0
ARC
8
DEFAULT_255_2_778
10
5.1278012
20
1.6317277
40
0.164511
50
165.6666601
51
179.7532618
0
ARC
8
DEFAULT_255_2_778
10
5.1248718
20
1.6153849
40
0.1665441
50
94.3253748
51
159.9603498
0
ARC
8
DEFAULT_255_2_778
10
11.1987909
20
3.4201599
40
1.5612162
50
272.8350932
51
280.9155407
0
ARC
8
DEFAULT_255_2_778
10
11.1777742
20
3.5439994
40
1.6867973
50
280.8199547
51
281.6050626
0
ARC
8
DEFAULT_255_2_778
10
11.0858709
20
3.8871834
40
2.0415612
50
282.1940993
51
301.8538956
0
ARC
8
DEFAULT_255_2_778
10
11.000249
20
4.0885463
40
2.258035
50
301.0027305
51
334.3414893
0
ARC
8
DEFAULT_255_2_778
10
11.4443225
20
3.8363333
40
1.7488928
50
335.4900361
51
339.0234552
0
ARC
8
DEFAULT_255_2_778
10
13.245118
20
4.2046753
40
0.1997484
50
337.5371523
51
0.0226731
0
ARC
8
DEFAULT_255_2_778
10
13.2434009
20
4.2047461
40
0.2014656
50
0.0023473
51
1.529711
0
ARC
8
DEFAULT_255_2_778
10
13.2430698
20
4.2047148
40
0.2017975
50
1.5360891
51
12.1985367
0
ARC
8
DEFAULT_255_2_778
10
9.5546823
20
3.3882869
40
3.9794607
50
12.4668903
51
35.5777878
0
ARC
8
DEFAULT_255_2_778
10
9.5230595
20
3.3693206
40
4.0162163
50
35.5353811
51
72.0459032
0
ARC
8
DEFAULT_255_2_778
10
9.5299161
20
3.3736009
40
4.0100342
50
72.1202482
51
88.3493695
0
ARC
8
DEFAULT_255_2_778
10
9.5245673
20
3.2881734
40
4.0955812
50
88.3089967
51
90.0007873
0
ARC
8
DEFAULT_255_2_778
10
9.5210861
20
3.366162
40
4.0175941
50
89.9511571
51
105.4829873
0
ARC
8
DEFAULT_255_2_778
10
9.5217825
20
3.3808181
40
4.0036584
50
105.5485825
51
132.6626409
0
ARC
8
DEFAULT_255_2_778
10
9.5283394
20
3.3663466
40
4.0187467
50
132.5915634
51
161.2436133
0
ARC
8
DEFAULT_255_2_778
10
4.6316701
20
3.188136
40
1.8311624
50
53.4172921
51
89.9963357
0
ARC
8
DEFAULT_255_2_778
10
4.6318033
20
3.1884729
40
1.8308255
50
90.0005022
51
95.4721903
0
ARC
8
DEFAULT_255_2_778
10
4.6380774
20
3.2166202
40
1.8034268
50
95.755892
51
131.4135137
0
ARC
8
DEFAULT_255_2_778
10
4.615951
20
3.2285401
40
1.7798723
50
131.1331648
51
173.1306939
0
ARC
8
DEFAULT_255_2_778
10
4.5918802
20
3.2368496
40
1.7549886
50
173.3060385
51
174.7296502
0
ARC
8
DEFAULT_255_2_778
10
4.7257858
20
3.2144641
40
1.8904108
50
174.426837
51
178.5851053
0
ARC
8
DEFAULT_255_2_778
10
4.7270649
20
3.214415
40
1.8916907
50
178.5845764
51
180.0003303
0
ARC
8
DEFAULT_255_2_778
10
4.7330342
20
3.2146053
40
1.89766
50
180.0060731
51
193.6164905
0
ARC
8
DEFAULT_255_2_778
10
2.9549971
20
0.2140158
40
2.5546989
50
91.4868055
51
112.6229327
0
ARC
8
DEFAULT_255_2_778
10
2.9613381
20
0.2052846
40
2.5651986
50
112.6786491
51
169.5660677
0
ARC
8
DEFAULT_255_2_778
10
2.9711432
20
0.2086585
40
2.5742357
50
169.6794428
51
180.0237013
0
ARC
8
DEFAULT_255_2_778
10
3.0743591
20
0.207594
40
2.6774514
50
180.0000084
51
180.0885816
0
ARC
8
DEFAULT_255_2_778
10
2.9184682
20
0.2075311
40
2.5215605
50
180.0926274
51
183.5413229
0
ARC
8
DEFAULT_255_2_778
10
4.4041
20
0.3056243
40
4.0104192
50
183.6290547
51
186.7902182
0
ARC
8
DEFAULT_255_2_778
10
0.5431293
20
-0.1500467
40
0.1227206
50
188.6697062
51
268.917552
0
ARC
8
DEFAULT_255_2_778
10
11.8134311
20
-0.1194561
40
0.1533163
50
271.0763267
51
343.2093804
0
LINE
8
DEFAULT_255_2_778
10
11.186611
20
1.4343546
11
5.077411
21
1.5137546
0
LINE
8
DEFAULT_255_2_778
10
5.112311
20
1.7814546
11
11.276011
21
1.8608546
0
LINE
8
DEFAULT_255_2_778
10
13.077311
20
3.2102546
11
13.429711
21
4.1283546
0
LINE
8
DEFAULT_255_2_778
10
0.540811
20
-0.2727454
11
11.816311
21
-0.2727454
0
LINE
8
DEFAULT_255_2_778
10
11.960211
20
-0.1637454
11
12.044911
21
0.1389546
0
LINE
8
DEFAULT_255_2_778
10
12.044911
20
0.1389546
11
12.044911
21
0.1389546
0
ARC
8
DEFAULT_255_2_778
10
13.8273752
20
3.9576079
40
0.1020473
50
93.7385507
51
161.1146837
0
ARC
8
DEFAULT_255_2_778
10
14.8768672
20
2.7538359
40
1.4431507
50
163.5734763
51
173.0861271
0
ARC
8
DEFAULT_255_2_778
10
14.6598946
20
2.7821632
40
1.2243474
50
173.1798493
51
179.9299337
0
ARC
8
DEFAULT_255_2_778
10
14.4277488
20
2.7749172
40
0.9922393
50
179.4951255
51
201.1689246
0
ARC
8
DEFAULT_255_2_778
10
14.3011489
20
2.7320188
40
0.8587102
50
201.5501806
51
215.4611001
0
ARC
8
DEFAULT_255_2_778
10
14.2967265
20
2.7436309
40
0.8619286
50
216.2604019
51
255.4144285
0
ARC
8
DEFAULT_255_2_778
10
14.4010845
20
3.0615797
40
1.1960938
50
254.4119158
51
267.5963598
0
ARC
8
DEFAULT_255_2_778
10
15.6511988
20
1.6733918
40
0.1138463
50
34.2335805
51
90.0389783
0
ARC
8
DEFAULT_255_2_778
10
15.6279345
20
1.6659555
40
0.1374388
50
0.0139414
51
31.3392782
0
ARC
8
DEFAULT_255_2_778
10
15.6284987
20
1.6659861
40
0.1368747
50
357.5986189
51
0.0011894
0
ARC
8
DEFAULT_255_2_778
10
15.6285651
20
1.6659791
40
0.136808
50
344.0733069
51
357.6003747
0
ARC
8
DEFAULT_255_2_778
10
15.6033417
20
1.6859287
40
0.1669881
50
274.4235512
51
339.8621558
0
ARC
8
DEFAULT_255_2_778
10
14.3385283
20
-0.1285846
40
1.5705117
50
92.8105157
51
100.7043752
0
ARC
8
DEFAULT_255_2_778
10
14.4412149
20
-0.56819
40
2.0216322
50
101.2498583
51
121.8363767
0
ARC
8
DEFAULT_255_2_778
10
14.531957
20
-0.7799214
40
2.2496423
50
120.9552063
51
154.8667924
0
ARC
8
DEFAULT_255_2_778
10
14.0974536
20
-0.5368042
40
1.7533793
50
156.0287279
51
159.0284424
0
ARC
8
DEFAULT_255_2_778
10
12.4256799
20
-0.188657
40
0.0700239
50
157.8554676
51
158.1191711
0
ARC
8
DEFAULT_255_2_778
10
12.431254
20
-0.1914055
40
0.0762221
50
157.7635267
51
179.7329194
0
ARC
8
DEFAULT_255_2_778
10
12.4267145
20
-0.1901332
40
0.0716876
50
180.7329182
51
272.3238598
0
ARC
8
DEFAULT_255_2_778
10
17.0861669
20
-0.1398968
40
0.1218749
50
269.2733497
51
270.0069534
0
ARC
8
DEFAULT_255_2_778
10
17.0863019
20
-0.1400013
40
0.1217705
50
269.9434437
51
344.6372161
0
ARC
8
DEFAULT_255_2_778
10
13.9364292
20
0.7458317
40
3.3938317
50
344.3048883
51
359.7232363
0
ARC
8
DEFAULT_255_2_778
10
13.9873903
20
0.7230294
40
3.3428371
50
0.1098427
51
17.7190889
0
ARC
8
DEFAULT_255_2_778
10
13.9807428
20
0.7145684
40
3.3517499
50
17.8222775
51
73.5769066
0
ARC
8
DEFAULT_255_2_778
10
13.9886606
20
0.7182997
40
3.3459387
50
73.6888948
51
89.9749875
0
LINE
8
DEFAULT_255_2_778
10
13.9901213
20
4.0647381
11
13.8207213
21
4.0594381
0
LINE
8
DEFAULT_255_2_778
10
13.7308213
20
3.9906381
11
13.4926213
21
3.1619381
0
LINE
8
DEFAULT_255_2_778
10
14.3509213
20
1.8665381
11
15.6511213
21
1.7872381
0
LINE
8
DEFAULT_255_2_778
10
15.6162213
20
1.5194381
11
14.2615213
21
1.4400381
0
LINE
8
DEFAULT_255_2_778
10
12.4602213
20
0.0907381
11
12.3608213
21
-0.1622619
0
LINE
8
DEFAULT_255_2_778
10
12.4296213
20
-0.2617619
11
17.0846213
21
-0.2617619
0
ENDSEC
0
EOF