0
SECTION
2
HEADER
9
$MEASUREMENT
70
1
0
ENDSEC
0
SECTION
2
TABLES
0
TABLE
2
LTYPE
0
LTYPE
72
65
70
64
2
CONTINUOUS
3
______
73
0
40
0
0
ENDTAB
0
TABLE
2
LAYER
0
LAYER
2
DEFAULT_255_2_778
70
0
62
255
6
CONTINUOUS
0
ENDTAB
0
ENDSEC
0
SECTION
2
ENTITIES
0
ARC
8
DEFAULT_255_2_778
10
0.9183638
20
2.194863
40
16.2202802
50
355.4347945
51
358.239481
0
ARC
8
DEFAULT_255_2_778
10
-0.475071
20
2.2471816
40
17.6146672
50
358.2086297
51
359.0782374
0
ARC
8
DEFAULT_255_2_778
10
-0.8731342
20
2.253763
40
18.0127848
50
359.0776748
51
0.0011339
0
ARC
8
DEFAULT_255_2_778
10
-0.8916457
20
2.2556212
40
18.0312963
50
359.9952281
51
2.6119158
0
ARC
8
DEFAULT_255_2_778
10
0.3488241
20
2.3119564
40
16.789548
50
2.6127774
51
4.2463327
0
ARC
8
DEFAULT_255_2_778
10
16.7454761
20
30.1195004
40
26.5672487
50
270.8866431
51
271.7233691
0
ARC
8
DEFAULT_255_2_778
10
20.8168383
20
-114.2623441
40
117.8720457
50
91.5481084
51
91.5908581
0
ARC
8
DEFAULT_255_2_778
10
18.1312571
20
-12.998465
40
16.5726531
50
90.1846491
51
91.7250317
0
ARC
8
DEFAULT_255_2_778
10
18.1455993
20
-1.6738561
40
5.2483956
50
80.9242315
51
90.73965
0
ARC
8
DEFAULT_255_2_778
10
18.7215137
20
1.9435429
40
1.5854403
50
62.889829
51
80.8553554
0
ARC
8
DEFAULT_255_2_778
10
18.8832257
20
2.2769889
40
1.214963
50
26.956434
51
62.5122159
0
ARC
8
DEFAULT_255_2_778
10
18.6426205
20
2.1403231
40
1.4914337
50
20.8612906
51
27.4461675
0
ARC
8
DEFAULT_255_2_778
10
18.9347308
20
2.2505695
40
1.1792134
50
6.0489012
51
20.9100367
0
ARC
8
DEFAULT_255_2_778
10
18.9122513
20
2.2476595
40
1.2018746
50
2.759716
51
6.0739297
0
ARC
8
DEFAULT_255_2_778
10
18.8990607
20
2.2470072
40
1.2150812
50
359.9976244
51
2.76049
0
ARC
8
DEFAULT_255_2_778
10
18.7761386
20
2.2626986
40
1.3380959
50
311.7867118
51
359.3259379
0
ARC
8
DEFAULT_255_2_778
10
18.7569776
20
2.272502
40
1.3581959
50
292.014416
51
312.1138358
0
ARC
8
DEFAULT_255_2_778
10
18.7268432
20
2.2647081
40
1.3626153
50
271.2800753
51
293.3120881
0
ARC
8
DEFAULT_255_2_778
10
17.2228378
20
3.2461326
40
2.3437368
50
268.8641747
51
269.6784261
0
ARC
8
DEFAULT_255_2_778
10
17.1252434
20
-2.1834869
40
3.0867666
50
89.0507926
51
89.9801074
0
LINE
8
DEFAULT_255_2_778
10
17.1263151
20
0.9032796
11
17.1260754
21
0.9032796
0
ARC
8
DEFAULT_255_2_778
10
17.1266637
20
-2.3317932
40
3.2350728
50
90.0104205
51
90.7080988
0
ARC
8
DEFAULT_255_2_778
10
17.2620771
20
-9.0148869
40
10.3368327
50
86.0355607
51
87.2374328
0
ARC
8
DEFAULT_255_2_778
10
18.4254621
20
7.1105081
40
5.8305895
50
265.5861327
51
269.3418794
0
ARC
8
DEFAULT_255_2_778
10
18.3965377
20
2.9042865
40
1.6244288
50
268.65793
51
288.0990391
0
ARC
8
DEFAULT_255_2_778
10
18.6148043
20
2.2164542
40
0.9028446
50
288.4934764
51
313.4803426
0
ARC
8
DEFAULT_255_2_778
10
18.6101709
20
2.191647
40
0.8882677
50
314.7983808
51
349.6289048
0
ARC
8
DEFAULT_255_2_778
10
18.282632
20
2.2779695
40
1.2262699
50
348.4164438
51
353.8234764
0
ARC
8
DEFAULT_255_2_778
10
18.3069844
20
2.2775044
40
1.2020107
50
353.7206265
51
359.11994
0
ARC
8
DEFAULT_255_2_778
10
18.4007233
20
2.2748399
40
1.1082428
50
359.1832413
51
359.9979793
0
ARC
8
DEFAULT_255_2_778
10
18.6384552
20
2.2891795
40
0.8706295
50
359.0537039
51
26.3850692
0
ARC
8
DEFAULT_255_2_778
10
18.7065615
20
2.3048104
40
0.8028363
50
27.5458547
51
57.8420896
0
ARC
8
DEFAULT_255_2_778
10
18.5711789
20
2.1148054
40
1.0358374
50
57.0963444
51
63.0841257
0
ARC
8
DEFAULT_255_2_778
10
18.3365977
20
1.650704
40
1.5558545
50
63.1180329
51
83.8549603
0
ARC
8
DEFAULT_255_2_778
10
18.2895417
20
1.2915014
40
1.9180485
50
83.6059895
51
90.0994859
0
ARC
8
DEFAULT_255_2_778
10
18.3109116
20
0.4582924
40
2.7513655
50
90.5143798
51
100.9124496
0
ARC
8
DEFAULT_255_2_778
10
18.4983013
20
-0.6928693
40
3.9173328
50
100.4162656
51
100.9814558
0
ARC
8
DEFAULT_255_2_778
10
45.1188332
20
2.0298762
40
27.3897753
50
177.6504746
51
179.2977809
0
ARC
8
DEFAULT_255_2_778
10
34.4313309
20
2.2022266
40
16.7010145
50
179.4396545
51
179.9942153
0
ARC
8
DEFAULT_255_2_778
10
30.1732243
20
2.1761454
40
12.4429389
50
179.8721399
51
183.7283586
0
ARC
8
DEFAULT_255_2_778
10
28.3712924
20
2.0792219
40
10.6385377
50
183.8385197
51
184.1451461
0
LINE
8
DEFAULT_255_2_778
10
17.0922836
20
3.5551327
11
17.1565836
21
3.5554327
0
LINE
8
DEFAULT_255_2_778
10
18.7572836
20
0.9024327
11
17.2096836
21
0.9024327
0
LINE
8
DEFAULT_255_2_778
10
17.0866836
20
0.9030327
11
17.0871836
21
0.9038327
0
LINE
8
DEFAULT_255_2_778
10
17.7605836
20
1.3102327
11
17.7602836
21
1.3099327
0
ARC
8
DEFAULT_255_2_778
10
0.1068374
20
1.8699444
40
9.0426458
50
353.9376958
51
0.2911153
0
ARC
8
DEFAULT_255_2_778
10
-4.576858
20
1.9124068
40
13.726225
50
0.0145361
51
0.9254883
0
ARC
8
DEFAULT_255_2_778
10
-21.4256012
20
1.472919
40
30.5803265
50
1.2389225
51
3.1794242
0
ARC
8
DEFAULT_255_2_778
10
87.4791918
20
7.1380416
40
78.471977
50
182.6099156
51
182.8992101
0
ARC
8
DEFAULT_255_2_778
10
-3.5065252
20
4.2112135
40
13.2562769
50
356.0018622
51
357.3912719
0
ARC
8
DEFAULT_255_2_778
10
88.9849948
20
-1.9471527
40
79.4401218
50
176.2222065
51
176.2626385
0
ARC
8
DEFAULT_255_2_778
10
17.0308167
20
2.6898144
40
7.3369865
50
175.7699937
51
179.5235648
0
ARC
8
DEFAULT_255_2_778
10
13.2911062
20
2.7450256
40
3.5970269
50
179.9076497
51
183.7821964
0
ARC
8
DEFAULT_255_2_778
10
11.9751749
20
-0.5667709
40
3.8236641
50
124.5967948
51
126.4787303
0
ARC
8
DEFAULT_255_2_778
10
10.4761531
20
1.695044
40
1.1118078
50
99.7319878
51
127.1901601
0
ARC
8
DEFAULT_255_2_778
10
10.4878504
20
1.2922653
40
1.5118256
50
90.1146201
51
97.5880839
0
ARC
8
DEFAULT_255_2_778
10
10.4986305
20
1.6342701
40
1.1698992
50
58.7803229
51
90.6760888
0
ARC
8
DEFAULT_255_2_778
10
10.562139
20
1.7361381
40
1.0498664
50
43.728794
51
58.8628008
0
ARC
8
DEFAULT_255_2_778
10
10.6431659
20
1.8136374
40
0.9377437
50
22.5411015
51
43.7292168
0
ARC
8
DEFAULT_255_2_778
10
10.67935
20
1.8300515
40
0.8980326
50
0.715839
51
22.4588539
0
ARC
8
DEFAULT_255_2_778
10
10.6847581
20
1.830499
40
0.8926193
50
359.9989591
51
0.6914565
0
ARC
8
DEFAULT_255_2_778
10
10.6794947
20
1.8312615
40
0.8978833
50
325.1085572
51
359.9503084
0
ARC
8
DEFAULT_255_2_778
10
10.6216463
20
1.8719951
40
0.9686332
50
306.4138707
51
325.0895923
0
ARC
8
DEFAULT_255_2_778
10
10.5532246
20
1.96062
40
1.0805728
50
298.0474973
51
306.5439582
0
ARC
8
DEFAULT_255_2_778
10
10.4039256
20
2.2269323
40
1.385825
50
287.6663759
51
298.3180607
0
ARC
8
DEFAULT_255_2_778
10
10.4780124
20
1.9921557
40
1.1396373
50
270.1265754
51
287.699346
0
ARC
8
DEFAULT_255_2_778
10
10.4855199
20
2.0312291
40
1.1787186
50
251.4009752
51
269.7574453
0
ARC
8
DEFAULT_255_2_778
10
10.5562989
20
2.2645324
40
1.4224307
50
246.3677923
51
251.6961518
0
ARC
8
DEFAULT_255_2_778
10
10.6555846
20
2.4879162
40
1.6668816
50
239.9148129
51
246.3192276
0
ARC
8
DEFAULT_255_2_778
10
10.8032177
20
2.7472807
40
1.9653127
50
236.5043559
51
239.98105
0
ARC
8
DEFAULT_255_2_778
10
10.3717571
20
1.991164
40
0.7386593
50
269.3527941
51
297.4316256
0
ARC
8
DEFAULT_255_2_778
10
10.4600947
20
1.8333358
40
0.5579099
50
296.8467387
51
358.9643494
0
ARC
8
DEFAULT_255_2_778
10
10.4543533
20
1.8343263
40
0.563669
50
358.8742338
51
359.9986526
0
ARC
8
DEFAULT_255_2_778
10
10.4356367
20
1.8219891
40
0.5825159
50
1.2122639
51
74.3310552
0
ARC
8
DEFAULT_255_2_778
10
10.37026
20
1.6820091
40
0.7353808
50
72.3718203
51
88.8893992
0
ARC
8
DEFAULT_255_2_778
10
10.3654774
20
1.5274387
40
0.8900167
50
88.7744384
51
89.9988207
0
ARC
8
DEFAULT_255_2_778
10
10.357714
20
1.639126
40
0.7783685
50
89.4271782
51
116.4599714
0
ARC
8
DEFAULT_255_2_778
10
10.2491337
20
1.8308766
40
0.5584481
50
115.2525797
51
177.2826656
0
ARC
8
DEFAULT_255_2_778
10
10.2830248
20
1.8355041
40
0.5921145
50
177.8854314
51
179.9962036
0
ARC
8
DEFAULT_255_2_778
10
10.2608841
20
1.8418687
40
0.5700088
50
180.6358172
51
253.0573235
0
ARC
8
DEFAULT_255_2_778
10
10.3589889
20
2.0612634
40
0.8090235
50
250.9384542
51
270.3133598
0
LINE
8
DEFAULT_255_2_778
10
9.7191135
20
1.1070519
11
9.6649135
21
0.9149519
0
LINE
8
DEFAULT_255_2_778
10
9.6649135
20
0.9149519
11
9.0989135
21
0.9149519
0
LINE
8
DEFAULT_255_2_778
10
9.0886135
20
3.5647519
11
9.7360135
21
3.6078519
0
LINE
8
DEFAULT_255_2_778
10
9.7186135
20
1.1083519
11
9.7191135
21
1.1070519
0
LINE
8
DEFAULT_255_2_778
10
10.3634135
20
1.2522519
11
10.3634135
21
1.2525519
0
ARC
8
DEFAULT_255_2_778
10
26.384091
20
1.8530641
40
3.598215
50
167.5084776
51
180.5094827
0
ARC
8
DEFAULT_255_2_778
10
30.3870411
20
1.9103169
40
7.6015467
50
180.6727144
51
187.443559
0
ARC
8
DEFAULT_255_2_778
10
21.4121589
20
2.1060136
40
1.2600164
50
282.4490508
51
297.4581327
0
ARC
8
DEFAULT_255_2_778
10
21.4227963
20
2.0636093
40
1.2163165
50
276.4802723
51
282.3903517
0
ARC
8
DEFAULT_255_2_778
10
21.4252221
20
2.0419982
40
1.1945697
50
270.0097974
51
276.4816488
0
ARC
8
DEFAULT_255_2_778
10
21.4189184
20
1.9748542
40
1.1274445
50
224.4698903
51
270.3307316
0
ARC
8
DEFAULT_255_2_778
10
21.3023381
20
1.8613396
40
0.9647301
50
207.9056067
51
224.5092267
0
ARC
8
DEFAULT_255_2_778
10
21.2471854
20
1.8320597
40
0.902287
50
183.5731804
51
207.9016182
0
ARC
8
DEFAULT_255_2_778
10
21.2287759
20
1.8296739
40
0.8837655
50
180.0011462
51
183.4931911
0
ARC
8
DEFAULT_255_2_778
10
21.2120444
20
1.8311358
40
0.8670354
50
136.8812604
51
180.0977745
0
ARC
8
DEFAULT_255_2_778
10
21.2565092
20
1.7873261
40
0.9294379
50
118.3434691
51
136.7834785
0
ARC
8
DEFAULT_255_2_778
10
21.6892219
20
1.0079371
40
1.8208569
50
111.393851
51
118.6838862
0
ARC
8
DEFAULT_255_2_778
10
21.5686712
20
1.3117651
40
1.4939907
50
104.7388219
51
111.339596
0
ARC
8
DEFAULT_255_2_778
10
21.5041069
20
1.5721878
40
1.2257169
50
90.4768264
51
104.9171562
0
ARC
8
DEFAULT_255_2_778
10
21.4987412
20
1.6740274
40
1.1238452
50
90.0000098
51
90.246493
0
ARC
8
DEFAULT_255_2_778
10
21.4987894
20
1.6968707
40
1.101002
50
67.320463
51
90.0025179
0
ARC
8
DEFAULT_255_2_778
10
21.4195774
20
1.507342
40
1.3064177
50
55.3267745
51
67.3200582
0
ARC
8
DEFAULT_255_2_778
10
21.3011509
20
1.3260562
40
1.522892
50
53.0092976
51
55.5426402
0
ARC
8
DEFAULT_255_2_778
10
22.583089
20
3.053916
40
0.6287264
50
234.4403364
51
238.3171735
0
ARC
8
DEFAULT_255_2_778
10
23.3926499
20
4.3259965
40
2.136523
50
237.7595504
51
238.2406491
0
ARC
8
DEFAULT_255_2_778
10
23.6466069
20
4.7347412
40
2.6177359
50
238.2234196
51
238.3343401
0
ARC
8
DEFAULT_255_2_778
10
24.2477681
20
5.7139318
40
3.7667376
50
238.3704442
51
239.2370563
0
ARC
8
DEFAULT_255_2_778
10
25.0010186
20
6.9811926
40
5.2409614
50
239.2471841
51
239.2614678
0
ARC
8
DEFAULT_255_2_778
10
21.5964382
20
1.9841219
40
0.7315902
50
269.7192065
51
300.5414199
0
ARC
8
DEFAULT_255_2_778
10
21.6943186
20
1.8367686
40
0.5550214
50
299.5687861
51
358.9853759
0
ARC
8
DEFAULT_255_2_778
10
21.7269628
20
1.8295665
40
0.5222967
50
359.7119322
51
0.0042168
0
ARC
8
DEFAULT_255_2_778
10
21.6707315
20
1.8133334
40
0.5787568
50
1.611058
51
70.8646462
0
ARC
8
DEFAULT_255_2_778
10
21.5953129
20
1.6738125
40
0.7357337
50
68.8771413
51
89.7788296
0
ARC
8
DEFAULT_255_2_778
10
21.5919947
20
1.6195077
40
0.7900568
50
89.5533997
51
89.9997947
0
ARC
8
DEFAULT_255_2_778
10
21.5879136
20
1.6561415
40
0.753434
50
89.6894249
51
124.481575
0
ARC
8
DEFAULT_255_2_778
10
21.4663668
20
1.8087603
40
0.5589864
50
123.068146
51
177.6438797
0
ARC
8
DEFAULT_255_2_778
10
21.3784376
20
1.825033
40
0.4706325
50
179.1833789
51
179.9978071
0
ARC
8
DEFAULT_255_2_778
10
21.4570553
20
1.8450942
40
0.5496157
50
182.0899122
51
239.2028983
0
ARC
8
DEFAULT_255_2_778
10
21.5861537
20
2.0122262
40
0.7597002
50
237.2927663
51
270.2507807
0
ARC
8
DEFAULT_255_2_778
10
21.5894781
20
2.0434631
40
0.7909297
50
270.000059
51
270.2444763
0
ARC
8
DEFAULT_255_2_778
10
30.862207
20
1.8532017
40
3.6008802
50
167.5168565
51
180.507913
0
ARC
8
DEFAULT_255_2_778
10
34.8493969
20
1.9101167
40
7.5884485
50
180.6707584
51
187.4526711
0
ARC
8
DEFAULT_255_2_778
10
25.8876514
20
2.1076375
40
1.2612869
50
282.4459629
51
297.4387677
0
ARC
8
DEFAULT_255_2_778
10
25.8983238
20
2.0650742
40
1.2174244
50
276.4825175
51
282.3872058
0
ARC
8
DEFAULT_255_2_778
10
25.90079
20
2.0431677
40
1.1953796
50
270.0100873
51
276.4836151
0
ARC
8
DEFAULT_255_2_778
10
25.8943752
20
1.974772
40
1.1270033
50
224.4646846
51
270.3368198
0
ARC
8
DEFAULT_255_2_778
10
25.7777101
20
1.8614686
40
0.9643762
50
207.9023758
51
224.5156451
0
ARC
8
DEFAULT_255_2_778
10
25.7228201
20
1.8323226
40
0.9022279
50
183.5609863
51
207.8978699
0
ARC
8
DEFAULT_255_2_778
10
25.7044565
20
1.8299612
40
0.883754
50
180.001118
51
183.4821338
0
ARC
8
DEFAULT_255_2_778
10
25.687871
20
1.8314282
40
0.8671697
50
136.8889231
51
180.0980687
0
ARC
8
DEFAULT_255_2_778
10
25.7320785
20
1.7878515
40
0.929225
50
118.3484029
51
136.7902514
0
ARC
8
DEFAULT_255_2_778
10
26.1642331
20
1.0094028
40
1.8195516
50
111.3547106
51
118.6852398
0
ARC
8
DEFAULT_255_2_778
10
26.0435564
20
1.3141211
40
1.4918113
50
104.6583551
51
111.2997424
0
ARC
8
DEFAULT_255_2_778
10
25.9793773
20
1.5746283
40
1.2235483
50
90.2924747
51
104.8378166
0
LINE
8
DEFAULT_255_2_778
10
25.9731315
20
2.7981607
11
25.9743328
21
2.7981614
0
ARC
8
DEFAULT_255_2_778
10
25.9743852
20
1.6971455
40
1.1010159
50
67.3168315
51
90.0027259
0
ARC
8
DEFAULT_255_2_778
10
25.8952195
20
1.5077724
40
1.3062703
50
55.319466
51
67.3162417
0
ARC
8
DEFAULT_255_2_778
10
25.7769564
20
1.3267574
40
1.5224283
50
53.0011191
51
55.5356926
0
ARC
8
DEFAULT_255_2_778
10
27.7552739
20
4.1154382
40
1.8978392
50
235.9685728
51
239.7066868
0
ARC
8
DEFAULT_255_2_778
10
26.0713382
20
1.9841219
40
0.7315902
50
269.7192065
51
300.5414199
0
ARC
8
DEFAULT_255_2_778
10
26.1692186
20
1.8367686
40
0.5550214
50
299.5687861
51
358.9853759
0
ARC
8
DEFAULT_255_2_778
10
26.2029401
20
1.8295638
40
0.5212194
50
359.7116293
51
0.0042212
0
ARC
8
DEFAULT_255_2_778
10
26.1454922
20
1.8131755
40
0.5789004
50
1.6260311
51
70.8445048
0
ARC
8
DEFAULT_255_2_778
10
26.0701702
20
1.6742812
40
0.735265
50
68.8511016
51
89.7753665
0
ARC
8
DEFAULT_255_2_778
10
26.0668947
20
1.6195065
40
0.790058
50
89.5533998
51
89.9997948
0
ARC
8
DEFAULT_255_2_778
10
26.0628226
20
1.6560071
40
0.7535683
50
89.6901666
51
124.4783973
0
ARC
8
DEFAULT_255_2_778
10
25.9410476
20
1.8089074
40
0.5587614
50
123.060341
51
177.6580212
0
ARC
8
DEFAULT_255_2_778
10
25.8533376
20
1.825033
40
0.4706325
50
179.1833789
51
179.9978071
0
ARC
8
DEFAULT_255_2_778
10
25.9319553
20
1.8450942
40
0.5496157
50
182.0899122
51
239.2028983
0
ARC
8
DEFAULT_255_2_778
10
26.0610537
20
2.0122262
40
0.7597002
50
237.2927663
51
270.2507807
0
ARC
8
DEFAULT_255_2_778
10
26.0643781
20
2.0434631
40
0.7909297
50
270.000059
51
270.2444763
0
ARC
8
DEFAULT_255_2_778
10
5.6331254
20
2.0974622
40
1.2533998
50
283.7677941
51
297.2771727
0
ARC
8
DEFAULT_255_2_778
10
5.6483046
20
2.0412111
40
1.1951533
50
277.0025321
51
283.7027874
0
ARC
8
DEFAULT_255_2_778
10
5.6516188
20
2.014487
40
1.1682245
50
270.0112731
51
277.0009912
0
ARC
8
DEFAULT_255_2_778
10
5.6507664
20
1.9831772
40
1.1369153
50
228.0412162
51
270.0545378
0
ARC
8
DEFAULT_255_2_778
10
5.691426
20
2.0341933
40
1.2020431
50
223.1148947
51
228.2258539
0
ARC
8
DEFAULT_255_2_778
10
5.4720173
20
1.8324656
40
0.9040087
50
203.4779803
51
223.2860015
0
ARC
8
DEFAULT_255_2_778
10
5.4447167
20
1.8188996
40
0.8735652
50
180.6020467
51
203.3752385
0
ARC
8
DEFAULT_255_2_778
10
5.4529429
20
1.8192784
40
0.881795
50
180.0012098
51
180.6210454
0
ARC
8
DEFAULT_255_2_778
10
5.4711143
20
1.8169803
40
0.8999692
50
142.9833892
51
179.8548802
0
ARC
8
DEFAULT_255_2_778
10
5.51837
20
1.7837526
40
0.9577077
50
128.5405295
51
143.0981972
0
ARC
8
DEFAULT_255_2_778
10
5.5613643
20
1.7164541
40
1.037168
50
112.7800245
51
128.0818579
0
ARC
8
DEFAULT_255_2_778
10
5.7159851
20
1.3533438
40
1.4318247
50
95.7839756
51
112.8586933
0
ARC
8
DEFAULT_255_2_778
10
5.7277085
20
1.2908593
40
1.4951823
50
91.7248828
51
95.9896269
0
ARC
8
DEFAULT_255_2_778
10
5.726576
20
1.3226129
40
1.4634089
50
90.0023453
51
91.7179825
0
ARC
8
DEFAULT_255_2_778
10
5.7389068
20
1.5432726
40
1.2428109
50
69.670591
51
90.571246
0
ARC
8
DEFAULT_255_2_778
10
5.8821734
20
1.9310471
40
0.8294175
50
45.0495246
51
69.6445561
0
ARC
8
DEFAULT_255_2_778
10
6.5609931
20
2.616697
40
0.1354711
50
226.7396793
51
243.1413768
0
ARC
8
DEFAULT_255_2_778
10
6.1346613
20
1.8015616
40
0.7844365
50
59.2827489
51
62.2597128
0
ARC
8
DEFAULT_255_2_778
10
9.5470302
20
1.8339389
40
2.5627012
50
162.2259234
51
180.9940087
0
ARC
8
DEFAULT_255_2_778
10
10.6550935
20
1.7894815
40
3.6703787
50
180
51
180.0926616
0
ARC
8
DEFAULT_255_2_778
10
13.7571663
20
1.9013969
40
6.7734722
50
180.996937
51
187.9411917
0
ARC
8
DEFAULT_255_2_778
10
46.7255553
20
5.877145
40
39.9797473
50
187.056665
51
187.133288
0
ARC
8
DEFAULT_255_2_778
10
7.1705874
20
-1.4184915
40
2.3338836
50
92.832563
51
96.4169256
0
ARC
8
DEFAULT_255_2_778
10
7.6298822
20
-5.6619959
40
6.602158
50
96.2620401
51
97.1573741
0
ARC
8
DEFAULT_255_2_778
10
6.0450594
20
6.7121114
40
5.8730676
50
275.7680599
51
277.4570715
0
ARC
8
DEFAULT_255_2_778
10
6.513196
20
2.1445483
40
1.2815997
50
272.4711082
51
275.4676942
0
ARC
8
DEFAULT_255_2_778
10
5.9406171
20
-0.4527348
40
1.7080663
50
92.6666083
51
94.4680644
0
ARC
8
DEFAULT_255_2_778
10
6.4876723
20
-10.9500046
40
12.2195585
50
92.9243096
51
92.9389605
0
ARC
8
DEFAULT_255_2_778
10
5.8398939
20
2.1147629
40
0.8614662
50
271.6215296
51
279.430957
0
ARC
8
DEFAULT_255_2_778
10
5.8656534
20
1.8613926
40
0.607513
50
280.9501003
51
343.7666383
0
ARC
8
DEFAULT_255_2_778
10
5.9721593
20
1.8158792
40
0.492727
50
345.3860997
51
351.7222691
0
ARC
8
DEFAULT_255_2_778
10
5.8283034
20
1.8375346
40
0.6382023
50
351.657757
51
359.9238498
0
ARC
8
DEFAULT_255_2_778
10
5.9324515
20
1.8418987
40
0.534079
50
359.4408139
51
64.3484244
0
ARC
8
DEFAULT_255_2_778
10
5.7840243
20
1.6088369
40
0.8090942
50
62.0174893
51
81.1036951
0
ARC
8
DEFAULT_255_2_778
10
5.8078234
20
1.7264147
40
0.6892712
50
81.5467411
51
88.6805337
0
ARC
8
DEFAULT_255_2_778
10
5.8084217
20
1.7398022
40
0.6758734
50
88.7051079
51
89.9991717
0
ARC
8
DEFAULT_255_2_778
10
5.8114432
20
1.7151605
40
0.7005217
50
90.2463313
51
115.2022242
0
ARC
8
DEFAULT_255_2_778
10
5.8583523
20
1.5998506
40
0.8248567
50
114.7398292
51
117.9726755
0
ARC
8
DEFAULT_255_2_778
10
5.6940926
20
1.8198365
40
0.5551079
50
113.6453712
51
172.0920482
0
ARC
8
DEFAULT_255_2_778
10
5.7420639
20
1.827462
40
0.6017404
50
173.4397781
51
178.8117493
0
ARC
8
DEFAULT_255_2_778
10
5.7902963
20
1.828805
40
0.6499388
50
179.0182889
51
179.9982985
0
ARC
8
DEFAULT_255_2_778
10
5.6486832
20
1.8195762
40
0.5084098
50
178.9577194
51
211.7154487
0
ARC
8
DEFAULT_255_2_778
10
5.7894591
20
1.9385013
40
0.6912164
50
213.9673431
51
242.5618501
0
ARC
8
DEFAULT_255_2_778
10
5.7712256
20
1.8857715
40
0.6360683
50
241.8308459
51
271.6982911
0
ARC
8
DEFAULT_255_2_778
10
5.7899936
20
2.2481121
40
0.9981296
50
270.0047549
51
271.0194932
0
ARC
8
DEFAULT_255_2_778
10
12.9047452
20
2.3688882
40
1.5175152
50
270.0077174
51
271.9375567
0
ARC
8
DEFAULT_255_2_778
10
12.8864287
20
2.0637082
40
1.2124769
50
234.052562
51
270.8752444
0
ARC
8
DEFAULT_255_2_778
10
12.8115573
20
1.9687865
40
1.0916906
50
220.5049364
51
234.3091795
0
ARC
8
DEFAULT_255_2_778
10
12.6776848
20
1.8555169
40
0.916331
50
201.6549221
51
220.5566752
0
ARC
8
DEFAULT_255_2_778
10
12.5904595
20
1.8193273
40
0.8219087
50
180.4304441
51
201.5539845
0
ARC
8
DEFAULT_255_2_778
10
12.5766763
20
1.8181092
40
0.8081175
50
180.0000015
51
180.3514206
0
ARC
8
DEFAULT_255_2_778
10
12.6024701
20
1.815067
40
0.833917
50
149.7883909
51
179.7909849
0
ARC
8
DEFAULT_255_2_778
10
12.7251395
20
1.7459285
40
0.9747167
50
133.1162838
51
149.9047184
0
ARC
8
DEFAULT_255_2_778
10
12.837947
20
1.6300414
40
1.1364168
50
124.5134954
51
133.2745561
0
ARC
8
DEFAULT_255_2_778
10
12.9326077
20
1.4601478
40
1.330168
50
89.3932719
51
123.7268483
0
ARC
8
DEFAULT_255_2_778
10
12.946726
20
1.3375562
40
1.4526849
50
89.6532662
51
90.001297
0
ARC
8
DEFAULT_255_2_778
10
12.9622696
20
1.4433669
40
1.3468644
50
52.5233657
51
90.2872556
0
ARC
8
DEFAULT_255_2_778
10
13.1347415
20
1.6915572
40
1.0450574
50
36.9947069
51
51.7484157
0
ARC
8
DEFAULT_255_2_778
10
13.2761949
20
1.7966917
40
0.8688168
50
15.5729938
51
37.0704349
0
ARC
8
DEFAULT_255_2_778
10
13.3456789
20
1.8190865
40
0.7958767
50
0.0267394
51
15.3628857
0
ARC
8
DEFAULT_255_2_778
10
13.3525972
20
1.8194461
40
0.7889583
50
359.0723609
51
0.0008587
0
ARC
8
DEFAULT_255_2_778
10
13.319408
20
1.8231795
40
0.8222098
50
331.5802545
51
358.8496738
0
ARC
8
DEFAULT_255_2_778
10
13.1884737
20
1.8919085
40
0.9700763
50
315.7621312
51
331.6906491
0
ARC
8
DEFAULT_255_2_778
10
13.0827751
20
1.989311
40
1.1137627
50
310.1455405
51
315.9656146
0
ARC
8
DEFAULT_255_2_778
10
13.0294617
20
2.0301186
40
1.1794177
50
269.5029527
51
310.8472086
0
ARC
8
DEFAULT_255_2_778
10
13.0194735
20
2.2218846
40
1.3711394
50
267.3238003
51
269.989836
0
ARC
8
DEFAULT_255_2_778
10
12.9531365
20
2.1571788
40
0.9049439
50
269.7984306
51
269.9999348
0
ARC
8
DEFAULT_255_2_778
10
12.9614259
20
2.036322
40
0.7841309
50
269.3942141
51
295.1028894
0
ARC
8
DEFAULT_255_2_778
10
13.0760365
20
1.8221925
40
0.5417581
50
293.7340318
51
356.2797508
0
ARC
8
DEFAULT_255_2_778
10
13.0553707
20
1.8169475
40
0.5620784
50
356.9499758
51
359.9932817
0
ARC
8
DEFAULT_255_2_778
10
13.0706762
20
1.8098108
40
0.5468186
50
0.7409035
51
70.7986189
0
ARC
8
DEFAULT_255_2_778
10
12.9661378
20
1.5980377
40
0.7817327
50
68.6672812
51
86.9190916
0
ARC
8
DEFAULT_255_2_778
10
12.9529799
20
1.4475372
40
0.9327365
50
86.6088746
51
89.9881567
0
ARC
8
DEFAULT_255_2_778
10
12.9450112
20
1.5876503
40
0.7926655
50
89.4100602
51
114.2940409
0
ARC
8
DEFAULT_255_2_778
10
12.8253413
20
1.8167367
40
0.5348364
50
112.7059841
51
176.7733444
0
ARC
8
DEFAULT_255_2_778
10
12.8598781
20
1.8222769
40
0.5690556
50
177.5260241
51
179.9959224
0
ARC
8
DEFAULT_255_2_778
10
12.8482887
20
1.8303423
40
0.557524
50
180.8247359
51
252.3200733
0
ARC
8
DEFAULT_255_2_778
10
12.9474836
20
2.0441263
40
0.7918887
50
250.1790976
51
270.1569536
0
LINE
8
DEFAULT_255_2_778
10
22.3225529
20
2.4765405
11
22.3942529
21
2.7405405
0
LINE
8
DEFAULT_255_2_778
10
22.3942529
20
2.7405405
11
22.8710529
21
2.6313405
0
LINE
8
DEFAULT_255_2_778
10
22.8495529
20
0.9255405
11
22.3460529
21
0.8583405
0
LINE
8
DEFAULT_255_2_778
10
22.3460529
20
0.8583405
11
22.2825529
21
1.1313405
0
LINE
8
DEFAULT_255_2_778
10
22.2825529
20
1.1313405
11
21.9931529
21
0.9879405
0
LINE
8
DEFAULT_255_2_778
10
22.3222529
20
2.4765405
11
22.3225529
21
2.4765405
0
LINE
8
DEFAULT_255_2_778
10
21.5928529
20
1.2525405
11
21.5928529
21
1.2525405
0
LINE
8
DEFAULT_255_2_778
10
26.7974529
20
2.4765405
11
26.8696529
21
2.7405405
0
LINE
8
DEFAULT_255_2_778
10
26.8696529
20
2.7405405
11
27.3464529
21
2.6315405
0
LINE
8
DEFAULT_255_2_778
10
27.3250529
20
0.9258405
11
26.8215529
21
0.8585405
0
LINE
8
DEFAULT_255_2_778
10
26.8215529
20
0.8585405
11
26.7582529
21
1.1316405
0
LINE
8
DEFAULT_255_2_778
10
26.7582529
20
1.1316405
11
26.4688529
21
0.9882405
0
LINE
8
DEFAULT_255_2_778
10
26.7979529
20
2.4767405
11
26.7974529
21
2.4765405
0
LINE
8
DEFAULT_255_2_778
10
26.0677529
20
1.2525405
11
26.0677529
21
1.2525405
0
LINE
8
DEFAULT_255_2_778
10
6.4729529
20
1.1125405
11
6.2075529
21
0.9834405
0
LINE
8
DEFAULT_255_2_778
10
6.5353529
20
2.4759405
11
6.6351529
21
2.7405405
0
LINE
8
DEFAULT_255_2_778
10
6.6351529
20
2.7405405
11
7.1066529
21
2.6162405
0
LINE
8
DEFAULT_255_2_778
10
6.5684529
20
0.8641405
11
6.4731529
21
1.1125405
0
LINE
8
DEFAULT_255_2_778
10
6.4731529
20
1.1125405
11
6.4729529
21
1.1125405
0
LINE
8
DEFAULT_255_2_778
10
5.8077529
20
1.2501405
11
5.8075529
21
1.2501405
0
LINE
8
DEFAULT_255_2_778
10
12.9554529
20
0.8522405
11
12.9560529
21
0.8522405
0
LINE
8
DEFAULT_255_2_778
10
12.9496529
20
1.2522405
11
12.9499529
21
1.2522405
0
ARC
8
DEFAULT_255_2_778
10
13.4080517
20
2.2017099
40
1.6399961
50
8.239902
51
18.1085699
0
ARC
8
DEFAULT_255_2_778
10
15.9205165
20
1.5756249
40
1.1901652
50
95.5783799
51
117.1500469
0
ARC
8
DEFAULT_255_2_778
10
15.9056606
20
1.6594853
40
1.1052778
50
89.9952649
51
95.2344985
0
ARC
8
DEFAULT_255_2_778
10
15.9017653
20
1.5780658
40
1.186704
50
74.315164
51
89.8075167
0
ARC
8
DEFAULT_255_2_778
10
15.8664822
20
1.4307421
40
1.3380932
50
73.3527362
51
74.5660463
0
ARC
8
DEFAULT_255_2_778
10
16.1174036
20
2.2085927
40
0.5212574
50
42.9348445
51
75.2840016
0
ARC
8
DEFAULT_255_2_778
10
16.1497228
20
2.2663229
40
0.4587189
50
6.1813853
51
40.4045634
0
ARC
8
DEFAULT_255_2_778
10
15.979272
20
2.2304853
40
0.6322738
50
7.3023957
51
7.7470813
0
ARC
8
DEFAULT_255_2_778
10
16.4577092
20
75.333619
40
74.4194906
50
269.9926353
51
270.1402059
0
ARC
8
DEFAULT_255_2_778
10
16.4587423
20
162.0037981
40
161.0896695
50
269.9506522
51
269.9962303
0
ARC
8
DEFAULT_255_2_778
10
16.9478276
20
770.8131602
40
769.8992277
50
269.9487841
51
269.9532771
0
ARC
8
DEFAULT_255_2_778
10
16.0393275
20
-213.1752085
40
214.0895619
50
89.9410428
51
89.9918936
0
ARC
8
DEFAULT_255_2_778
10
15.4225052
20
1.9942731
40
0.6394859
50
2.4268334
51
17.3020807
0
ARC
8
DEFAULT_255_2_778
10
15.7825791
20
2.1055326
40
0.2626174
50
17.490658
51
86.1048344
0
ARC
8
DEFAULT_255_2_778
10
15.6627329
20
1.5302939
40
0.8484952
50
80.6612694
51
88.6436279
0
ARC
8
DEFAULT_255_2_778
10
15.6599132
20
1.6624413
40
0.7164761
50
88.1680511
51
89.9982205
0
ARC
8
DEFAULT_255_2_778
10
15.6670318
20
1.6270401
40
0.7519108
50
90.5407519
51
127.1862259
0
ARC
8
DEFAULT_255_2_778
10
15.8339256
20
1.3819048
40
1.048186
50
126.3552579
51
137.9799119
0
ARC
8
DEFAULT_255_2_778
10
18.9743933
20
0.9579715
40
4.4652688
50
179.9921408
51
180.532772
0
ARC
8
DEFAULT_255_2_778
10
21.5992696
20
0.9467029
40
7.090155
50
178.5781185
51
179.9039885
0
ARC
8
DEFAULT_255_2_778
10
41.3032375
20
0.463939
40
26.8000358
50
178.2237703
51
178.5916266
0
ARC
8
DEFAULT_255_2_778
10
-1.2945119
20
1.8032655
40
15.81877
50
358.1574178
51
359.1129302
0
ARC
8
DEFAULT_255_2_778
10
7.0706858
20
1.6583768
40
7.4523476
50
359.2310536
51
359.9830784
0
ARC
8
DEFAULT_255_2_778
10
10.034566
20
1.6764219
40
4.4885128
50
359.7415592
51
4.6585548
0
ARC
8
DEFAULT_255_2_778
10
12.1050251
20
1.863678
40
2.4097558
50
4.2191631
51
18.6742527
0
ARC
8
DEFAULT_255_2_778
10
23.3617206
20
11.8652668
40
9.5142171
50
269.4684569
51
269.9686668
0
ARC
8
DEFAULT_255_2_778
10
23.5139465
20
28.4645813
40
26.1142294
50
269.2909953
51
269.4723475
0
ARC
8
DEFAULT_255_2_778
10
22.9861567
20
-12.3468158
40
14.7005916
50
89.2023543
51
89.7572559
0
ARC
8
DEFAULT_255_2_778
10
23.0400875
20
-2.3579676
40
4.7116187
50
89.8984491
51
90.00085
0
ARC
8
DEFAULT_255_2_778
10
23.1051716
20
3.9686532
40
1.2707096
50
266.9435492
51
269.1525309
0
ARC
8
DEFAULT_255_2_778
10
23.1522803
20
6.6018075
40
3.904281
50
269.0328162
51
270.0668021
0
ARC
8
DEFAULT_255_2_778
10
23.1563865
20
9.2321235
40
6.5345945
50
270.0039094
51
270.2049724
0
ARC
8
DEFAULT_255_2_778
10
23.1427572
20
12.0564984
40
9.3590009
50
270.2265534
51
270.7485747
0
ARC
8
DEFAULT_255_2_778
10
23.1145436
20
14.4683651
40
11.7710307
50
270.7325163
51
270.8534345
0
ARC
8
DEFAULT_255_2_778
10
23.1135238
20
14.5541294
40
11.8568007
50
270.8521887
51
271.0508225
0
ARC
8
DEFAULT_255_2_778
10
23.1612153
20
11.9492508
40
9.2514856
50
271.0513685
51
271.1509479
0
ARC
8
DEFAULT_255_2_778
10
23.2617934
20
6.9608722
40
4.2620932
50
271.1461234
51
271.2237407
0
ARC
8
DEFAULT_255_2_778
10
26.2363473
20
2.1079897
40
2.3432155
50
174.4244753
51
174.5372041
0
ARC
8
DEFAULT_255_2_778
10
29.577507
20
1.7886103
40
5.6996051
50
174.5386879
51
174.7313985
0
ARC
8
DEFAULT_255_2_778
10
32.5204968
20
1.5167565
40
8.6551244
50
174.7283169
51
174.9650873
0
ARC
8
DEFAULT_255_2_778
10
34.3396264
20
1.3562124
40
10.4813245
50
174.963596
51
175.2712355
0
ARC
8
DEFAULT_255_2_778
10
34.98596
20
1.3022302
40
11.1299084
50
175.2685817
51
175.5659023
0
ARC
8
DEFAULT_255_2_778
10
34.8574067
20
1.3119077
40
11.0009916
50
175.564391
51
175.9067961
0
ARC
8
DEFAULT_255_2_778
10
34.0247492
20
1.3707952
40
10.1662546
50
175.9028675
51
176.4511007
0
ARC
8
DEFAULT_255_2_778
10
31.9055395
20
1.4983436
40
8.0432145
50
176.423489
51
177.6730658
0
ARC
8
DEFAULT_255_2_778
10
29.1593947
20
1.6088512
40
5.2948474
50
177.6613677
51
179.227034
0
ARC
8
DEFAULT_255_2_778
10
27.6278396
20
1.6331563
40
3.7631057
50
179.2824789
51
179.9883789
0
ARC
8
DEFAULT_255_2_778
10
26.3581618
20
1.6280564
40
2.4934347
50
179.8652728
51
182.567313
0
ARC
8
DEFAULT_255_2_778
10
25.1080819
20
1.5712415
40
1.2420649
50
182.5321181
51
186.230782
0
ARC
8
DEFAULT_255_2_778
10
24.4072989
20
1.4926523
40
0.5368959
50
186.0102511
51
192.6169316
0
ARC
8
DEFAULT_255_2_778
10
24.0513677
20
1.4106309
40
0.1716589
50
191.8511701
51
206.2387277
0
ARC
8
DEFAULT_255_2_778
10
23.9544609
20
1.3647495
40
0.0644748
50
207.7406062
51
217.2187864
0
ARC
8
DEFAULT_255_2_778
10
24.1543621
20
1.57349
40
0.3528432
50
224.5974635
51
251.365629
0
ARC
8
DEFAULT_255_2_778
10
24.1828082
20
1.6642614
40
0.44795
50
251.6277244
51
268.4878391
0
ARC
8
DEFAULT_255_2_778
10
24.1906984
20
1.7787137
40
0.5625917
50
267.9921496
51
270.0102906
0
ARC
8
DEFAULT_255_2_778
10
24.1800508
20
1.9990296
40
0.7829814
50
270.786571
51
284.8706764
0
ARC
8
DEFAULT_255_2_778
10
24.0817683
20
2.4146515
40
1.2099626
50
284.3178799
51
288.0095821
0
ARC
8
DEFAULT_255_2_778
10
23.9376928
20
2.8590405
40
1.6771233
50
287.9966733
51
290.0211924
0
ARC
8
DEFAULT_255_2_778
10
23.7590416
20
3.3579547
40
2.2070525
50
289.9444139
51
290.012025
0
ARC
8
DEFAULT_255_2_778
10
23.6178918
20
3.7454286
40
2.619435
50
290.0126161
51
290.0700084
0
ARC
8
DEFAULT_255_2_778
10
23.6755607
20
3.5878903
40
2.4516734
50
290.06756
51
290.1272205
0
ARC
8
DEFAULT_255_2_778
10
23.5574873
20
3.9098546
40
2.7946053
50
290.1287153
51
290.1788172
0
ARC
8
DEFAULT_255_2_778
10
23.7215784
20
3.4641287
40
2.3196346
50
290.1722578
51
290.2300433
0
ARC
8
DEFAULT_255_2_778
10
23.5741213
20
3.8655525
40
2.7472845
50
290.2207054
51
290.2674186
0
ARC
8
DEFAULT_255_2_778
10
23.50858
20
4.0439633
40
2.9373528
50
290.261206
51
290.3030408
0
ARC
8
DEFAULT_255_2_778
10
23.0993639
20
5.1506414
40
4.1172656
50
290.3001256
51
290.3287069
0
ARC
8
DEFAULT_255_2_778
10
23.640046
20
3.6913986
40
2.5610756
50
290.327438
51
290.3714442
0
ARC
8
DEFAULT_255_2_778
10
26.0562107
20
-2.7714747
40
4.3386867
50
110.0592806
51
110.5733539
0
ARC
8
DEFAULT_255_2_778
10
24.7375441
20
0.8341695
40
0.4994787
50
108.7105618
51
109.8337411
0
ARC
8
DEFAULT_255_2_778
10
23.9707715
20
2.7898941
40
1.9276961
50
270.889673
51
288.2394027
0
ARC
8
DEFAULT_255_2_778
10
23.9974338
20
2.2482313
40
1.3858048
50
256.4231786
51
270.1351694
0
ARC
8
DEFAULT_255_2_778
10
23.7946656
20
1.4702265
40
0.5821209
50
240.14967
51
257.8471766
0
ARC
8
DEFAULT_255_2_778
10
23.6697881
20
1.2339397
40
0.3151638
50
183.0624925
51
238.4589641
0
ARC
8
DEFAULT_255_2_778
10
24.1196623
20
1.3112844
40
0.7703667
50
180.4338461
51
187.0223525
0
LINE
8
DEFAULT_255_2_778
10
15.0311176
20
2.4367512
11
15.3774176
21
2.6346512
0
LINE
8
DEFAULT_255_2_778
10
16.6064176
20
2.3108512
11
16.6374176
21
2.0142512
0
LINE
8
DEFAULT_255_2_778
10
16.6374176
20
2.0142512
11
16.6398176
21
0.9143512
0
LINE
8
DEFAULT_255_2_778
10
16.0696176
20
0.9143512
11
16.0614176
21
2.0213512
0
LINE
8
DEFAULT_255_2_778
10
15.0552176
20
2.0835512
11
15.0552176
21
0.9164512
0
LINE
8
DEFAULT_255_2_778
10
15.0552176
20
0.9164512
11
14.5093176
21
0.9164512
0
LINE
8
DEFAULT_255_2_778
10
14.3879176
20
2.6352512
11
14.9671176
21
2.7114512
0
LINE
8
DEFAULT_255_2_778
10
14.9671176
20
2.7114512
11
14.9668176
21
2.7114512
0
LINE
8
DEFAULT_255_2_778
10
23.0400176
20
2.3536512
11
23.0374176
21
2.6997512
0
LINE
8
DEFAULT_255_2_778
10
23.3528176
20
2.6997512
11
23.3451176
21
3.3445512
0
LINE
8
DEFAULT_255_2_778
10
23.3451176
20
3.3445512
11
23.9653176
21
3.3379512
0
LINE
8
DEFAULT_255_2_778
10
23.9653176
20
3.3379512
11
23.9216176
21
2.7190512
0
LINE
8
DEFAULT_255_2_778
10
23.9216176
20
2.7190512
11
24.5548176
21
2.7203512
0
LINE
8
DEFAULT_255_2_778
10
24.5548176
20
2.7203512
11
24.5548176
21
2.3356512
0
LINE
8
DEFAULT_255_2_778
10
24.5548176
20
2.3356512
11
23.9042176
21
2.3356512
0
LINE
8
DEFAULT_255_2_778
10
24.5773176
20
1.3072512
11
24.5741176
21
0.9590512
0
LINE
8
DEFAULT_255_2_778
10
23.3493176
20
1.3054512
11
23.3554176
21
2.0531512
0
LINE
8
DEFAULT_255_2_778
10
23.3554176
20
2.0531512
11
23.3554176
21
2.3502512
0
LINE
8
DEFAULT_255_2_778
10
23.3554176
20
2.3502512
11
23.3565176
21
2.3510512
0
ARC
8
DEFAULT_255_2_778
10
-45.7453302
20
127.1676573
40
135.7350937
50
293.3297558
51
293.3795918
0
ARC
8
DEFAULT_255_2_778
10
8.7724676
20
1.2237653
40
1.5034936
50
95.8905025
51
115.8380613
0
ARC
8
DEFAULT_255_2_778
10
8.663842
20
1.9057153
40
0.8148859
50
90.0158699
51
93.2131171
0
ARC
8
DEFAULT_255_2_778
10
8.66538
20
1.9824074
40
0.7381958
50
76.2365668
51
90.1368872
0
ARC
8
DEFAULT_255_2_778
10
8.6671328
20
1.993614
40
0.7268946
50
75.6888814
51
76.1606098
0
ARC
8
DEFAULT_255_2_778
10
8.5059765
20
1.1198796
40
1.1503365
50
93.082835
51
101.3193229
0
ARC
8
DEFAULT_255_2_778
10
8.3322508
20
1.9362418
40
0.3159174
50
99.4848082
51
128.8568714
0
ARC
8
DEFAULT_255_2_778
10
8.3123372
20
1.9949658
40
0.2585763
50
133.5897027
51
171.955203
0
ARC
8
DEFAULT_255_2_778
10
8.9176749
20
1.8759723
40
0.8752361
50
169.7873866
51
180.4036072
0
ARC
8
DEFAULT_255_2_778
10
9.6975437
20
1.8536079
40
1.6551625
50
179.4392397
51
179.6523293
0
ARC
8
DEFAULT_255_2_778
10
9.6420031
20
1.0620917
40
2.1484671
50
181.7575621
51
183.9778347
0
ARC
8
DEFAULT_255_2_778
10
10.8733719
20
1.1011058
40
3.3804535
50
180.3142599
51
181.7783934
0
ARC
8
DEFAULT_255_2_778
10
12.1661041
20
1.1121765
40
4.6732286
50
179.9947787
51
180.3630586
0
ARC
8
DEFAULT_255_2_778
10
14.9286931
20
1.1034189
40
7.4358234
50
178.957901
51
179.9292376
0
ARC
8
DEFAULT_255_2_778
10
35.6149973
20
0.7280479
40
28.125533
50
178.6589442
51
178.9597632
0
ARC
8
DEFAULT_255_2_778
10
-127.0488055
20
4.3959697
40
134.5796311
50
358.7185554
51
358.7206436
0
ARC
8
DEFAULT_255_2_778
10
-16.4100161
20
1.9452678
40
23.9137133
50
358.6723527
51
359.0347642
0
ARC
8
DEFAULT_255_2_778
10
-2.2788249
20
1.7066268
40
9.7805073
50
359.0380253
51
359.9575058
0
ARC
8
DEFAULT_255_2_778
10
2.2015066
20
1.7169551
40
5.300202
50
359.8099349
51
3.5088104
0
ARC
8
DEFAULT_255_2_778
10
3.6285414
20
1.7914298
40
3.8713062
50
3.7012472
51
4.4342483
0
ARC
8
DEFAULT_255_2_778
10
4.9785054
20
1.9295297
40
2.5149265
50
3.6752559
51
17.0759703
0
ARC
8
DEFAULT_255_2_778
10
5.6813223
20
2.1175617
40
1.7880772
50
17.9293742
51
18.2239765
0
LINE
8
DEFAULT_255_2_778
10
7.3794118
20
2.6767514
11
7.9395118
21
2.7455514
0
LINE
8
DEFAULT_255_2_778
10
7.9395118
20
2.7455514
11
8.0088118
21
2.5301514
0
LINE
8
DEFAULT_255_2_778
10
8.8468118
20
2.6979514
11
8.8420118
21
2.2909514
0
LINE
8
DEFAULT_255_2_778
10
8.8420118
20
2.2909514
11
8.4441118
21
2.2685514
0
LINE
8
DEFAULT_255_2_778
10
8.0424118
20
1.8636514
11
8.0530118
21
1.1411514
0
LINE
8
DEFAULT_255_2_778
10
8.0530118
20
1.1411514
11
8.0628118
21
0.9154514
0
LINE
8
DEFAULT_255_2_778
10
8.0628118
20
0.9154514
11
7.4987118
21
0.9130514
0
LINE
8
DEFAULT_255_2_778
10
7.3797118
20
2.6767514
11
7.3794118
21
2.6767514
0
LINE
8
DEFAULT_255_2_778
10
3.8680813
20
4.0251187
11
4.4048813
21
4.0251187
0
LINE
8
DEFAULT_255_2_778
10
4.4048813
20
4.0251187
11
4.4048813
21
3.4883187
0
LINE
8
DEFAULT_255_2_778
10
4.4048813
20
3.4883187
11
3.8680813
21
3.4883187
0
LINE
8
DEFAULT_255_2_778
10
3.8680813
20
3.4883187
11
3.8680813
21
4.0251187
0
LINE
8
DEFAULT_255_2_778
10
4.4051816
20
3.9799187
11
4.4051816
21
4.0251187
0
LINE
8
DEFAULT_255_2_778
10
4.4051816
20
4.0251187
11
3.8675816
21
4.0251187
0
LINE
8
DEFAULT_255_2_778
10
3.8675816
20
4.0251187
11
3.8675816
21
3.4883187
0
LINE
8
DEFAULT_255_2_778
10
3.8675816
20
3.4883187
11
3.9127816
21
3.4883187
0
LINE
8
DEFAULT_255_2_778
10
3.9127816
20
3.4883187
11
3.9127816
21
3.9804187
0
LINE
8
DEFAULT_255_2_778
10
3.9127816
20
3.9804187
11
4.4051816
21
3.9799187
0
LINE
8
DEFAULT_255_2_778
10
4.3594556
20
3.533462
11
4.3594556
21
3.990962
0
LINE
8
DEFAULT_255_2_778
10
4.3594556
20
3.990962
11
4.3141556
21
3.990962
0
LINE
8
DEFAULT_255_2_778
10
4.3141556
20
3.990962
11
4.3141556
21
3.578762
0
LINE
8
DEFAULT_255_2_778
10
4.3141556
20
3.578762
11
3.9133556
21
3.578762
0
LINE
8
DEFAULT_255_2_778
10
3.9133556
20
3.578762
11
3.9133556
21
3.533262
0
LINE
8
DEFAULT_255_2_778
10
3.9133556
20
3.533262
11
4.3594556
21
3.533462
0
LINE
8
DEFAULT_255_2_778
10
4.3596597
20
3.9454288
11
4.3596597
21
3.9909288
0
LINE
8
DEFAULT_255_2_778
10
4.3596597
20
3.9909288
11
3.9135597
21
3.9909288
0
LINE
8
DEFAULT_255_2_778
10
3.9135597
20
3.9909288
11
3.9135597
21
3.5334288
0
LINE
8
DEFAULT_255_2_778
10
3.9135597
20
3.5334288
11
3.9590597
21
3.5334288
0
LINE
8
DEFAULT_255_2_778
10
3.9590597
20
3.5334288
11
3.9590597
21
3.9454288
0
LINE
8
DEFAULT_255_2_778
10
3.9590597
20
3.9454288
11
4.3596597
21
3.9454288
0
LINE
8
DEFAULT_255_2_778
10
4.4048816
20
3.4882811
11
4.4048816
21
4.0250811
0
LINE
8
DEFAULT_255_2_778
10
4.4048816
20
4.0250811
11
4.3593816
21
4.0250811
0
LINE
8
DEFAULT_255_2_778
10
4.3593816
20
4.0250811
11
4.3593816
21
3.5329811
0
LINE
8
DEFAULT_255_2_778
10
4.3593816
20
3.5329811
11
3.8672816
21
3.5329811
0
LINE
8
DEFAULT_255_2_778
10
3.8672816
20
3.5329811
11
3.8672816
21
3.4876811
0
LINE
8
DEFAULT_255_2_778
10
3.8672816
20
3.4876811
11
4.4048816
21
3.4882811
0
LINE
8
DEFAULT_255_2_778
10
3.3349813
20
4.5582187
11
3.8717813
21
4.5582187
0
LINE
8
DEFAULT_255_2_778
10
3.8717813
20
4.5582187
11
3.8717813
21
4.0214187
0
LINE
8
DEFAULT_255_2_778
10
3.8717813
20
4.0214187
11
3.3349813
21
4.0214187
0
LINE
8
DEFAULT_255_2_778
10
3.3349813
20
4.0214187
11
3.3349813
21
4.5582187
0
LINE
8
DEFAULT_255_2_778
10
3.8717813
20
4.5127187
11
3.8717813
21
4.5582187
0
LINE
8
DEFAULT_255_2_778
10
3.8717813
20
4.5582187
11
3.3349813
21
4.5582187
0
LINE
8
DEFAULT_255_2_778
10
3.3349813
20
4.5582187
11
3.3349813
21
4.0214187
0
LINE
8
DEFAULT_255_2_778
10
3.3349813
20
4.0214187
11
3.3801813
21
4.0214187
0
LINE
8
DEFAULT_255_2_778
10
3.3801813
20
4.0214187
11
3.3801813
21
4.5135187
0
LINE
8
DEFAULT_255_2_778
10
3.3801813
20
4.5135187
11
3.8717813
21
4.5127187
0
LINE
8
DEFAULT_255_2_778
10
3.8266224
20
4.0666328
11
3.8266224
21
4.5241328
0
LINE
8
DEFAULT_255_2_778
10
3.8266224
20
4.5241328
11
3.7810224
21
4.5241328
0
LINE
8
DEFAULT_255_2_778
10
3.7810224
20
4.5241328
11
3.7810224
21
4.1119328
0
LINE
8
DEFAULT_255_2_778
10
3.7810224
20
4.1119328
11
3.3802224
21
4.1119328
0
LINE
8
DEFAULT_255_2_778
10
3.3802224
20
4.1119328
11
3.3802224
21
4.0666328
0
LINE
8
DEFAULT_255_2_778
10
3.3802224
20
4.0666328
11
3.8266224
21
4.0666328
0
LINE
8
DEFAULT_255_2_778
10
3.8268224
20
4.4786328
11
3.8268224
21
4.5241328
0
LINE
8
DEFAULT_255_2_778
10
3.8268224
20
4.5241328
11
3.3804224
21
4.5241328
0
LINE
8
DEFAULT_255_2_778
10
3.3804224
20
4.5241328
11
3.3804224
21
4.0666328
0
LINE
8
DEFAULT_255_2_778
10
3.3804224
20
4.0666328
11
3.4259224
21
4.0666328
0
LINE
8
DEFAULT_255_2_778
10
3.4259224
20
4.0666328
11
3.4259224
21
4.4789328
0
LINE
8
DEFAULT_255_2_778
10
3.4259224
20
4.4789328
11
3.8268224
21
4.4786328
0
LINE
8
DEFAULT_255_2_778
10
3.8718149
20
4.0213851
11
3.8718149
21
4.5581851
0
LINE
8
DEFAULT_255_2_778
10
3.8718149
20
4.5581851
11
3.8265149
21
4.5581851
0
LINE
8
DEFAULT_255_2_778
10
3.8265149
20
4.5581851
11
3.8265149
21
4.0660851
0
LINE
8
DEFAULT_255_2_778
10
3.8265149
20
4.0660851
11
3.3344149
21
4.0660851
0
LINE
8
DEFAULT_255_2_778
10
3.3344149
20
4.0660851
11
3.3344149
21
4.0207851
0
LINE
8
DEFAULT_255_2_778
10
3.3344149
20
4.0207851
11
3.8718149
21
4.0213851
0
LINE
8
DEFAULT_255_2_778
10
1.7582813
20
4.5582187
11
2.2950813
21
4.5582187
0
LINE
8
DEFAULT_255_2_778
10
2.2950813
20
4.5582187
11
2.2950813
21
4.0214187
0
LINE
8
DEFAULT_255_2_778
10
2.2950813
20
4.0214187
11
1.7582813
21
4.0214187
0
LINE
8
DEFAULT_255_2_778
10
1.7582813
20
4.0214187
11
1.7582813
21
4.5582187
0
LINE
8
DEFAULT_255_2_778
10
2.2950813
20
4.5127187
11
2.2950813
21
4.5582187
0
LINE
8
DEFAULT_255_2_778
10
2.2950813
20
4.5582187
11
1.7582813
21
4.5582187
0
LINE
8
DEFAULT_255_2_778
10
1.7582813
20
4.5582187
11
1.7582813
21
4.0214187
0
LINE
8
DEFAULT_255_2_778
10
1.7582813
20
4.0214187
11
1.8034813
21
4.0214187
0
LINE
8
DEFAULT_255_2_778
10
1.8034813
20
4.0214187
11
1.8034813
21
4.5135187
0
LINE
8
DEFAULT_255_2_778
10
1.8034813
20
4.5135187
11
2.2950813
21
4.5127187
0
LINE
8
DEFAULT_255_2_778
10
2.2496556
20
4.0666328
11
2.2496556
21
4.5241328
0
LINE
8
DEFAULT_255_2_778
10
2.2496556
20
4.5241328
11
2.2043556
21
4.5241328
0
LINE
8
DEFAULT_255_2_778
10
2.2043556
20
4.5241328
11
2.2043556
21
4.1119328
0
LINE
8
DEFAULT_255_2_778
10
2.2043556
20
4.1119328
11
1.8035556
21
4.1119328
0
LINE
8
DEFAULT_255_2_778
10
1.8035556
20
4.1119328
11
1.8035556
21
4.0666328
0
LINE
8
DEFAULT_255_2_778
10
1.8035556
20
4.0666328
11
2.2496556
21
4.0666328
0
LINE
8
DEFAULT_255_2_778
10
2.2498597
20
4.4786328
11
2.2498597
21
4.5241328
0
LINE
8
DEFAULT_255_2_778
10
2.2498597
20
4.5241328
11
1.8037597
21
4.5241328
0
LINE
8
DEFAULT_255_2_778
10
1.8037597
20
4.5241328
11
1.8037597
21
4.0666328
0
LINE
8
DEFAULT_255_2_778
10
1.8037597
20
4.0666328
11
1.8492597
21
4.0666328
0
LINE
8
DEFAULT_255_2_778
10
1.8492597
20
4.0666328
11
1.8492597
21
4.4789328
0
LINE
8
DEFAULT_255_2_778
10
1.8492597
20
4.4789328
11
2.2498597
21
4.4786328
0
LINE
8
DEFAULT_255_2_778
10
2.2950816
20
4.0213851
11
2.2950816
21
4.5581851
0
LINE
8
DEFAULT_255_2_778
10
2.2950816
20
4.5581851
11
2.2495816
21
4.5581851
0
LINE
8
DEFAULT_255_2_778
10
2.2495816
20
4.5581851
11
2.2495816
21
4.0660851
0
LINE
8
DEFAULT_255_2_778
10
2.2495816
20
4.0660851
11
1.7574816
21
4.0660851
0
LINE
8
DEFAULT_255_2_778
10
1.7574816
20
4.0660851
11
1.7574816
21
4.0207851
0
LINE
8
DEFAULT_255_2_778
10
1.7574816
20
4.0207851
11
2.2950816
21
4.0213851
0
LINE
8
DEFAULT_255_2_778
10
1.7582813
20
3.4919184
11
2.2950813
21
3.4919184
0
LINE
8
DEFAULT_255_2_778
10
2.2950813
20
3.4919184
11
2.2950813
21
2.9543184
0
LINE
8
DEFAULT_255_2_778
10
2.2950813
20
2.9543184
11
1.7582813
21
2.9543184
0
LINE
8
DEFAULT_255_2_778
10
1.7582813
20
2.9543184
11
1.7582813
21
3.4919184
0
LINE
8
DEFAULT_255_2_778
10
2.2950813
20
3.4467187
11
2.2950813
21
3.4919187
0
LINE
8
DEFAULT_255_2_778
10
2.2950813
20
3.4919187
11
1.7582813
21
3.4919187
0
LINE
8
DEFAULT_255_2_778
10
1.7582813
20
3.4919187
11
1.7582813
21
2.9551187
0
LINE
8
DEFAULT_255_2_778
10
1.7582813
20
2.9551187
11
1.8034813
21
2.9551187
0
LINE
8
DEFAULT_255_2_778
10
1.8034813
20
2.9551187
11
1.8034813
21
3.4472187
0
LINE
8
DEFAULT_255_2_778
10
1.8034813
20
3.4472187
11
2.2950813
21
3.4467187
0
LINE
8
DEFAULT_255_2_778
10
2.2496556
20
3.0003328
11
2.2496556
21
3.4578328
0
LINE
8
DEFAULT_255_2_778
10
2.2496556
20
3.4578328
11
2.2043556
21
3.4578328
0
LINE
8
DEFAULT_255_2_778
10
2.2043556
20
3.4578328
11
2.2043556
21
3.0456328
0
LINE
8
DEFAULT_255_2_778
10
2.2043556
20
3.0456328
11
1.8035556
21
3.0456328
0
LINE
8
DEFAULT_255_2_778
10
1.8035556
20
3.0456328
11
1.8035556
21
3.0003328
0
LINE
8
DEFAULT_255_2_778
10
1.8035556
20
3.0003328
11
2.2496556
21
3.0003328
0
LINE
8
DEFAULT_255_2_778
10
2.2498597
20
3.4126328
11
2.2498597
21
3.4578328
0
LINE
8
DEFAULT_255_2_778
10
2.2498597
20
3.4578328
11
1.8037597
21
3.4578328
0
LINE
8
DEFAULT_255_2_778
10
1.8037597
20
3.4578328
11
1.8037597
21
3.0003328
0
LINE
8
DEFAULT_255_2_778
10
1.8037597
20
3.0003328
11
1.8492597
21
3.0003328
0
LINE
8
DEFAULT_255_2_778
10
1.8492597
20
3.0003328
11
1.8492597
21
3.4126328
0
LINE
8
DEFAULT_255_2_778
10
1.8492597
20
3.4126328
11
2.2498597
21
3.4126328
0
LINE
8
DEFAULT_255_2_778
10
2.2950816
20
2.9543184
11
2.2950816
21
3.4911184
0
LINE
8
DEFAULT_255_2_778
10
2.2950816
20
3.4911184
11
2.2495816
21
3.4911184
0
LINE
8
DEFAULT_255_2_778
10
2.2495816
20
3.4911184
11
2.2495816
21
2.9990184
0
LINE
8
DEFAULT_255_2_778
10
2.2495816
20
2.9990184
11
1.7574816
21
2.9990184
0
LINE
8
DEFAULT_255_2_778
10
1.7574816
20
2.9990184
11
1.7574816
21
2.9535184
0
LINE
8
DEFAULT_255_2_778
10
1.7574816
20
2.9535184
11
2.2950816
21
2.9543184
0
LINE
8
DEFAULT_255_2_778
10
0.6919773
20
3.4919184
11
1.2287773
21
3.4919184
0
LINE
8
DEFAULT_255_2_778
10
1.2287773
20
3.4919184
11
1.2287773
21
2.9543184
0
LINE
8
DEFAULT_255_2_778
10
1.2287773
20
2.9543184
11
0.6919773
21
2.9543184
0
LINE
8
DEFAULT_255_2_778
10
0.6919773
20
2.9543184
11
0.6919773
21
3.4919184
0
LINE
8
DEFAULT_255_2_778
10
1.2282813
20
3.4467187
11
1.2282813
21
3.4919187
0
LINE
8
DEFAULT_255_2_778
10
1.2282813
20
3.4919187
11
0.6914813
21
3.4919187
0
LINE
8
DEFAULT_255_2_778
10
0.6914813
20
3.4919187
11
0.6914813
21
2.9551187
0
LINE
8
DEFAULT_255_2_778
10
0.6914813
20
2.9551187
11
0.7369813
21
2.9551187
0
LINE
8
DEFAULT_255_2_778
10
0.7369813
20
2.9551187
11
0.7369813
21
3.4472187
0
LINE
8
DEFAULT_255_2_778
10
0.7369813
20
3.4472187
11
1.2282813
21
3.4467187
0
LINE
8
DEFAULT_255_2_778
10
1.1836597
20
3.0003328
11
1.1836597
21
3.4578328
0
LINE
8
DEFAULT_255_2_778
10
1.1836597
20
3.4578328
11
1.1381597
21
3.4578328
0
LINE
8
DEFAULT_255_2_778
10
1.1381597
20
3.4578328
11
1.1381597
21
3.0456328
0
LINE
8
DEFAULT_255_2_778
10
1.1381597
20
3.0456328
11
0.7375597
21
3.0456328
0
LINE
8
DEFAULT_255_2_778
10
0.7375597
20
3.0456328
11
0.7375597
21
3.0003328
0
LINE
8
DEFAULT_255_2_778
10
0.7375597
20
3.0003328
11
1.1836597
21
3.0003328
0
LINE
8
DEFAULT_255_2_778
10
1.1836597
20
3.4126328
11
1.1836597
21
3.4578328
0
LINE
8
DEFAULT_255_2_778
10
1.1836597
20
3.4578328
11
0.7375597
21
3.4578328
0
LINE
8
DEFAULT_255_2_778
10
0.7375597
20
3.4578328
11
0.7375597
21
3.0003328
0
LINE
8
DEFAULT_255_2_778
10
0.7375597
20
3.0003328
11
0.7827597
21
3.0003328
0
LINE
8
DEFAULT_255_2_778
10
0.7827597
20
3.0003328
11
0.7827597
21
3.4126328
0
LINE
8
DEFAULT_255_2_778
10
0.7827597
20
3.4126328
11
1.1836597
21
3.4126328
0
LINE
8
DEFAULT_255_2_778
10
1.2286149
20
2.9543184
11
1.2286149
21
3.4911184
0
LINE
8
DEFAULT_255_2_778
10
1.2286149
20
3.4911184
11
1.1833149
21
3.4911184
0
LINE
8
DEFAULT_255_2_778
10
1.1833149
20
3.4911184
11
1.1833149
21
2.9990184
0
LINE
8
DEFAULT_255_2_778
10
1.1833149
20
2.9990184
11
0.6912149
21
2.9990184
0
LINE
8
DEFAULT_255_2_778
10
0.6912149
20
2.9990184
11
0.6912149
21
2.9535184
0
LINE
8
DEFAULT_255_2_778
10
0.6912149
20
2.9535184
11
1.2286149
21
2.9543184
0
LINE
8
DEFAULT_255_2_778
10
0.1702813
20
2.4257187
11
0.7070813
21
2.4257187
0
LINE
8
DEFAULT_255_2_778
10
0.7070813
20
2.4257187
11
0.7070813
21
1.8889187
0
LINE
8
DEFAULT_255_2_778
10
0.7070813
20
1.8889187
11
0.1702813
21
1.8889187
0
LINE
8
DEFAULT_255_2_778
10
0.1702813
20
1.8889187
11
0.1702813
21
2.4257187
0
LINE
8
DEFAULT_255_2_778
10
0.7072813
20
2.3805187
11
0.7072813
21
2.4257187
0
LINE
8
DEFAULT_255_2_778
10
0.7072813
20
2.4257187
11
0.1704813
21
2.4257187
0
LINE
8
DEFAULT_255_2_778
10
0.1704813
20
2.4257187
11
0.1704813
21
1.8889187
0
LINE
8
DEFAULT_255_2_778
10
0.1704813
20
1.8889187
11
0.2156813
21
1.8889187
0
LINE
8
DEFAULT_255_2_778
10
0.2156813
20
1.8889187
11
0.2156813
21
2.3810187
0
LINE
8
DEFAULT_255_2_778
10
0.2156813
20
2.3810187
11
0.7072813
21
2.3805187
0
LINE
8
DEFAULT_255_2_778
10
0.6623597
20
1.9340328
11
0.6623597
21
2.3915328
0
LINE
8
DEFAULT_255_2_778
10
0.6623597
20
2.3915328
11
0.6168597
21
2.3915328
0
LINE
8
DEFAULT_255_2_778
10
0.6168597
20
2.3915328
11
0.6168597
21
1.9793328
0
LINE
8
DEFAULT_255_2_778
10
0.6168597
20
1.9793328
11
0.2162597
21
1.9793328
0
LINE
8
DEFAULT_255_2_778
10
0.2162597
20
1.9793328
11
0.2162597
21
1.9340328
0
LINE
8
DEFAULT_255_2_778
10
0.2162597
20
1.9340328
11
0.6623597
21
1.9340328
0
LINE
8
DEFAULT_255_2_778
10
0.6618556
20
2.3463328
11
0.6618556
21
2.3918328
0
LINE
8
DEFAULT_255_2_778
10
0.6618556
20
2.3918328
11
0.2157556
21
2.3918328
0
LINE
8
DEFAULT_255_2_778
10
0.2157556
20
2.3918328
11
0.2157556
21
1.9343328
0
LINE
8
DEFAULT_255_2_778
10
0.2157556
20
1.9343328
11
0.2612556
21
1.9343328
0
LINE
8
DEFAULT_255_2_778
10
0.2612556
20
1.9343328
11
0.2612556
21
2.3466328
0
LINE
8
DEFAULT_255_2_778
10
0.2612556
20
2.3466328
11
0.6618556
21
2.3463328
0
LINE
8
DEFAULT_255_2_778
10
0.7070813
20
1.8889184
11
0.7070813
21
2.4257184
0
LINE
8
DEFAULT_255_2_778
10
0.7070813
20
2.4257184
11
0.6623813
21
2.4257184
0
LINE
8
DEFAULT_255_2_778
10
0.6623813
20
2.4257184
11
0.6623813
21
1.9336184
0
LINE
8
DEFAULT_255_2_778
10
0.6623813
20
1.9336184
11
0.1702813
21
1.9336184
0
LINE
8
DEFAULT_255_2_778
10
0.1702813
20
1.9336184
11
0.1702813
21
1.8881184
0
LINE
8
DEFAULT_255_2_778
10
0.1702813
20
1.8881184
11
0.7070813
21
1.8889184
0
LINE
8
DEFAULT_255_2_778
10
3.9019813
20
0.8257187
11
4.4387813
21
0.8257187
0
LINE
8
DEFAULT_255_2_778
10
4.4387813
20
0.8257187
11
4.4387813
21
0.2889187
0
LINE
8
DEFAULT_255_2_778
10
4.4387813
20
0.2889187
11
3.9019813
21
0.2889187
0
LINE
8
DEFAULT_255_2_778
10
3.9019813
20
0.2889187
11
3.9019813
21
0.8257187
0
LINE
8
DEFAULT_255_2_778
10
4.4395813
20
0.7808187
11
4.4395813
21
0.8263187
0
LINE
8
DEFAULT_255_2_778
10
4.4395813
20
0.8263187
11
3.9027813
21
0.8263187
0
LINE
8
DEFAULT_255_2_778
10
3.9027813
20
0.8263187
11
3.9027813
21
0.2895187
0
LINE
8
DEFAULT_255_2_778
10
3.9027813
20
0.2895187
11
3.9479813
21
0.2895187
0
LINE
8
DEFAULT_255_2_778
10
3.9479813
20
0.2895187
11
3.9479813
21
0.7816187
0
LINE
8
DEFAULT_255_2_778
10
3.9479813
20
0.7816187
11
4.4395813
21
0.7808187
0
LINE
8
DEFAULT_255_2_778
10
4.3935556
20
0.3346328
11
4.3935556
21
0.7921328
0
LINE
8
DEFAULT_255_2_778
10
4.3935556
20
0.7921328
11
4.3482556
21
0.7921328
0
LINE
8
DEFAULT_255_2_778
10
4.3482556
20
0.7921328
11
4.3482556
21
0.3801328
0
LINE
8
DEFAULT_255_2_778
10
4.3482556
20
0.3801328
11
3.9474556
21
0.3801328
0
LINE
8
DEFAULT_255_2_778
10
3.9474556
20
0.3801328
11
3.9474556
21
0.3346328
0
LINE
8
DEFAULT_255_2_778
10
3.9474556
20
0.3346328
11
4.3935556
21
0.3346328
0
LINE
8
DEFAULT_255_2_778
10
4.3935556
20
0.7469328
11
4.3935556
21
0.7924328
0
LINE
8
DEFAULT_255_2_778
10
4.3935556
20
0.7924328
11
3.9474556
21
0.7924328
0
LINE
8
DEFAULT_255_2_778
10
3.9474556
20
0.7924328
11
3.9474556
21
0.3349328
0
LINE
8
DEFAULT_255_2_778
10
3.9474556
20
0.3349328
11
3.9929556
21
0.3349328
0
LINE
8
DEFAULT_255_2_778
10
3.9929556
20
0.3349328
11
3.9929556
21
0.7472328
0
LINE
8
DEFAULT_255_2_778
10
3.9929556
20
0.7472328
11
4.3935556
21
0.7469328
0
LINE
8
DEFAULT_255_2_778
10
4.4391149
20
0.2894851
11
4.4391149
21
0.8257851
0
LINE
8
DEFAULT_255_2_778
10
4.4391149
20
0.8257851
11
4.3938149
21
0.8257851
0
LINE
8
DEFAULT_255_2_778
10
4.3938149
20
0.8257851
11
4.3938149
21
0.3336851
0
LINE
8
DEFAULT_255_2_778
10
4.3938149
20
0.3336851
11
3.9017149
21
0.3336851
0
LINE
8
DEFAULT_255_2_778
10
3.9017149
20
0.3336851
11
3.9017149
21
0.2883851
0
LINE
8
DEFAULT_255_2_778
10
3.9017149
20
0.2883851
11
4.4391149
21
0.2894851
0
LINE
8
DEFAULT_255_2_778
10
0.1702813
20
1.8925187
11
0.7070813
21
1.8925187
0
LINE
8
DEFAULT_255_2_778
10
0.7070813
20
1.8925187
11
0.7070813
21
1.3557187
0
LINE
8
DEFAULT_255_2_778
10
0.7070813
20
1.3557187
11
0.1702813
21
1.3557187
0
LINE
8
DEFAULT_255_2_778
10
0.1702813
20
1.3557187
11
0.1702813
21
1.8925187
0
LINE
8
DEFAULT_255_2_778
10
0.7072813
20
1.8470187
11
0.7072813
21
1.8925187
0
LINE
8
DEFAULT_255_2_778
10
0.7072813
20
1.8925187
11
0.1704813
21
1.8925187
0
LINE
8
DEFAULT_255_2_778
10
0.1704813
20
1.8925187
11
0.1704813
21
1.3557187
0
LINE
8
DEFAULT_255_2_778
10
0.1704813
20
1.3557187
11
0.2156813
21
1.3557187
0
LINE
8
DEFAULT_255_2_778
10
0.2156813
20
1.3557187
11
0.2156813
21
1.8478187
0
LINE
8
DEFAULT_255_2_778
10
0.2156813
20
1.8478187
11
0.7072813
21
1.8470187
0
LINE
8
DEFAULT_255_2_778
10
0.6623597
20
1.4009328
11
0.6623597
21
1.8584328
0
LINE
8
DEFAULT_255_2_778
10
0.6623597
20
1.8584328
11
0.6168597
21
1.8584328
0
LINE
8
DEFAULT_255_2_778
10
0.6168597
20
1.8584328
11
0.6168597
21
1.4465328
0
LINE
8
DEFAULT_255_2_778
10
0.6168597
20
1.4465328
11
0.2162597
21
1.4465328
0
LINE
8
DEFAULT_255_2_778
10
0.2162597
20
1.4465328
11
0.2162597
21
1.4009328
0
LINE
8
DEFAULT_255_2_778
10
0.2162597
20
1.4009328
11
0.6623597
21
1.4009328
0
LINE
8
DEFAULT_255_2_778
10
0.6618556
20
1.8132328
11
0.6618556
21
1.8592328
0
LINE
8
DEFAULT_255_2_778
10
0.6618556
20
1.8592328
11
0.2157556
21
1.8592328
0
LINE
8
DEFAULT_255_2_778
10
0.2157556
20
1.8592328
11
0.2157556
21
1.4017328
0
LINE
8
DEFAULT_255_2_778
10
0.2157556
20
1.4017328
11
0.2612556
21
1.4017328
0
LINE
8
DEFAULT_255_2_778
10
0.2612556
20
1.4017328
11
0.2612556
21
1.8137328
0
LINE
8
DEFAULT_255_2_778
10
0.2612556
20
1.8137328
11
0.6618556
21
1.8132328
0
LINE
8
DEFAULT_255_2_778
10
0.7070813
20
1.3557143
11
0.7070813
21
1.8925143
0
LINE
8
DEFAULT_255_2_778
10
0.7070813
20
1.8925143
11
0.6623813
21
1.8925143
0
LINE
8
DEFAULT_255_2_778
10
0.6623813
20
1.8925143
11
0.6623813
21
1.4004143
0
LINE
8
DEFAULT_255_2_778
10
0.6623813
20
1.4004143
11
0.1702813
21
1.4004143
0
LINE
8
DEFAULT_255_2_778
10
0.1702813
20
1.4004143
11
0.1702813
21
1.3549143
0
LINE
8
DEFAULT_255_2_778
10
0.1702813
20
1.3549143
11
0.7070813
21
1.3557143
0
LINE
8
DEFAULT_255_2_778
10
0.7033813
20
1.3594187
11
1.2401813
21
1.3594187
0
LINE
8
DEFAULT_255_2_778
10
1.2401813
20
1.3594187
11
1.2401813
21
0.8226187
0
LINE
8
DEFAULT_255_2_778
10
1.2401813
20
0.8226187
11
0.7033813
21
0.8226187
0
LINE
8
DEFAULT_255_2_778
10
0.7033813
20
0.8226187
11
0.7033813
21
1.3594187
0
LINE
8
DEFAULT_255_2_778
10
1.2401813
20
1.3142227
11
1.2401813
21
1.3597227
0
LINE
8
DEFAULT_255_2_778
10
1.2401813
20
1.3597227
11
0.7033813
21
1.3597227
0
LINE
8
DEFAULT_255_2_778
10
0.7033813
20
1.3597227
11
0.7033813
21
0.8229227
0
LINE
8
DEFAULT_255_2_778
10
0.7033813
20
0.8229227
11
0.7485813
21
0.8229227
0
LINE
8
DEFAULT_255_2_778
10
0.7485813
20
0.8229227
11
0.7485813
21
1.3150227
0
LINE
8
DEFAULT_255_2_778
10
0.7485813
20
1.3150227
11
1.2401813
21
1.3142227
0
LINE
8
DEFAULT_255_2_778
10
1.1947556
20
0.8677328
11
1.1947556
21
1.3252328
0
LINE
8
DEFAULT_255_2_778
10
1.1947556
20
1.3252328
11
1.1494556
21
1.3252328
0
LINE
8
DEFAULT_255_2_778
10
1.1494556
20
1.3252328
11
1.1494556
21
0.9132328
0
LINE
8
DEFAULT_255_2_778
10
1.1494556
20
0.9132328
11
0.7486556
21
0.9132328
0
LINE
8
DEFAULT_255_2_778
10
0.7486556
20
0.9132328
11
0.7486556
21
0.8680328
0
LINE
8
DEFAULT_255_2_778
10
0.7486556
20
0.8680328
11
1.1947556
21
0.8677328
0
LINE
8
DEFAULT_255_2_778
10
1.1949597
20
1.2803328
11
1.1949597
21
1.3255328
0
LINE
8
DEFAULT_255_2_778
10
1.1949597
20
1.3255328
11
0.7488597
21
1.3255328
0
LINE
8
DEFAULT_255_2_778
10
0.7488597
20
1.3255328
11
0.7488597
21
0.8680328
0
LINE
8
DEFAULT_255_2_778
10
0.7488597
20
0.8680328
11
0.7943597
21
0.8680328
0
LINE
8
DEFAULT_255_2_778
10
0.7943597
20
0.8680328
11
0.7943597
21
1.2800328
0
LINE
8
DEFAULT_255_2_778
10
0.7943597
20
1.2800328
11
1.1949597
21
1.2803328
0
LINE
8
DEFAULT_255_2_778
10
1.2404816
20
0.8226184
11
1.2404816
21
1.3594184
0
LINE
8
DEFAULT_255_2_778
10
1.2404816
20
1.3594184
11
1.1949816
21
1.3594184
0
LINE
8
DEFAULT_255_2_778
10
1.1949816
20
1.3594184
11
1.1949816
21
0.8673184
0
LINE
8
DEFAULT_255_2_778
10
1.1949816
20
0.8673184
11
0.7028816
21
0.8673184
0
LINE
8
DEFAULT_255_2_778
10
0.7028816
20
0.8673184
11
0.7028816
21
0.8218184
0
LINE
8
DEFAULT_255_2_778
10
0.7028816
20
0.8218184
11
1.2404816
21
0.8226184
0
LINE
8
DEFAULT_255_2_778
10
1.7696813
20
1.3594187
11
2.3064813
21
1.3594187
0
LINE
8
DEFAULT_255_2_778
10
2.3064813
20
1.3594187
11
2.3064813
21
0.8226187
0
LINE
8
DEFAULT_255_2_778
10
2.3064813
20
0.8226187
11
1.7696813
21
0.8226187
0
LINE
8
DEFAULT_255_2_778
10
1.7696813
20
0.8226187
11
1.7696813
21
1.3594187
0
LINE
8
DEFAULT_255_2_778
10
2.3064813
20
1.3142227
11
2.3064813
21
1.3597227
0
LINE
8
DEFAULT_255_2_778
10
2.3064813
20
1.3597227
11
1.7696813
21
1.3597227
0
LINE
8
DEFAULT_255_2_778
10
1.7696813
20
1.3597227
11
1.7696813
21
0.8229227
0
LINE
8
DEFAULT_255_2_778
10
1.7696813
20
0.8229227
11
1.8148813
21
0.8229227
0
LINE
8
DEFAULT_255_2_778
10
1.8148813
20
0.8229227
11
1.8148813
21
1.3150227
0
LINE
8
DEFAULT_255_2_778
10
1.8148813
20
1.3150227
11
2.3064813
21
1.3142227
0
LINE
8
DEFAULT_255_2_778
10
2.2610556
20
0.8677328
11
2.2610556
21
1.3252328
0
LINE
8
DEFAULT_255_2_778
10
2.2610556
20
1.3252328
11
2.2157556
21
1.3252328
0
LINE
8
DEFAULT_255_2_778
10
2.2157556
20
1.3252328
11
2.2157556
21
0.9132328
0
LINE
8
DEFAULT_255_2_778
10
2.2157556
20
0.9132328
11
1.8149556
21
0.9132328
0
LINE
8
DEFAULT_255_2_778
10
1.8149556
20
0.9132328
11
1.8149556
21
0.8680328
0
LINE
8
DEFAULT_255_2_778
10
1.8149556
20
0.8680328
11
2.2610556
21
0.8677328
0
LINE
8
DEFAULT_255_2_778
10
2.2617556
20
1.2803328
11
2.2617556
21
1.3255328
0
LINE
8
DEFAULT_255_2_778
10
2.2617556
20
1.3255328
11
1.8156556
21
1.3255328
0
LINE
8
DEFAULT_255_2_778
10
1.8156556
20
1.3255328
11
1.8156556
21
0.8680328
0
LINE
8
DEFAULT_255_2_778
10
1.8156556
20
0.8680328
11
1.8608556
21
0.8680328
0
LINE
8
DEFAULT_255_2_778
10
1.8608556
20
0.8680328
11
1.8608556
21
1.2800328
0
LINE
8
DEFAULT_255_2_778
10
1.8608556
20
1.2800328
11
2.2617556
21
1.2803328
0
LINE
8
DEFAULT_255_2_778
10
2.3064816
20
0.8226184
11
2.3064816
21
1.3594184
0
LINE
8
DEFAULT_255_2_778
10
2.3064816
20
1.3594184
11
2.2609816
21
1.3594184
0
LINE
8
DEFAULT_255_2_778
10
2.2609816
20
1.3594184
11
2.2609816
21
0.8673184
0
LINE
8
DEFAULT_255_2_778
10
2.2609816
20
0.8673184
11
1.7688816
21
0.8673184
0
LINE
8
DEFAULT_255_2_778
10
1.7688816
20
0.8673184
11
1.7688816
21
0.8218184
0
LINE
8
DEFAULT_255_2_778
10
1.7688816
20
0.8218184
11
2.3064816
21
0.8226184
0
LINE
8
DEFAULT_255_2_778
10
2.3027813
20
0.8257187
11
2.8395813
21
0.8257187
0
LINE
8
DEFAULT_255_2_778
10
2.8395813
20
0.8257187
11
2.8395813
21
0.2889187
0
LINE
8
DEFAULT_255_2_778
10
2.8395813
20
0.2889187
11
2.3027813
21
0.2889187
0
LINE
8
DEFAULT_255_2_778
10
2.3027813
20
0.2889187
11
2.3027813
21
0.8257187
0
LINE
8
DEFAULT_255_2_778
10
2.8395813
20
0.7808187
11
2.8395813
21
0.8263187
0
LINE
8
DEFAULT_255_2_778
10
2.8395813
20
0.8263187
11
2.3027813
21
0.8263187
0
LINE
8
DEFAULT_255_2_778
10
2.3027813
20
0.8263187
11
2.3027813
21
0.2895187
0
LINE
8
DEFAULT_255_2_778
10
2.3027813
20
0.2895187
11
2.3479813
21
0.2895187
0
LINE
8
DEFAULT_255_2_778
10
2.3479813
20
0.2895187
11
2.3479813
21
0.7816187
0
LINE
8
DEFAULT_255_2_778
10
2.3479813
20
0.7816187
11
2.8395813
21
0.7808187
0
LINE
8
DEFAULT_255_2_778
10
2.7941556
20
0.3346328
11
2.7941556
21
0.7921328
0
LINE
8
DEFAULT_255_2_778
10
2.7941556
20
0.7921328
11
2.7488556
21
0.7921328
0
LINE
8
DEFAULT_255_2_778
10
2.7488556
20
0.7921328
11
2.7488556
21
0.3801328
0
LINE
8
DEFAULT_255_2_778
10
2.7488556
20
0.3801328
11
2.3480556
21
0.3801328
0
LINE
8
DEFAULT_255_2_778
10
2.3480556
20
0.3801328
11
2.3480556
21
0.3346328
0
LINE
8
DEFAULT_255_2_778
10
2.3480556
20
0.3346328
11
2.7941556
21
0.3346328
0
LINE
8
DEFAULT_255_2_778
10
2.7944556
20
0.7469328
11
2.7944556
21
0.7924328
0
LINE
8
DEFAULT_255_2_778
10
2.7944556
20
0.7924328
11
2.3483556
21
0.7924328
0
LINE
8
DEFAULT_255_2_778
10
2.3483556
20
0.7924328
11
2.3483556
21
0.3349328
0
LINE
8
DEFAULT_255_2_778
10
2.3483556
20
0.3349328
11
2.3938556
21
0.3349328
0
LINE
8
DEFAULT_255_2_778
10
2.3938556
20
0.3349328
11
2.3938556
21
0.7472328
0
LINE
8
DEFAULT_255_2_778
10
2.3938556
20
0.7472328
11
2.7944556
21
0.7469328
0
LINE
8
DEFAULT_255_2_778
10
2.8401816
20
0.2894851
11
2.8401816
21
0.8257851
0
LINE
8
DEFAULT_255_2_778
10
2.8401816
20
0.8257851
11
2.7946816
21
0.8257851
0
LINE
8
DEFAULT_255_2_778
10
2.7946816
20
0.8257851
11
2.7946816
21
0.3336851
0
LINE
8
DEFAULT_255_2_778
10
2.7946816
20
0.3336851
11
2.3025816
21
0.3336851
0
LINE
8
DEFAULT_255_2_778
10
2.3025816
20
0.3336851
11
2.3025816
21
0.2883851
0
LINE
8
DEFAULT_255_2_778
10
2.3025816
20
0.2883851
11
2.8401816
21
0.2894851
0
LINE
8
DEFAULT_255_2_778
10
0.1702813
20
2.9588187
11
0.7070813
21
2.9588187
0
LINE
8
DEFAULT_255_2_778
10
0.7070813
20
2.9588187
11
0.7070813
21
2.4220187
0
LINE
8
DEFAULT_255_2_778
10
0.7070813
20
2.4220187
11
0.1702813
21
2.4220187
0
LINE
8
DEFAULT_255_2_778
10
0.1702813
20
2.4220187
11
0.1702813
21
2.9588187
0
LINE
8
DEFAULT_255_2_778
10
0.7072813
20
2.9136187
11
0.7072813
21
2.9588187
0
LINE
8
DEFAULT_255_2_778
10
0.7072813
20
2.9588187
11
0.1704813
21
2.9588187
0
LINE
8
DEFAULT_255_2_778
10
0.1704813
20
2.9588187
11
0.1704813
21
2.4220187
0
LINE
8
DEFAULT_255_2_778
10
0.1704813
20
2.4220187
11
0.2156813
21
2.4220187
0
LINE
8
DEFAULT_255_2_778
10
0.2156813
20
2.4220187
11
0.2156813
21
2.9141187
0
LINE
8
DEFAULT_255_2_778
10
0.2156813
20
2.9141187
11
0.7072813
21
2.9136187
0
LINE
8
DEFAULT_255_2_778
10
0.6623597
20
2.4672328
11
0.6623597
21
2.9247328
0
LINE
8
DEFAULT_255_2_778
10
0.6623597
20
2.9247328
11
0.6168597
21
2.9247328
0
LINE
8
DEFAULT_255_2_778
10
0.6168597
20
2.9247328
11
0.6168597
21
2.5125328
0
LINE
8
DEFAULT_255_2_778
10
0.6168597
20
2.5125328
11
0.2162597
21
2.5125328
0
LINE
8
DEFAULT_255_2_778
10
0.2162597
20
2.5125328
11
0.2162597
21
2.4672328
0
LINE
8
DEFAULT_255_2_778
10
0.2162597
20
2.4672328
11
0.6623597
21
2.4672328
0
LINE
8
DEFAULT_255_2_778
10
0.6618556
20
2.8795328
11
0.6618556
21
2.9247328
0
LINE
8
DEFAULT_255_2_778
10
0.6618556
20
2.9247328
11
0.2157556
21
2.9247328
0
LINE
8
DEFAULT_255_2_778
10
0.2157556
20
2.9247328
11
0.2157556
21
2.4672328
0
LINE
8
DEFAULT_255_2_778
10
0.2157556
20
2.4672328
11
0.2612556
21
2.4672328
0
LINE
8
DEFAULT_255_2_778
10
0.2612556
20
2.4672328
11
0.2612556
21
2.8795328
0
LINE
8
DEFAULT_255_2_778
10
0.2612556
20
2.8795328
11
0.6618556
21
2.8795328
0
LINE
8
DEFAULT_255_2_778
10
0.7070813
20
2.4220143
11
0.7070813
21
2.9588143
0
LINE
8
DEFAULT_255_2_778
10
0.7070813
20
2.9588143
11
0.6623813
21
2.9588143
0
LINE
8
DEFAULT_255_2_778
10
0.6623813
20
2.9588143
11
0.6623813
21
2.4667143
0
LINE
8
DEFAULT_255_2_778
10
0.6623813
20
2.4667143
11
0.1702813
21
2.4667143
0
LINE
8
DEFAULT_255_2_778
10
0.1702813
20
2.4667143
11
0.1702813
21
2.4212143
0
LINE
8
DEFAULT_255_2_778
10
0.1702813
20
2.4212143
11
0.7070813
21
2.4220143
0
LINE
8
DEFAULT_255_2_778
10
1.2251813
20
4.0362432
11
1.7619813
21
4.0362432
0
LINE
8
DEFAULT_255_2_778
10
1.7619813
20
4.0362432
11
1.7619813
21
2.9543432
0
LINE
8
DEFAULT_255_2_778
10
1.7619813
20
2.9543432
11
1.2251813
21
2.9543432
0
LINE
8
DEFAULT_255_2_778
10
1.2251813
20
2.9543432
11
1.2251813
21
4.0362432
0
LINE
8
DEFAULT_255_2_778
10
1.7621813
20
3.9909768
11
1.7621813
21
4.0369768
0
LINE
8
DEFAULT_255_2_778
10
1.7621813
20
4.0369768
11
1.2253813
21
4.0369768
0
LINE
8
DEFAULT_255_2_778
10
1.2253813
20
4.0369768
11
1.2253813
21
2.9555768
0
LINE
8
DEFAULT_255_2_778
10
1.2253813
20
2.9555768
11
1.2708813
21
2.9555768
0
LINE
8
DEFAULT_255_2_778
10
1.2708813
20
2.9555768
11
1.2708813
21
3.9917768
0
LINE
8
DEFAULT_255_2_778
10
1.2708813
20
3.9917768
11
1.7621813
21
3.9909768
0
LINE
8
DEFAULT_255_2_778
10
1.7167556
20
3.0003984
11
1.7167556
21
3.9909984
0
LINE
8
DEFAULT_255_2_778
10
1.7167556
20
3.9909984
11
1.6714556
21
3.9909984
0
LINE
8
DEFAULT_255_2_778
10
1.6714556
20
3.9909984
11
1.6714556
21
3.0455984
0
LINE
8
DEFAULT_255_2_778
10
1.6714556
20
3.0455984
11
1.2706556
21
3.0455984
0
LINE
8
DEFAULT_255_2_778
10
1.2706556
20
3.0455984
11
1.2706556
21
3.0003984
0
LINE
8
DEFAULT_255_2_778
10
1.2706556
20
3.0003984
11
1.7167556
21
3.0003984
0
LINE
8
DEFAULT_255_2_778
10
1.7167556
20
3.9454984
11
1.7167556
21
3.9909984
0
LINE
8
DEFAULT_255_2_778
10
1.7167556
20
3.9909984
11
1.2706556
21
3.9909984
0
LINE
8
DEFAULT_255_2_778
10
1.2706556
20
3.9909984
11
1.2706556
21
3.0003984
0
LINE
8
DEFAULT_255_2_778
10
1.2706556
20
3.0003984
11
1.3158556
21
3.0003984
0
LINE
8
DEFAULT_255_2_778
10
1.3158556
20
3.0003984
11
1.3158556
21
3.9454984
0
LINE
8
DEFAULT_255_2_778
10
1.3158556
20
3.9454984
11
1.7167556
21
3.9454984
0
LINE
8
DEFAULT_255_2_778
10
1.7621816
20
2.9542255
11
1.7621816
21
4.0401255
0
LINE
8
DEFAULT_255_2_778
10
1.7621816
20
4.0401255
11
1.7166816
21
4.0401255
0
LINE
8
DEFAULT_255_2_778
10
1.7166816
20
4.0401255
11
1.7166816
21
3.0003255
0
LINE
8
DEFAULT_255_2_778
10
1.7166816
20
3.0003255
11
1.2245816
21
3.0003255
0
LINE
8
DEFAULT_255_2_778
10
1.2245816
20
3.0003255
11
1.2245816
21
2.9548255
0
LINE
8
DEFAULT_255_2_778
10
1.2245816
20
2.9548255
11
1.7621816
21
2.9542255
0
LINE
8
DEFAULT_255_2_778
10
0.7033813
20
2.4375727
11
1.2401813
21
2.4375727
0
LINE
8
DEFAULT_255_2_778
10
1.2401813
20
2.4375727
11
1.2401813
21
1.3562727
0
LINE
8
DEFAULT_255_2_778
10
1.2401813
20
1.3562727
11
0.7033813
21
1.3562727
0
LINE
8
DEFAULT_255_2_778
10
0.7033813
20
1.3562727
11
0.7033813
21
2.4375727
0
LINE
8
DEFAULT_255_2_778
10
1.2401813
20
2.3918768
11
1.2401813
21
2.4370768
0
LINE
8
DEFAULT_255_2_778
10
1.2401813
20
2.4370768
11
0.7033813
21
2.4370768
0
LINE
8
DEFAULT_255_2_778
10
0.7033813
20
2.4370768
11
0.7033813
21
1.3556768
0
LINE
8
DEFAULT_255_2_778
10
0.7033813
20
1.3556768
11
0.7485813
21
1.3556768
0
LINE
8
DEFAULT_255_2_778
10
0.7485813
20
1.3556768
11
0.7485813
21
2.3915768
0
LINE
8
DEFAULT_255_2_778
10
0.7485813
20
2.3915768
11
1.2401813
21
2.3918768
0
LINE
8
DEFAULT_255_2_778
10
1.1947556
20
1.4010024
11
1.1947556
21
2.3916024
0
LINE
8
DEFAULT_255_2_778
10
1.1947556
20
2.3916024
11
1.1494556
21
2.3916024
0
LINE
8
DEFAULT_255_2_778
10
1.1494556
20
2.3916024
11
1.1494556
21
1.4470024
0
LINE
8
DEFAULT_255_2_778
10
1.1494556
20
1.4470024
11
0.7486556
21
1.4470024
0
LINE
8
DEFAULT_255_2_778
10
0.7486556
20
1.4470024
11
0.7486556
21
1.4015024
0
LINE
8
DEFAULT_255_2_778
10
0.7486556
20
1.4015024
11
1.1947556
21
1.4010024
0
LINE
8
DEFAULT_255_2_778
10
1.1949597
20
2.3463024
11
1.1949597
21
2.3918024
0
LINE
8
DEFAULT_255_2_778
10
1.1949597
20
2.3918024
11
0.7488597
21
2.3918024
0
LINE
8
DEFAULT_255_2_778
10
0.7488597
20
2.3918024
11
0.7488597
21
1.4012024
0
LINE
8
DEFAULT_255_2_778
10
0.7488597
20
1.4012024
11
0.7943597
21
1.4012024
0
LINE
8
DEFAULT_255_2_778
10
0.7943597
20
1.4012024
11
0.7943597
21
2.3463024
0
LINE
8
DEFAULT_255_2_778
10
0.7943597
20
2.3463024
11
1.1949597
21
2.3463024
0
LINE
8
DEFAULT_255_2_778
10
1.2404816
20
1.3556392
11
1.2404816
21
2.4375392
0
LINE
8
DEFAULT_255_2_778
10
1.2404816
20
2.4375392
11
1.1949816
21
2.4375392
0
LINE
8
DEFAULT_255_2_778
10
1.1949816
20
2.4375392
11
1.1949816
21
1.4014392
0
LINE
8
DEFAULT_255_2_778
10
1.1949816
20
1.4014392
11
0.7028816
21
1.4014392
0
LINE
8
DEFAULT_255_2_778
10
0.7028816
20
1.4014392
11
0.7028816
21
1.3559392
0
LINE
8
DEFAULT_255_2_778
10
0.7028816
20
1.3559392
11
1.2404816
21
1.3556392
0
LINE
8
DEFAULT_255_2_778
10
1.2364813
20
1.9036768
11
1.7732813
21
1.9036768
0
LINE
8
DEFAULT_255_2_778
10
1.7732813
20
1.9036768
11
1.7732813
21
0.8222768
0
LINE
8
DEFAULT_255_2_778
10
1.7732813
20
0.8222768
11
1.2364813
21
0.8222768
0
LINE
8
DEFAULT_255_2_778
10
1.2364813
20
0.8222768
11
1.2364813
21
1.9036768
0
LINE
8
DEFAULT_255_2_778
10
1.7732813
20
1.8592392
11
1.7732813
21
1.9044392
0
LINE
8
DEFAULT_255_2_778
10
1.7732813
20
1.9044392
11
1.2364813
21
1.9044392
0
LINE
8
DEFAULT_255_2_778
10
1.2364813
20
1.9044392
11
1.2364813
21
0.8225392
0
LINE
8
DEFAULT_255_2_778
10
1.2364813
20
0.8225392
11
1.2819813
21
0.8225392
0
LINE
8
DEFAULT_255_2_778
10
1.2819813
20
0.8225392
11
1.2819813
21
1.8592392
0
LINE
8
DEFAULT_255_2_778
10
1.2819813
20
1.8592392
11
1.7732813
21
1.8592392
0
LINE
8
DEFAULT_255_2_778
10
1.7281556
20
0.8677984
11
1.7281556
21
1.8583984
0
LINE
8
DEFAULT_255_2_778
10
1.7281556
20
1.8583984
11
1.6826556
21
1.8583984
0
LINE
8
DEFAULT_255_2_778
10
1.6826556
20
1.8583984
11
1.6826556
21
0.9132984
0
LINE
8
DEFAULT_255_2_778
10
1.6826556
20
0.9132984
11
1.2820556
21
0.9132984
0
LINE
8
DEFAULT_255_2_778
10
1.2820556
20
0.9132984
11
1.2820556
21
0.8680984
0
LINE
8
DEFAULT_255_2_778
10
1.2820556
20
0.8680984
11
1.7281556
21
0.8677984
0
LINE
8
DEFAULT_255_2_778
10
1.7281556
20
1.8132024
11
1.7281556
21
1.8592024
0
LINE
8
DEFAULT_255_2_778
10
1.7281556
20
1.8592024
11
1.2820556
21
1.8592024
0
LINE
8
DEFAULT_255_2_778
10
1.2820556
20
1.8592024
11
1.2820556
21
0.8686024
0
LINE
8
DEFAULT_255_2_778
10
1.2820556
20
0.8686024
11
1.3275556
21
0.8686024
0
LINE
8
DEFAULT_255_2_778
10
1.3275556
20
0.8686024
11
1.3275556
21
1.8132024
0
LINE
8
DEFAULT_255_2_778
10
1.3275556
20
1.8132024
11
1.7281556
21
1.8132024
0
LINE
8
DEFAULT_255_2_778
10
1.7736149
20
0.822606
11
1.7736149
21
1.903906
0
LINE
8
DEFAULT_255_2_778
10
1.7736149
20
1.903906
11
1.7283149
21
1.903906
0
LINE
8
DEFAULT_255_2_778
10
1.7283149
20
1.903906
11
1.7283149
21
0.867806
0
LINE
8
DEFAULT_255_2_778
10
1.7283149
20
0.867806
11
1.2362149
21
0.867806
0
LINE
8
DEFAULT_255_2_778
10
1.2362149
20
0.867806
11
1.2362149
21
0.822306
0
LINE
8
DEFAULT_255_2_778
10
1.2362149
20
0.822306
11
1.7736149
21
0.822606
0
LINE
8
DEFAULT_255_2_778
10
1.7636045
20
4.0251187
11
2.8230045
21
4.0251187
0
LINE
8
DEFAULT_255_2_778
10
2.8230045
20
4.0251187
11
2.8230045
21
3.4883187
0
LINE
8
DEFAULT_255_2_778
10
2.8230045
20
3.4883187
11
1.7636045
21
3.4883187
0
LINE
8
DEFAULT_255_2_778
10
1.7636045
20
3.4883187
11
1.7636045
21
4.0251187
0
LINE
8
DEFAULT_255_2_778
10
2.8237514
20
3.9799187
11
2.8237514
21
4.0251187
0
LINE
8
DEFAULT_255_2_778
10
2.8237514
20
4.0251187
11
1.7606514
21
4.0251187
0
LINE
8
DEFAULT_255_2_778
10
1.7606514
20
4.0251187
11
1.7606514
21
3.4883187
0
LINE
8
DEFAULT_255_2_778
10
1.7606514
20
3.4883187
11
1.8048514
21
3.4883187
0
LINE
8
DEFAULT_255_2_778
10
1.8048514
20
3.4883187
11
1.8048514
21
3.9804187
0
LINE
8
DEFAULT_255_2_778
10
1.8048514
20
3.9804187
11
2.8237514
21
3.9799187
0
LINE
8
DEFAULT_255_2_778
10
2.7796055
20
3.533462
11
2.7796055
21
3.990962
0
LINE
8
DEFAULT_255_2_778
10
2.7796055
20
3.990962
11
2.7354055
21
3.990962
0
LINE
8
DEFAULT_255_2_778
10
2.7354055
20
3.990962
11
2.7354055
21
3.578762
0
LINE
8
DEFAULT_255_2_778
10
2.7354055
20
3.578762
11
1.8046055
21
3.578762
0
LINE
8
DEFAULT_255_2_778
10
1.8046055
20
3.578762
11
1.8046055
21
3.533262
0
LINE
8
DEFAULT_255_2_778
10
1.8046055
20
3.533262
11
2.7796055
21
3.533462
0
LINE
8
DEFAULT_255_2_778
10
2.7798055
20
3.9454288
11
2.7798055
21
3.9909288
0
LINE
8
DEFAULT_255_2_778
10
2.7798055
20
3.9909288
11
1.8048055
21
3.9909288
0
LINE
8
DEFAULT_255_2_778
10
1.8048055
20
3.9909288
11
1.8048055
21
3.5334288
0
LINE
8
DEFAULT_255_2_778
10
1.8048055
20
3.5334288
11
1.8490055
21
3.5334288
0
LINE
8
DEFAULT_255_2_778
10
1.8490055
20
3.5334288
11
1.8490055
21
3.9454288
0
LINE
8
DEFAULT_255_2_778
10
1.8490055
20
3.9454288
11
2.7798055
21
3.9454288
0
LINE
8
DEFAULT_255_2_778
10
2.8237514
20
3.4882811
11
2.8237514
21
4.0250811
0
LINE
8
DEFAULT_255_2_778
10
2.8237514
20
4.0250811
11
2.7795514
21
4.0250811
0
LINE
8
DEFAULT_255_2_778
10
2.7795514
20
4.0250811
11
2.7795514
21
3.5329811
0
LINE
8
DEFAULT_255_2_778
10
2.7795514
20
3.5329811
11
1.7606514
21
3.5329811
0
LINE
8
DEFAULT_255_2_778
10
1.7606514
20
3.5329811
11
1.7606514
21
3.4876811
0
LINE
8
DEFAULT_255_2_778
10
1.7606514
20
3.4876811
11
2.8237514
21
3.4882811
0
LINE
8
DEFAULT_255_2_778
10
1.7755004
20
0.2931187
11
2.8349004
21
0.2931187
0
LINE
8
DEFAULT_255_2_778
10
2.8349004
20
0.2931187
11
2.8349004
21
-0.2436813
0
LINE
8
DEFAULT_255_2_778
10
2.8349004
20
-0.2436813
11
1.7755004
21
-0.2436813
0
LINE
8
DEFAULT_255_2_778
10
1.7755004
20
-0.2436813
11
1.7755004
21
0.2931187
0
LINE
8
DEFAULT_255_2_778
10
2.8351514
20
0.2476187
11
2.8351514
21
0.2931187
0
LINE
8
DEFAULT_255_2_778
10
2.8351514
20
0.2931187
11
1.7720514
21
0.2931187
0
LINE
8
DEFAULT_255_2_778
10
1.7720514
20
0.2931187
11
1.7720514
21
-0.2436813
0
LINE
8
DEFAULT_255_2_778
10
1.7720514
20
-0.2436813
11
1.8162514
21
-0.2436813
0
LINE
8
DEFAULT_255_2_778
10
1.8162514
20
-0.2436813
11
1.8162514
21
0.2484187
0
LINE
8
DEFAULT_255_2_778
10
1.8162514
20
0.2484187
11
2.8351514
21
0.2476187
0
LINE
8
DEFAULT_255_2_778
10
2.7910055
20
-0.1982048
11
2.7910055
21
0.2597952
0
LINE
8
DEFAULT_255_2_778
10
2.7910055
20
0.2597952
11
2.7468055
21
0.2597952
0
LINE
8
DEFAULT_255_2_778
10
2.7468055
20
0.2597952
11
2.7468055
21
-0.1524048
0
LINE
8
DEFAULT_255_2_778
10
2.7468055
20
-0.1524048
11
1.8160055
21
-0.1524048
0
LINE
8
DEFAULT_255_2_778
10
1.8160055
20
-0.1524048
11
1.8160055
21
-0.1977048
0
LINE
8
DEFAULT_255_2_778
10
1.8160055
20
-0.1977048
11
2.7910055
21
-0.1982048
0
LINE
8
DEFAULT_255_2_778
10
2.7909388
20
0.2140328
11
2.7909388
21
0.2592328
0
LINE
8
DEFAULT_255_2_778
10
2.7909388
20
0.2592328
11
1.8162388
21
0.2592328
0
LINE
8
DEFAULT_255_2_778
10
1.8162388
20
0.2592328
11
1.8162388
21
-0.1982672
0
LINE
8
DEFAULT_255_2_778
10
1.8162388
20
-0.1982672
11
1.8604388
21
-0.1982672
0
LINE
8
DEFAULT_255_2_778
10
1.8604388
20
-0.1982672
11
1.8604388
21
0.2140328
0
LINE
8
DEFAULT_255_2_778
10
1.8604388
20
0.2140328
11
2.7909388
21
0.2140328
0
LINE
8
DEFAULT_255_2_778
10
2.8351514
20
-0.2436816
11
2.8351514
21
0.2931184
0
LINE
8
DEFAULT_255_2_778
10
2.8351514
20
0.2931184
11
2.7912514
21
0.2931184
0
LINE
8
DEFAULT_255_2_778
10
2.7912514
20
0.2931184
11
2.7912514
21
-0.1989816
0
LINE
8
DEFAULT_255_2_778
10
2.7912514
20
-0.1989816
11
1.7720514
21
-0.1989816
0
LINE
8
DEFAULT_255_2_778
10
1.7720514
20
-0.1989816
11
1.7720514
21
-0.2444816
0
LINE
8
DEFAULT_255_2_778
10
1.7720514
20
-0.2444816
11
2.8351514
21
-0.2436816
0
LINE
8
DEFAULT_255_2_778
10
2.8418004
20
0.8257187
11
3.9012004
21
0.8257187
0
LINE
8
DEFAULT_255_2_778
10
3.9012004
20
0.8257187
11
3.9012004
21
0.2889187
0
LINE
8
DEFAULT_255_2_778
10
3.9012004
20
0.2889187
11
2.8418004
21
0.2889187
0
LINE
8
DEFAULT_255_2_778
10
2.8418004
20
0.2889187
11
2.8418004
21
0.8257187
0
LINE
8
DEFAULT_255_2_778
10
3.9014514
20
0.7808187
11
3.9014514
21
0.8263187
0
LINE
8
DEFAULT_255_2_778
10
3.9014514
20
0.8263187
11
2.8383514
21
0.8263187
0
LINE
8
DEFAULT_255_2_778
10
2.8383514
20
0.8263187
11
2.8383514
21
0.2895187
0
LINE
8
DEFAULT_255_2_778
10
2.8383514
20
0.2895187
11
2.8825514
21
0.2895187
0
LINE
8
DEFAULT_255_2_778
10
2.8825514
20
0.2895187
11
2.8825514
21
0.7816187
0
LINE
8
DEFAULT_255_2_778
10
2.8825514
20
0.7816187
11
3.9014514
21
0.7808187
0
LINE
8
DEFAULT_255_2_778
10
3.8572055
20
0.3346328
11
3.8572055
21
0.7921328
0
LINE
8
DEFAULT_255_2_778
10
3.8572055
20
0.7921328
11
3.8130055
21
0.7921328
0
LINE
8
DEFAULT_255_2_778
10
3.8130055
20
0.7921328
11
3.8130055
21
0.3801328
0
LINE
8
DEFAULT_255_2_778
10
3.8130055
20
0.3801328
11
2.8822055
21
0.3801328
0
LINE
8
DEFAULT_255_2_778
10
2.8822055
20
0.3801328
11
2.8822055
21
0.3346328
0
LINE
8
DEFAULT_255_2_778
10
2.8822055
20
0.3346328
11
3.8572055
21
0.3346328
0
LINE
8
DEFAULT_255_2_778
10
3.8572055
20
0.7469328
11
3.8572055
21
0.7924328
0
LINE
8
DEFAULT_255_2_778
10
3.8572055
20
0.7924328
11
2.8822055
21
0.7924328
0
LINE
8
DEFAULT_255_2_778
10
2.8822055
20
0.7924328
11
2.8822055
21
0.3349328
0
LINE
8
DEFAULT_255_2_778
10
2.8822055
20
0.3349328
11
2.9264055
21
0.3349328
0
LINE
8
DEFAULT_255_2_778
10
2.9264055
20
0.3349328
11
2.9264055
21
0.7472328
0
LINE
8
DEFAULT_255_2_778
10
2.9264055
20
0.7472328
11
3.8572055
21
0.7469328
0
LINE
8
DEFAULT_255_2_778
10
3.9011514
20
0.2894851
11
3.9011514
21
0.8257851
0
LINE
8
DEFAULT_255_2_778
10
3.9011514
20
0.8257851
11
3.8569514
21
0.8257851
0
LINE
8
DEFAULT_255_2_778
10
3.8569514
20
0.8257851
11
3.8569514
21
0.3336851
0
LINE
8
DEFAULT_255_2_778
10
3.8569514
20
0.3336851
11
2.8380514
21
0.3336851
0
LINE
8
DEFAULT_255_2_778
10
2.8380514
20
0.3336851
11
2.8380514
21
0.2883851
0
LINE
8
DEFAULT_255_2_778
10
2.8380514
20
0.2883851
11
3.9011514
21
0.2894851
0
LINE
8
DEFAULT_255_2_778
10
2.8010045
20
4.0251187
11
3.8604045
21
4.0251187
0
LINE
8
DEFAULT_255_2_778
10
3.8604045
20
4.0251187
11
3.8604045
21
3.4883187
0
LINE
8
DEFAULT_255_2_778
10
3.8604045
20
3.4883187
11
2.8010045
21
3.4883187
0
LINE
8
DEFAULT_255_2_778
10
2.8010045
20
3.4883187
11
2.8010045
21
4.0251187
0
LINE
8
DEFAULT_255_2_778
10
3.8606514
20
3.9799187
11
3.8606514
21
4.0251187
0
LINE
8
DEFAULT_255_2_778
10
3.8606514
20
4.0251187
11
2.7975514
21
4.0251187
0
LINE
8
DEFAULT_255_2_778
10
2.7975514
20
4.0251187
11
2.7975514
21
3.4883187
0
LINE
8
DEFAULT_255_2_778
10
2.7975514
20
3.4883187
11
2.8417514
21
3.4883187
0
LINE
8
DEFAULT_255_2_778
10
2.8417514
20
3.4883187
11
2.8417514
21
3.9804187
0
LINE
8
DEFAULT_255_2_778
10
2.8417514
20
3.9804187
11
3.8606514
21
3.9799187
0
LINE
8
DEFAULT_255_2_778
10
3.8165055
20
3.533462
11
3.8165055
21
3.990962
0
LINE
8
DEFAULT_255_2_778
10
3.8165055
20
3.990962
11
3.7723055
21
3.990962
0
LINE
8
DEFAULT_255_2_778
10
3.7723055
20
3.990962
11
3.7723055
21
3.578762
0
LINE
8
DEFAULT_255_2_778
10
3.7723055
20
3.578762
11
2.8415055
21
3.578762
0
LINE
8
DEFAULT_255_2_778
10
2.8415055
20
3.578762
11
2.8415055
21
3.533262
0
LINE
8
DEFAULT_255_2_778
10
2.8415055
20
3.533262
11
3.8165055
21
3.533462
0
LINE
8
DEFAULT_255_2_778
10
3.8165055
20
3.9454288
11
3.8165055
21
3.9909288
0
LINE
8
DEFAULT_255_2_778
10
3.8165055
20
3.9909288
11
2.8415055
21
3.9909288
0
LINE
8
DEFAULT_255_2_778
10
2.8415055
20
3.9909288
11
2.8415055
21
3.5334288
0
LINE
8
DEFAULT_255_2_778
10
2.8415055
20
3.5334288
11
2.8857055
21
3.5334288
0
LINE
8
DEFAULT_255_2_778
10
2.8857055
20
3.5334288
11
2.8857055
21
3.9454288
0
LINE
8
DEFAULT_255_2_778
10
2.8857055
20
3.9454288
11
3.8165055
21
3.9454288
0
LINE
8
DEFAULT_255_2_778
10
3.8604514
20
3.4882811
11
3.8604514
21
4.0250811
0
LINE
8
DEFAULT_255_2_778
10
3.8604514
20
4.0250811
11
3.8162514
21
4.0250811
0
LINE
8
DEFAULT_255_2_778
10
3.8162514
20
4.0250811
11
3.8162514
21
3.5329811
0
LINE
8
DEFAULT_255_2_778
10
3.8162514
20
3.5329811
11
2.7973514
21
3.5329811
0
LINE
8
DEFAULT_255_2_778
10
2.7973514
20
3.5329811
11
2.7973514
21
3.4876811
0
LINE
8
DEFAULT_255_2_778
10
2.7973514
20
3.4876811
11
3.8604514
21
3.4882811
0
LINE
8
DEFAULT_255_2_778
10
0.7026045
20
2.9588187
11
1.7620045
21
2.9588187
0
LINE
8
DEFAULT_255_2_778
10
1.7620045
20
2.9588187
11
1.7620045
21
2.4220187
0
LINE
8
DEFAULT_255_2_778
10
1.7620045
20
2.4220187
11
0.7026045
21
2.4220187
0
LINE
8
DEFAULT_255_2_778
10
0.7026045
20
2.4220187
11
0.7026045
21
2.9588187
0
LINE
8
DEFAULT_255_2_778
10
1.7622514
20
2.9136187
11
1.7622514
21
2.9588187
0
LINE
8
DEFAULT_255_2_778
10
1.7622514
20
2.9588187
11
0.6991514
21
2.9588187
0
LINE
8
DEFAULT_255_2_778
10
0.6991514
20
2.9588187
11
0.6991514
21
2.4220187
0
LINE
8
DEFAULT_255_2_778
10
0.6991514
20
2.4220187
11
0.7433514
21
2.4220187
0
LINE
8
DEFAULT_255_2_778
10
0.7433514
20
2.4220187
11
0.7433514
21
2.9141187
0
LINE
8
DEFAULT_255_2_778
10
0.7433514
20
2.9141187
11
1.7622514
21
2.9136187
0
LINE
8
DEFAULT_255_2_778
10
1.7177391
20
2.4672328
11
1.7177391
21
2.9247328
0
LINE
8
DEFAULT_255_2_778
10
1.7177391
20
2.9247328
11
1.6735391
21
2.9247328
0
LINE
8
DEFAULT_255_2_778
10
1.6735391
20
2.9247328
11
1.6735391
21
2.5125328
0
LINE
8
DEFAULT_255_2_778
10
1.6735391
20
2.5125328
11
0.7422391
21
2.5125328
0
LINE
8
DEFAULT_255_2_778
10
0.7422391
20
2.5125328
11
0.7422391
21
2.4672328
0
LINE
8
DEFAULT_255_2_778
10
0.7422391
20
2.4672328
11
1.7177391
21
2.4672328
0
LINE
8
DEFAULT_255_2_778
10
1.7181055
20
2.8795328
11
1.7181055
21
2.9247328
0
LINE
8
DEFAULT_255_2_778
10
1.7181055
20
2.9247328
11
0.7431055
21
2.9247328
0
LINE
8
DEFAULT_255_2_778
10
0.7431055
20
2.9247328
11
0.7431055
21
2.4672328
0
LINE
8
DEFAULT_255_2_778
10
0.7431055
20
2.4672328
11
0.7873055
21
2.4672328
0
LINE
8
DEFAULT_255_2_778
10
0.7873055
20
2.4672328
11
0.7873055
21
2.8795328
0
LINE
8
DEFAULT_255_2_778
10
0.7873055
20
2.8795328
11
1.7181055
21
2.8795328
0
LINE
8
DEFAULT_255_2_778
10
1.7619514
20
2.4220143
11
1.7619514
21
2.9588143
0
LINE
8
DEFAULT_255_2_778
10
1.7619514
20
2.9588143
11
1.7177514
21
2.9588143
0
LINE
8
DEFAULT_255_2_778
10
1.7177514
20
2.9588143
11
1.7177514
21
2.4667143
0
LINE
8
DEFAULT_255_2_778
10
1.7177514
20
2.4667143
11
0.6988514
21
2.4667143
0
LINE
8
DEFAULT_255_2_778
10
0.6988514
20
2.4667143
11
0.6988514
21
2.4212143
0
LINE
8
DEFAULT_255_2_778
10
0.6988514
20
2.4212143
11
1.7619514
21
2.4220143
0
LINE
8
DEFAULT_255_2_778
10
1.2471045
20
0.8257187
11
2.3065045
21
0.8257187
0
LINE
8
DEFAULT_255_2_778
10
2.3065045
20
0.8257187
11
2.3065045
21
0.2889187
0
LINE
8
DEFAULT_255_2_778
10
2.3065045
20
0.2889187
11
1.2471045
21
0.2889187
0
LINE
8
DEFAULT_255_2_778
10
1.2471045
20
0.2889187
11
1.2471045
21
0.8257187
0
LINE
8
DEFAULT_255_2_778
10
2.3065514
20
0.7808187
11
2.3065514
21
0.8263187
0
LINE
8
DEFAULT_255_2_778
10
2.3065514
20
0.8263187
11
1.2434514
21
0.8263187
0
LINE
8
DEFAULT_255_2_778
10
1.2434514
20
0.8263187
11
1.2434514
21
0.2895187
0
LINE
8
DEFAULT_255_2_778
10
1.2434514
20
0.2895187
11
1.2876514
21
0.2895187
0
LINE
8
DEFAULT_255_2_778
10
1.2876514
20
0.2895187
11
1.2876514
21
0.7816187
0
LINE
8
DEFAULT_255_2_778
10
1.2876514
20
0.7816187
11
2.3065514
21
0.7808187
0
LINE
8
DEFAULT_255_2_778
10
2.2623347
20
0.3346328
11
2.2623347
21
0.7921328
0
LINE
8
DEFAULT_255_2_778
10
2.2623347
20
0.7921328
11
2.2189347
21
0.7921328
0
LINE
8
DEFAULT_255_2_778
10
2.2189347
20
0.7921328
11
2.2189347
21
0.3801328
0
LINE
8
DEFAULT_255_2_778
10
2.2189347
20
0.3801328
11
1.2876347
21
0.3801328
0
LINE
8
DEFAULT_255_2_778
10
1.2876347
20
0.3801328
11
1.2876347
21
0.3346328
0
LINE
8
DEFAULT_255_2_778
10
1.2876347
20
0.3346328
11
2.2623347
21
0.3346328
0
LINE
8
DEFAULT_255_2_778
10
2.2618012
20
0.7469328
11
2.2618012
21
0.7924328
0
LINE
8
DEFAULT_255_2_778
10
2.2618012
20
0.7924328
11
1.2876012
21
0.7924328
0
LINE
8
DEFAULT_255_2_778
10
1.2876012
20
0.7924328
11
1.2876012
21
0.3349328
0
LINE
8
DEFAULT_255_2_778
10
1.2876012
20
0.3349328
11
1.3318012
21
0.3349328
0
LINE
8
DEFAULT_255_2_778
10
1.3318012
20
0.3349328
11
1.3318012
21
0.7472328
0
LINE
8
DEFAULT_255_2_778
10
1.3318012
20
0.7472328
11
2.2618012
21
0.7469328
0
LINE
8
DEFAULT_255_2_778
10
2.3065514
20
0.2894851
11
2.3065514
21
0.8257851
0
LINE
8
DEFAULT_255_2_778
10
2.3065514
20
0.8257851
11
2.2623514
21
0.8257851
0
LINE
8
DEFAULT_255_2_778
10
2.2623514
20
0.8257851
11
2.2623514
21
0.3336851
0
LINE
8
DEFAULT_255_2_778
10
2.2623514
20
0.3336851
11
1.2434514
21
0.3336851
0
LINE
8
DEFAULT_255_2_778
10
1.2434514
20
0.3336851
11
1.2434514
21
0.2883851
0
LINE
8
DEFAULT_255_2_778
10
1.2434514
20
0.2883851
11
2.3065514
21
0.2894851
0
LINE
8
DEFAULT_255_2_778
10
2.8351045
20
0.2931187
11
3.8945045
21
0.2931187
0
LINE
8
DEFAULT_255_2_778
10
3.8945045
20
0.2931187
11
3.8945045
21
-0.2436813
0
LINE
8
DEFAULT_255_2_778
10
3.8945045
20
-0.2436813
11
2.8351045
21
-0.2436813
0
LINE
8
DEFAULT_255_2_778
10
2.8351045
20
-0.2436813
11
2.8351045
21
0.2931187
0
LINE
8
DEFAULT_255_2_778
10
3.8945554
20
0.2476187
11
3.8945554
21
0.2931187
0
LINE
8
DEFAULT_255_2_778
10
3.8945554
20
0.2931187
11
2.8314554
21
0.2931187
0
LINE
8
DEFAULT_255_2_778
10
2.8314554
20
0.2931187
11
2.8314554
21
-0.2436813
0
LINE
8
DEFAULT_255_2_778
10
2.8314554
20
-0.2436813
11
2.8756554
21
-0.2436813
0
LINE
8
DEFAULT_255_2_778
10
2.8756554
20
-0.2436813
11
2.8756554
21
0.2484187
0
LINE
8
DEFAULT_255_2_778
10
2.8756554
20
0.2484187
11
3.8945554
21
0.2476187
0
LINE
8
DEFAULT_255_2_778
10
3.8504055
20
-0.1982048
11
3.8504055
21
0.2597952
0
LINE
8
DEFAULT_255_2_778
10
3.8504055
20
0.2597952
11
3.8062055
21
0.2597952
0
LINE
8
DEFAULT_255_2_778
10
3.8062055
20
0.2597952
11
3.8062055
21
-0.1524048
0
LINE
8
DEFAULT_255_2_778
10
3.8062055
20
-0.1524048
11
2.8754055
21
-0.1524048
0
LINE
8
DEFAULT_255_2_778
10
2.8754055
20
-0.1524048
11
2.8754055
21
-0.1977048
0
LINE
8
DEFAULT_255_2_778
10
2.8754055
20
-0.1977048
11
3.8504055
21
-0.1982048
0
LINE
8
DEFAULT_255_2_778
10
3.8503388
20
0.2140328
11
3.8503388
21
0.2592328
0
LINE
8
DEFAULT_255_2_778
10
3.8503388
20
0.2592328
11
2.8756388
21
0.2592328
0
LINE
8
DEFAULT_255_2_778
10
2.8756388
20
0.2592328
11
2.8756388
21
-0.1982672
0
LINE
8
DEFAULT_255_2_778
10
2.8756388
20
-0.1982672
11
2.9198388
21
-0.1982672
0
LINE
8
DEFAULT_255_2_778
10
2.9198388
20
-0.1982672
11
2.9198388
21
0.2140328
0
LINE
8
DEFAULT_255_2_778
10
2.9198388
20
0.2140328
11
3.8503388
21
0.2140328
0
LINE
8
DEFAULT_255_2_778
10
3.8945554
20
-0.2436816
11
3.8945554
21
0.2931184
0
LINE
8
DEFAULT_255_2_778
10
3.8945554
20
0.2931184
11
3.8503554
21
0.2931184
0
LINE
8
DEFAULT_255_2_778
10
3.8503554
20
0.2931184
11
3.8503554
21
-0.1989816
0
LINE
8
DEFAULT_255_2_778
10
3.8503554
20
-0.1989816
11
2.8314554
21
-0.1989816
0
LINE
8
DEFAULT_255_2_778
10
2.8314554
20
-0.1989816
11
2.8314554
21
-0.2444816
0
LINE
8
DEFAULT_255_2_778
10
2.8314554
20
-0.2444816
11
3.8945554
21
-0.2436816
0
LINE
8
DEFAULT_255_2_778
10
2.2906045
20
4.5582187
11
3.3500045
21
4.5582187
0
LINE
8
DEFAULT_255_2_778
10
3.3500045
20
4.5582187
11
3.3500045
21
4.0214187
0
LINE
8
DEFAULT_255_2_778
10
3.3500045
20
4.0214187
11
2.2906045
21
4.0214187
0
LINE
8
DEFAULT_255_2_778
10
2.2906045
20
4.0214187
11
2.2906045
21
4.5582187
0
LINE
8
DEFAULT_255_2_778
10
3.3508557
20
4.5127187
11
3.3508557
21
4.5582187
0
LINE
8
DEFAULT_255_2_778
10
3.3508557
20
4.5582187
11
2.2869557
21
4.5582187
0
LINE
8
DEFAULT_255_2_778
10
2.2869557
20
4.5582187
11
2.2869557
21
4.0214187
0
LINE
8
DEFAULT_255_2_778
10
2.2869557
20
4.0214187
11
2.3311557
21
4.0214187
0
LINE
8
DEFAULT_255_2_778
10
2.3311557
20
4.0214187
11
2.3311557
21
4.5135187
0
LINE
8
DEFAULT_255_2_778
10
2.3311557
20
4.5135187
11
3.3508557
21
4.5127187
0
LINE
8
DEFAULT_255_2_778
10
3.3058347
20
4.0666328
11
3.3058347
21
4.5241328
0
LINE
8
DEFAULT_255_2_778
10
3.3058347
20
4.5241328
11
3.2616347
21
4.5241328
0
LINE
8
DEFAULT_255_2_778
10
3.2616347
20
4.5241328
11
3.2616347
21
4.1119328
0
LINE
8
DEFAULT_255_2_778
10
3.2616347
20
4.1119328
11
2.3311347
21
4.1119328
0
LINE
8
DEFAULT_255_2_778
10
2.3311347
20
4.1119328
11
2.3311347
21
4.0666328
0
LINE
8
DEFAULT_255_2_778
10
2.3311347
20
4.0666328
11
3.3058347
21
4.0666328
0
LINE
8
DEFAULT_255_2_778
10
3.3061055
20
4.4786328
11
3.3061055
21
4.5241328
0
LINE
8
DEFAULT_255_2_778
10
3.3061055
20
4.5241328
11
2.3311055
21
4.5241328
0
LINE
8
DEFAULT_255_2_778
10
2.3311055
20
4.5241328
11
2.3311055
21
4.0666328
0
LINE
8
DEFAULT_255_2_778
10
2.3311055
20
4.0666328
11
2.3753055
21
4.0666328
0
LINE
8
DEFAULT_255_2_778
10
2.3753055
20
4.0666328
11
2.3753055
21
4.4789328
0
LINE
8
DEFAULT_255_2_778
10
2.3753055
20
4.4789328
11
3.3061055
21
4.4786328
0
LINE
8
DEFAULT_255_2_778
10
3.3500514
20
4.0213851
11
3.3500514
21
4.5581851
0
LINE
8
DEFAULT_255_2_778
10
3.3500514
20
4.5581851
11
3.3058514
21
4.5581851
0
LINE
8
DEFAULT_255_2_778
10
3.3058514
20
4.5581851
11
3.3058514
21
4.0660851
0
LINE
8
DEFAULT_255_2_778
10
3.3058514
20
4.0660851
11
2.2869514
21
4.0660851
0
LINE
8
DEFAULT_255_2_778
10
2.2869514
20
4.0660851
11
2.2869514
21
4.0207851
0
LINE
8
DEFAULT_255_2_778
10
2.2869514
20
4.0207851
11
3.3500514
21
4.0213851
0
ENDSEC
0
EOF