0
SECTION
2
HEADER
9
$MEASUREMENT
70
1
0
ENDSEC
0
SECTION
2
TABLES
0
TABLE
2
LTYPE
0
LTYPE
72
65
70
64
2
CONTINUOUS
3
______
73
0
40
0
0
ENDTAB
0
TABLE
2
LAYER
0
LAYER
2
DEFAULT_255_2_778
70
0
62
255
6
CONTINUOUS
0
ENDTAB
0
ENDSEC
0
SECTION
2
ENTITIES
0
ARC
8
DEFAULT_255_2_778
10
3.387428
20
13.2363227
40
0.3336063
50
275.9555662
51
337.6538328
0
ARC
8
DEFAULT_255_2_778
10
3.3875757
20
13.2036445
40
0.3011067
50
270.0498914
51
276.5728046
0
ARC
8
DEFAULT_255_2_778
10
3.3863163
20
13.1588998
40
0.2563665
50
251.9969278
51
270.3400477
0
ARC
8
DEFAULT_255_2_778
10
1.1017922
20
14.0496697
40
0.3336246
50
185.960585
51
247.6601652
0
ARC
8
DEFAULT_255_2_778
10
1.0687706
20
14.049418
40
0.3007721
50
180.0495319
51
186.5661305
0
ARC
8
DEFAULT_255_2_778
10
1.0241
20
14.050681
40
0.256106
50
161.961671
51
180.3407448
0
ARC
8
DEFAULT_255_2_778
10
1.9154833
20
16.3351823
40
0.3337679
50
95.9391449
51
157.653152
0
ARC
8
DEFAULT_255_2_778
10
1.9152908
20
16.3680737
40
0.3010504
50
90.0487591
51
96.5504324
0
ARC
8
DEFAULT_255_2_778
10
1.9165516
20
16.4126313
40
0.2564973
50
72.0074983
51
90.3388583
0
ARC
8
DEFAULT_255_2_778
10
4.2009025
20
15.5217978
40
0.3337456
50
5.9761239
51
67.6559514
0
ARC
8
DEFAULT_255_2_778
10
4.2339313
20
15.5220275
40
0.3008896
50
0.0496102
51
6.5874588
0
ARC
8
DEFAULT_255_2_778
10
4.2786266
20
15.520768
40
0.2561986
50
341.9969069
51
0.3399397
0
LINE
8
DEFAULT_255_2_778
10
3.3070817
20
12.9150851
11
0.9749817
21
13.7410851
0
LINE
8
DEFAULT_255_2_778
10
0.7805817
20
14.1299851
11
1.6067817
21
16.4620851
0
LINE
8
DEFAULT_255_2_778
10
1.9957817
20
16.6565851
11
4.3277817
21
15.8304851
0
LINE
8
DEFAULT_255_2_778
10
4.5222817
20
15.4415851
11
3.6962817
21
13.1094851
0
ARC
8
DEFAULT_255_2_778
10
7.7115131
20
9.1552114
40
0.333647
50
275.9236109
51
337.6573629
0
ARC
8
DEFAULT_255_2_778
10
7.7117243
20
9.1223384
40
0.3009444
50
270.0493571
51
276.5295242
0
ARC
8
DEFAULT_255_2_778
10
7.7104635
20
9.0777938
40
0.2564042
50
251.9722649
51
270.339663
0
ARC
8
DEFAULT_255_2_778
10
5.4264227
20
9.9661619
40
0.3336246
50
185.960585
51
247.6601652
0
ARC
8
DEFAULT_255_2_778
10
5.3934011
20
9.9659102
40
0.3007721
50
180.0495319
51
186.5661305
0
ARC
8
DEFAULT_255_2_778
10
5.3487305
20
9.9671733
40
0.256106
50
161.961671
51
180.3407448
0
ARC
8
DEFAULT_255_2_778
10
6.2398995
20
12.2516981
40
0.3337456
50
95.9761239
51
157.6559514
0
ARC
8
DEFAULT_255_2_778
10
6.2396698
20
12.2847269
40
0.3008896
50
90.0496102
51
96.5874588
0
ARC
8
DEFAULT_255_2_778
10
6.2409293
20
12.3294222
40
0.2561986
50
71.9969069
51
90.3399397
0
ARC
8
DEFAULT_255_2_778
10
8.5253746
20
11.4384236
40
0.3336063
50
5.9555662
51
67.6538328
0
ARC
8
DEFAULT_255_2_778
10
8.5580528
20
11.4385713
40
0.3011067
50
0.0498914
51
6.5728046
0
ARC
8
DEFAULT_255_2_778
10
8.6027975
20
11.437312
40
0.2563665
50
341.9969278
51
0.3400477
0
ARC
8
DEFAULT_255_2_778
10
3.0474334
20
6.9659891
40
0.3335818
50
275.9603539
51
337.675468
0
ARC
8
DEFAULT_255_2_778
10
3.0476023
20
6.9332535
40
0.3010229
50
270.0495642
51
276.5753905
0
ARC
8
DEFAULT_255_2_778
10
3.0463426
20
6.888573
40
0.2563469
50
251.9965289
51
270.3397632
0
ARC
8
DEFAULT_255_2_778
10
0.7618463
20
7.7822765
40
0.333647
50
185.9236109
51
247.6573629
0
ARC
8
DEFAULT_255_2_778
10
0.7289733
20
7.7820652
40
0.3009444
50
180.0493571
51
186.5295242
0
ARC
8
DEFAULT_255_2_778
10
0.6844287
20
7.783326
40
0.2564042
50
161.9722649
51
180.339663
0
ARC
8
DEFAULT_255_2_778
10
1.5752995
20
10.0677981
40
0.3337456
50
95.9761239
51
157.6559514
0
ARC
8
DEFAULT_255_2_778
10
1.5750698
20
10.1008269
40
0.3008896
50
90.0496102
51
96.5874588
0
ARC
8
DEFAULT_255_2_778
10
1.5763293
20
10.1455222
40
0.2561986
50
71.9969069
51
90.3399397
0
ARC
8
DEFAULT_255_2_778
10
3.860751
20
9.254609
40
0.3336288
50
5.9185949
51
67.6510297
0
ARC
8
DEFAULT_255_2_778
10
3.8933461
20
9.2547216
40
0.3012134
50
0.0487091
51
6.5366465
0
ARC
8
DEFAULT_255_2_778
10
3.9378987
20
9.2534592
40
0.2566652
50
342.007512
51
0.3389667
0
LINE
8
DEFAULT_255_2_778
10
7.6311122
20
8.8339773
11
5.2996122
21
9.6575773
0
LINE
8
DEFAULT_255_2_778
10
5.1052122
20
10.0464773
11
5.9312122
21
12.3785773
0
LINE
8
DEFAULT_255_2_778
10
6.3201122
20
12.5730773
11
8.6522122
21
11.7469773
0
LINE
8
DEFAULT_255_2_778
10
8.8466122
20
11.3580773
11
8.0206122
21
9.0259773
0
LINE
8
DEFAULT_255_2_778
10
2.9671122
20
6.6447773
11
0.6350122
21
7.4736773
0
LINE
8
DEFAULT_255_2_778
10
0.4406122
20
7.8626773
11
1.2666122
21
10.1946773
0
LINE
8
DEFAULT_255_2_778
10
1.6555122
20
10.3891773
11
3.9876122
21
9.5631773
0
LINE
8
DEFAULT_255_2_778
10
4.1820122
20
9.1741773
11
3.3560122
21
6.8421773
0
ARC
8
DEFAULT_255_2_778
10
7.3715452
20
3.4706478
40
0.3336288
50
275.9185949
51
337.6510297
0
ARC
8
DEFAULT_255_2_778
10
7.3716578
20
3.4380526
40
0.3012134
50
270.0487091
51
276.5366465
0
ARC
8
DEFAULT_255_2_778
10
7.3703954
20
3.3935
40
0.2566652
50
252.007512
51
270.3389667
0
ARC
8
DEFAULT_255_2_778
10
5.085924
20
4.2839712
40
0.3336246
50
185.960585
51
247.6601652
0
ARC
8
DEFAULT_255_2_778
10
5.0529024
20
4.2837194
40
0.3007721
50
180.0495319
51
186.5661305
0
ARC
8
DEFAULT_255_2_778
10
5.0082318
20
4.2849825
40
0.256106
50
161.961671
51
180.3407448
0
ARC
8
DEFAULT_255_2_778
10
5.8992981
20
6.569576
40
0.3336246
50
95.960585
51
157.6601652
0
ARC
8
DEFAULT_255_2_778
10
5.8990464
20
6.6025976
40
0.3007721
50
90.0495319
51
96.5661305
0
ARC
8
DEFAULT_255_2_778
10
5.9003095
20
6.6472682
40
0.256106
50
71.961671
51
90.3407448
0
ARC
8
DEFAULT_255_2_778
10
8.1849017
20
5.7562077
40
0.3335818
50
5.9603539
51
67.675468
0
ARC
8
DEFAULT_255_2_778
10
8.2176373
20
5.7563766
40
0.3010229
50
0.0495642
51
6.5753905
0
ARC
8
DEFAULT_255_2_778
10
8.2623178
20
5.7551169
40
0.2563469
50
341.9965289
51
0.3397632
0
LINE
8
DEFAULT_255_2_778
10
7.2911135
20
3.1493865
11
4.9591135
21
3.9753865
0
LINE
8
DEFAULT_255_2_778
10
4.7647135
20
4.3642865
11
5.5907135
21
6.6963865
0
LINE
8
DEFAULT_255_2_778
10
5.9796135
20
6.8907865
11
8.3116135
21
6.0647865
0
LINE
8
DEFAULT_255_2_778
10
8.5061135
20
5.6758865
11
7.6801135
21
3.3437865
0
ARC
8
DEFAULT_255_2_778
10
6.2052375
20
0.0693969
40
0.3335818
50
275.9603539
51
337.675468
0
ARC
8
DEFAULT_255_2_778
10
6.2054064
20
0.0366612
40
0.3010229
50
270.0495642
51
276.5753905
0
ARC
8
DEFAULT_255_2_778
10
6.2041467
20
-0.0080192
40
0.2563469
50
251.9965289
51
270.3397632
0
ARC
8
DEFAULT_255_2_778
10
3.9196955
20
0.8828723
40
0.3337456
50
185.9761239
51
247.6559514
0
ARC
8
DEFAULT_255_2_778
10
3.8866667
20
0.8826427
40
0.3008896
50
180.0496102
51
186.5874588
0
ARC
8
DEFAULT_255_2_778
10
3.8419715
20
0.8839022
40
0.2561986
50
161.9969069
51
180.3399397
0
ARC
8
DEFAULT_255_2_778
10
4.733001
20
3.1683746
40
0.3336246
50
95.960585
51
157.6601652
0
ARC
8
DEFAULT_255_2_778
10
4.7327493
20
3.2013962
40
0.3007721
50
90.0495319
51
96.5661305
0
ARC
8
DEFAULT_255_2_778
10
4.7340123
20
3.2460668
40
0.256106
50
71.961671
51
90.3407448
0
ARC
8
DEFAULT_255_2_778
10
7.0185787
20
2.3550314
40
0.3336063
50
5.9555662
51
67.6538328
0
ARC
8
DEFAULT_255_2_778
10
7.0512569
20
2.3551791
40
0.3011067
50
0.0498914
51
6.5728046
0
ARC
8
DEFAULT_255_2_778
10
7.0960016
20
2.3539197
40
0.2563665
50
341.9969278
51
0.3400477
0
LINE
8
DEFAULT_255_2_778
10
6.1249164
20
-0.2518149
11
3.7928164
21
0.5741851
0
LINE
8
DEFAULT_255_2_778
10
3.5983164
20
0.9630851
11
4.4244164
21
3.2951851
0
LINE
8
DEFAULT_255_2_778
10
4.8133164
20
3.4895851
11
7.1454164
21
2.6635851
0
LINE
8
DEFAULT_255_2_778
10
7.3398164
20
2.2746851
11
6.5138164
21
-0.0573149
0
ARC
8
DEFAULT_255_2_778
10
2.7561627
20
1.2841227
40
0.3336063
50
275.9555662
51
337.6538328
0
ARC
8
DEFAULT_255_2_778
10
2.7563104
20
1.2514445
40
0.3011067
50
270.0498914
51
276.5728046
0
ARC
8
DEFAULT_255_2_778
10
2.755051
20
1.2066999
40
0.2563665
50
251.9969278
51
270.3400477
0
ARC
8
DEFAULT_255_2_778
10
0.4705956
20
2.0975723
40
0.3337456
50
185.9761239
51
247.6559514
0
ARC
8
DEFAULT_255_2_778
10
0.4375668
20
2.0973427
40
0.3008896
50
180.0496102
51
186.5874588
0
ARC
8
DEFAULT_255_2_778
10
0.3928715
20
2.0986022
40
0.2561986
50
161.9969069
51
180.3399397
0
ARC
8
DEFAULT_255_2_778
10
1.283901
20
4.3830746
40
0.3336246
50
95.960585
51
157.6601652
0
ARC
8
DEFAULT_255_2_778
10
1.2836493
20
4.4160962
40
0.3007721
50
90.0495319
51
96.5661305
0
ARC
8
DEFAULT_255_2_778
10
1.2849123
20
4.4607668
40
0.256106
50
71.961671
51
90.3407448
0
ARC
8
DEFAULT_255_2_778
10
3.5694787
20
3.5697314
40
0.3336063
50
5.9555662
51
67.6538328
0
ARC
8
DEFAULT_255_2_778
10
3.602157
20
3.5698791
40
0.3011067
50
0.0498914
51
6.5728046
0
ARC
8
DEFAULT_255_2_778
10
3.6469016
20
3.5686198
40
0.2563665
50
341.9969278
51
0.3400477
0
LINE
8
DEFAULT_255_2_778
10
2.6758164
20
0.9628851
11
0.3437164
21
1.7888851
0
LINE
8
DEFAULT_255_2_778
10
0.1492164
20
2.1777851
11
0.9753164
21
4.5098851
0
LINE
8
DEFAULT_255_2_778
10
1.3642164
20
4.7042851
11
3.6963164
21
3.8782851
0
LINE
8
DEFAULT_255_2_778
10
3.8907164
20
3.4893851
11
3.0647164
21
1.1572851
0
ENDSEC
0
EOF