0
SECTION
2
HEADER
9
$MEASUREMENT
70
1
0
ENDSEC
0
SECTION
2
TABLES
0
TABLE
2
LTYPE
0
LTYPE
72
65
70
64
2
CONTINUOUS
3
______
73
0
40
0
0
ENDTAB
0
TABLE
2
LAYER
0
LAYER
2
DEFAULT_255_2_778
70
0
62
255
6
CONTINUOUS
0
ENDTAB
0
ENDSEC
0
SECTION
2
ENTITIES
0
LINE
8
DEFAULT_255_2_778
10
6.4161571
20
4.6982414
11
8.2047571
21
3.7060414
0
LINE
8
DEFAULT_255_2_778
10
8.2047571
20
3.7060414
11
4.9260571
21
1.8859414
0
LINE
8
DEFAULT_255_2_778
10
4.9260571
20
1.8859414
11
1.6536571
21
3.7086414
0
LINE
8
DEFAULT_255_2_778
10
1.6536571
20
3.7086414
11
1.6536571
21
5.6938414
0
LINE
8
DEFAULT_255_2_778
10
1.6536571
20
5.6938414
11
4.9260571
21
3.8740414
0
LINE
8
DEFAULT_255_2_778
10
4.9260571
20
3.8740414
11
6.4161571
21
4.6982414
0
LINE
8
DEFAULT_255_2_778
10
8.2020279
20
7.6784212
11
8.2020279
21
5.6932212
0
LINE
8
DEFAULT_255_2_778
10
8.2020279
20
5.6932212
11
4.9233279
21
3.8732212
0
LINE
8
DEFAULT_255_2_778
10
4.9233279
20
3.8732212
11
1.6507279
21
5.6932212
0
LINE
8
DEFAULT_255_2_778
10
1.6507279
20
5.6932212
11
3.4329279
21
6.6854212
0
LINE
8
DEFAULT_255_2_778
10
3.4329279
20
6.6854212
11
4.9260279
21
5.8581212
0
LINE
8
DEFAULT_255_2_778
10
4.9260279
20
5.8581212
11
8.2020279
21
7.6784212
0
LINE
8
DEFAULT_255_2_778
10
6.4161071
20
4.6981831
11
8.2047071
21
3.7059831
0
LINE
8
DEFAULT_255_2_778
10
8.2047071
20
3.7059831
11
8.2047071
21
5.6911831
0
LINE
8
DEFAULT_255_2_778
10
8.2047071
20
5.6911831
11
6.4161071
21
4.6981831
0
ARC
8
DEFAULT_255_2_778
10
1.0862596
20
6.8599087
40
0.8217598
50
90.2491959
51
135.3166205
0
ARC
8
DEFAULT_255_2_778
10
1.0867621
20
6.8597928
40
0.8221986
50
135.335501
51
179.9799994
0
ARC
8
DEFAULT_255_2_778
10
1.0882411
20
6.8601082
40
0.8236777
50
180.0019775
51
180.4206737
0
ARC
8
DEFAULT_255_2_778
10
1.0898604
20
0.5636663
40
0.8253063
50
180.5002423
51
269.9253801
0
ARC
8
DEFAULT_255_2_778
10
7.379245
20
0.563571
40
0.8252412
50
270.4957672
51
359.9298572
0
ARC
8
DEFAULT_255_2_778
10
10.2052756
20
3.732829
40
0.9417914
50
251.4532656
51
270.4021323
0
ARC
8
DEFAULT_255_2_778
10
10.1935191
20
3.6860947
40
0.8937525
50
247.7212181
51
251.2148335
0
ARC
8
DEFAULT_255_2_778
10
10.1054664
20
3.4809286
40
0.6705302
50
220.1294492
51
248.0372444
0
ARC
8
DEFAULT_255_2_778
10
10.2638477
20
3.6339959
40
0.890407
50
199.7056841
51
221.0917713
0
ARC
8
DEFAULT_255_2_778
10
10.5028048
20
3.6945254
40
1.1360249
50
180.1797849
51
198.5158849
0
ARC
8
DEFAULT_255_2_778
10
10.4013595
20
3.7045923
40
1.0346638
50
179.9992621
51
180.7548864
0
ARC
8
DEFAULT_255_2_778
10
10.4030619
20
3.7046375
40
1.0363662
50
160.6420424
51
180.0017653
0
ARC
8
DEFAULT_255_2_778
10
10.2008492
20
3.7845166
40
0.8191503
50
137.9599243
51
161.2251161
0
ARC
8
DEFAULT_255_2_778
10
10.1423077
20
3.8496151
40
0.7321367
50
113.1576786
51
138.6756008
0
ARC
8
DEFAULT_255_2_778
10
10.1971413
20
3.6920615
40
0.8986338
50
89.8615882
51
112.4215917
0
ARC
8
DEFAULT_255_2_778
10
10.2115723
20
3.4855006
40
1.1052602
50
89.9993138
51
90.635567
0
ARC
8
DEFAULT_255_2_778
10
10.2256249
20
3.3532918
40
1.2375486
50
76.8058321
51
90.6500051
0
ARC
8
DEFAULT_255_2_778
10
10.3444917
20
3.8584687
40
0.7185758
50
57.4334805
51
76.8394362
0
ARC
8
DEFAULT_255_2_778
10
10.2200358
20
3.4010661
40
0.8395529
50
55.5478745
51
83.0973436
0
ARC
8
DEFAULT_255_2_778
10
10.2474045
20
3.5300398
40
0.7083209
50
84.0413567
51
90.0015332
0
ARC
8
DEFAULT_255_2_778
10
10.228109
20
3.85946
40
0.3793908
50
87.0875952
51
142.6820959
0
ARC
8
DEFAULT_255_2_778
10
10.3673235
20
3.7629435
40
0.5486709
50
143.4798307
51
173.5822095
0
ARC
8
DEFAULT_255_2_778
10
10.767557
20
3.6956089
40
0.9541806
50
172.2505156
51
180.2490896
0
ARC
8
DEFAULT_255_2_778
10
10.6171754
20
3.6773983
40
0.8039129
50
178.9977034
51
196.5039321
0
ARC
8
DEFAULT_255_2_778
10
10.3190379
20
3.5939393
40
0.4943716
50
197.0457254
51
217.4159444
0
ARC
8
DEFAULT_255_2_778
10
10.2308516
20
3.5292159
40
0.3850103
50
217.7396786
51
272.4612686
0
ARC
8
DEFAULT_255_2_778
10
10.2363907
20
3.9409092
40
0.7964244
50
270.7910082
51
304.5714342
0
ARC
8
DEFAULT_255_2_778
10
10.1303468
20
4.1309066
40
1.0132521
50
303.4125883
51
303.8660996
0
ARC
8
DEFAULT_255_2_778
10
10.3276997
20
3.5595952
40
0.7572464
50
279.4477636
51
302.2060064
0
ARC
8
DEFAULT_255_2_778
10
10.2206787
20
4.1080484
40
1.3159192
50
269.6040732
51
280.1244678
0
ARC
8
DEFAULT_255_2_778
10
12.3195729
20
3.3259433
40
0.5347385
50
248.382797
51
271.3836848
0
ARC
8
DEFAULT_255_2_778
10
12.2600879
20
3.1559685
40
0.3548798
50
206.9992235
51
247.2011808
0
ARC
8
DEFAULT_255_2_778
10
11.4989079
20
3.4049732
40
0.6051424
50
279.1233353
51
317.3348664
0
ARC
8
DEFAULT_255_2_778
10
11.4164914
20
3.7847853
40
0.9934427
50
269.6536157
51
280.3432787
0
ARC
8
DEFAULT_255_2_778
10
11.4080476
20
3.3415074
40
0.550152
50
270.0048107
51
270.253899
0
ARC
8
DEFAULT_255_2_778
10
11.4088354
20
3.3458807
40
0.5545258
50
249.152037
51
269.9233737
0
ARC
8
DEFAULT_255_2_778
10
11.3564454
20
3.2207683
40
0.4189832
50
223.6507289
51
249.7583531
0
ARC
8
DEFAULT_255_2_778
10
11.3611403
20
3.2428434
40
0.437803
50
199.8253405
51
225.3172128
0
ARC
8
DEFAULT_255_2_778
10
11.4563499
20
3.2907094
40
0.5437528
50
177.8339757
51
201.1677197
0
ARC
8
DEFAULT_255_2_778
10
11.3551949
20
3.3226508
40
0.442356
50
140.2920631
51
181.4754548
0
ARC
8
DEFAULT_255_2_778
10
11.6116992
20
3.0724979
40
0.8000143
50
115.4364287
51
138.2453894
0
ARC
8
DEFAULT_255_2_778
10
11.8313225
20
2.616942
40
1.3057427
50
100.8922677
51
115.5535006
0
ARC
8
DEFAULT_255_2_778
10
11.9202634
20
2.3380599
40
1.5967829
50
92.5118484
51
102.1353272
0
ARC
8
DEFAULT_255_2_778
10
12.1999382
20
-2.1352848
40
6.0786581
50
92.923741
51
93.2975763
0
ARC
8
DEFAULT_255_2_778
10
11.4666316
20
3.9280061
40
0.4233195
50
1.0090224
51
22.9329862
0
ARC
8
DEFAULT_255_2_778
10
11.6587085
20
4.0050762
40
0.2164279
50
23.9562338
51
44.4585262
0
ARC
8
DEFAULT_255_2_778
10
11.652279
20
3.956336
40
0.2569453
50
51.2275847
51
81.8778238
0
ARC
8
DEFAULT_255_2_778
10
11.5826451
20
3.6232732
40
0.5969065
50
79.7772475
51
90.4568652
0
ARC
8
DEFAULT_255_2_778
10
11.5930442
20
3.3685725
40
0.8517231
50
91.0197881
51
107.624171
0
ARC
8
DEFAULT_255_2_778
10
11.8229248
20
2.5990895
40
1.6547485
50
107.1433184
51
115.7785117
0
ARC
8
DEFAULT_255_2_778
10
11.7754436
20
2.9690185
40
1.6343736
50
100.7398428
51
115.6882187
0
ARC
8
DEFAULT_255_2_778
10
11.7013595
20
3.3085293
40
1.2870395
50
90.367568
51
100.3160945
0
ARC
8
DEFAULT_255_2_778
10
11.6998854
20
3.3455176
40
1.2500432
50
89.9999939
51
90.3108765
0
ARC
8
DEFAULT_255_2_778
10
11.7126214
20
3.7789159
40
0.8167441
50
73.1654075
51
90.8934762
0
ARC
8
DEFAULT_255_2_778
10
11.799826
20
4.0779394
40
0.5052897
50
12.4556801
51
72.8101909
0
ARC
8
DEFAULT_255_2_778
10
11.2788261
20
3.9195712
40
1.0490365
50
0.8813701
51
14.7649428
0
ARC
8
DEFAULT_255_2_778
10
10.8330506
20
3.895258
40
1.495235
50
359.9886073
51
1.5501767
0
ARC
8
DEFAULT_255_2_778
10
12.4979333
20
3.2778861
40
0.1651602
50
180.7026467
51
212.206314
0
ARC
8
DEFAULT_255_2_778
10
12.6410804
20
3.4337324
40
0.3735009
50
220.7632304
51
224.9433205
0
ARC
8
DEFAULT_255_2_778
10
12.4190268
20
3.2100938
40
0.0583678
50
223.5369758
51
254.4560603
0
ARC
8
DEFAULT_255_2_778
10
12.4898849
20
3.5501419
40
0.4056118
50
257.6867315
51
269.293778
0
ARC
8
DEFAULT_255_2_778
10
11.9740736
20
2.3358315
40
1.310755
50
93.6957108
51
101.2618235
0
ARC
8
DEFAULT_255_2_778
10
11.98545
20
2.2788097
40
1.3689008
50
101.2627189
51
102.2463309
0
ARC
8
DEFAULT_255_2_778
10
11.852349
20
2.8977652
40
0.7357981
50
102.3411416
51
116.1656695
0
ARC
8
DEFAULT_255_2_778
10
11.7256367
20
3.1937411
40
0.4146169
50
118.4863304
51
139.4731909
0
ARC
8
DEFAULT_255_2_778
10
11.5560762
20
3.3396558
40
0.1909192
50
139.6919908
51
179.9987769
0
ARC
8
DEFAULT_255_2_778
10
11.5569524
20
3.3396728
40
0.1917954
50
180.0038668
51
180.9894852
0
ARC
8
DEFAULT_255_2_778
10
11.5710143
20
3.3225654
40
0.2062906
50
176.1655742
51
219.8672353
0
ARC
8
DEFAULT_255_2_778
10
11.5598412
20
3.3423875
40
0.2116075
50
225.9372694
51
267.4325976
0
ARC
8
DEFAULT_255_2_778
10
11.5987605
20
3.5919539
40
0.4634953
50
264.0062508
51
270.176158
0
ARC
8
DEFAULT_255_2_778
10
11.6154657
20
3.4736818
40
0.3455591
50
267.4656313
51
269.9980521
0
ARC
8
DEFAULT_255_2_778
10
11.6053601
20
3.5250889
40
0.3970945
50
271.4565689
51
312.2234111
0
ARC
8
DEFAULT_255_2_778
10
11.4793235
20
3.7001017
40
0.6118783
50
309.9493711
51
312.0801397
0
ARC
8
DEFAULT_255_2_778
10
13.2800571
20
3.367077
40
0.5757311
50
270.0056722
51
270.4108597
0
ARC
8
DEFAULT_255_2_778
10
13.2793166
20
3.3521713
40
0.560826
50
249.2679768
51
270.0814683
0
ARC
8
DEFAULT_255_2_778
10
13.2247332
20
3.1868605
40
0.3869696
50
221.6952215
51
248.1617746
0
ARC
8
DEFAULT_255_2_778
10
13.2429042
20
3.2210651
40
0.4235033
50
200.253265
51
223.5156574
0
ARC
8
DEFAULT_255_2_778
10
13.3626726
20
3.2578179
40
0.5486337
50
180.7474739
51
199.5243219
0
ARC
8
DEFAULT_255_2_778
10
14.5300964
20
3.4137479
40
1.2911151
50
179.8529887
51
185.4451912
0
ARC
8
DEFAULT_255_2_778
10
14.7454437
20
3.4361106
40
1.507614
50
185.5146121
51
186.7518684
0
ARC
8
DEFAULT_255_2_778
10
13.3826516
20
3.2638299
40
0.134458
50
182.1179866
51
220.0229739
0
ARC
8
DEFAULT_255_2_778
10
13.3566908
20
3.2557342
40
0.1098736
50
225.5044882
51
269.8929444
0
ARC
8
DEFAULT_255_2_778
10
13.4690342
20
4.4253373
40
1.2844172
50
264.9729368
51
269.9665373
0
ARC
8
DEFAULT_255_2_778
10
13.4683418
20
4.3658307
40
1.2249104
50
269.9973007
51
271.5364661
0
ARC
8
DEFAULT_255_2_778
10
15.2196729
20
3.3259433
40
0.5347385
50
248.382797
51
271.3836848
0
ARC
8
DEFAULT_255_2_778
10
15.1601879
20
3.1559685
40
0.3548798
50
206.9992235
51
247.2011808
0
ARC
8
DEFAULT_255_2_778
10
14.3990079
20
3.4049732
40
0.6051424
50
279.1233353
51
317.3348664
0
ARC
8
DEFAULT_255_2_778
10
14.3165914
20
3.7847853
40
0.9934427
50
269.6536157
51
280.3432787
0
ARC
8
DEFAULT_255_2_778
10
14.3081476
20
3.3415074
40
0.550152
50
270.0048107
51
270.253899
0
ARC
8
DEFAULT_255_2_778
10
14.3089354
20
3.3458807
40
0.5545258
50
249.152037
51
269.9233737
0
ARC
8
DEFAULT_255_2_778
10
14.2565453
20
3.220768
40
0.4189829
50
223.6507159
51
249.7583575
0
ARC
8
DEFAULT_255_2_778
10
14.2601654
20
3.2421568
40
0.4365591
50
199.7884109
51
225.3541493
0
ARC
8
DEFAULT_255_2_778
10
14.356798
20
3.2900159
40
0.5438276
50
177.7611509
51
201.0863359
0
ARC
8
DEFAULT_255_2_778
10
14.2540347
20
3.3231914
40
0.4408107
50
140.2165676
51
181.5509221
0
ARC
8
DEFAULT_255_2_778
10
14.5134761
20
3.0706604
40
0.8022653
50
115.4688705
51
138.2129791
0
ARC
8
DEFAULT_255_2_778
10
14.7320046
20
2.6163219
40
1.3064238
50
100.9035846
51
115.5529317
0
ARC
8
DEFAULT_255_2_778
10
14.820819
20
2.3358671
40
1.5989804
50
92.5139837
51
102.1277624
0
ARC
8
DEFAULT_255_2_778
10
15.1003954
20
-2.1363706
40
6.0797453
50
92.9237575
51
93.2975285
0
ARC
8
DEFAULT_255_2_778
10
14.3659331
20
3.9276466
40
0.4244243
50
1.0549398
51
22.9225708
0
ARC
8
DEFAULT_255_2_778
10
14.5595774
20
4.0053106
40
0.2158578
50
23.9553797
51
44.5198857
0
ARC
8
DEFAULT_255_2_778
10
14.5526698
20
3.9567139
40
0.2565938
50
51.190551
51
81.9067159
0
ARC
8
DEFAULT_255_2_778
10
14.48328
20
3.6249595
40
0.5952196
50
79.7892248
51
90.4518961
0
ARC
8
DEFAULT_255_2_778
10
14.4935139
20
3.3687354
40
0.8515562
50
91.004489
51
107.6250165
0
ARC
8
DEFAULT_255_2_778
10
14.7238971
20
2.5986341
40
1.6553205
50
107.1540214
51
115.7832613
0
ARC
8
DEFAULT_255_2_778
10
14.6745401
20
2.9735327
40
1.6296106
50
100.5597569
51
115.7062102
0
ARC
8
DEFAULT_255_2_778
10
14.6017479
20
3.3113856
40
1.2841758
50
90.0563254
51
100.1294629
0
ARC
8
DEFAULT_255_2_778
10
14.6132324
20
3.7787208
40
0.8169394
50
73.1673997
51
90.8940337
0
ARC
8
DEFAULT_255_2_778
10
14.7005101
20
4.0780161
40
0.5052036
50
12.4489341
51
72.8123604
0
ARC
8
DEFAULT_255_2_778
10
14.1791152
20
3.9195794
40
1.0493474
50
0.8806644
51
14.7600087
0
ARC
8
DEFAULT_255_2_778
10
13.733635
20
3.8952725
40
1.4952505
50
359.9880531
51
1.5496062
0
ARC
8
DEFAULT_255_2_778
10
15.3985333
20
3.2778861
40
0.1651602
50
180.7026467
51
212.206314
0
ARC
8
DEFAULT_255_2_778
10
15.3234498
20
3.2247288
40
0.073466
50
208.3342894
51
254.7173088
0
ARC
8
DEFAULT_255_2_778
10
15.3903975
20
3.5484991
40
0.4039668
50
257.6630083
51
269.3174814
0
ARC
8
DEFAULT_255_2_778
10
14.8721787
20
2.3175617
40
1.329149
50
93.7527069
51
102.2269498
0
ARC
8
DEFAULT_255_2_778
10
14.747949
20
2.8977652
40
0.7357981
50
102.3411416
51
116.1656695
0
ARC
8
DEFAULT_255_2_778
10
14.6212367
20
3.1937411
40
0.4146169
50
118.4863304
51
139.4731909
0
ARC
8
DEFAULT_255_2_778
10
14.4516762
20
3.3396558
40
0.1909192
50
139.6919908
51
179.9987769
0
ARC
8
DEFAULT_255_2_778
10
14.4525524
20
3.3396728
40
0.1917954
50
180.0038668
51
180.9894852
0
ARC
8
DEFAULT_255_2_778
10
14.4665648
20
3.3225857
40
0.2062398
50
176.1702803
51
219.8863664
0
ARC
8
DEFAULT_255_2_778
10
14.4555047
20
3.342456
40
0.2116776
50
225.9443396
51
267.4233821
0
ARC
8
DEFAULT_255_2_778
10
14.4943638
20
3.5915159
40
0.4630573
50
264.003428
51
270.1759139
0
ARC
8
DEFAULT_255_2_778
10
14.5110657
20
3.4736818
40
0.3455591
50
267.4656313
51
269.9980521
0
ARC
8
DEFAULT_255_2_778
10
14.5009601
20
3.5250889
40
0.3970945
50
271.4565689
51
312.2234111
0
ARC
8
DEFAULT_255_2_778
10
14.3749235
20
3.7001017
40
0.6118783
50
309.9493711
51
312.0801397
0
ARC
8
DEFAULT_255_2_778
10
16.0822712
20
3.324348
40
0.5331636
50
248.7124131
51
271.473954
0
ARC
8
DEFAULT_255_2_778
10
16.0222789
20
3.150583
40
0.3495484
50
221.6982504
51
247.5344125
0
ARC
8
DEFAULT_255_2_778
10
16.1353694
20
3.2290944
40
0.4864984
50
181.448657
51
219.741978
0
ARC
8
DEFAULT_255_2_778
10
16.3001985
20
3.2478696
40
0.6519131
50
179.9832032
51
182.7321283
0
ARC
8
DEFAULT_255_2_778
10
16.2506861
20
3.2768809
40
0.1688671
50
183.7757511
51
213.262777
0
ARC
8
DEFAULT_255_2_778
10
16.1798557
20
3.246364
40
0.0938551
50
221.4291105
51
265.8021826
0
ARC
8
DEFAULT_255_2_778
10
16.2906
20
3.8999591
40
0.7563984
50
261.054626
51
269.9837557
0
ARC
8
DEFAULT_255_2_778
10
18.8268462
20
4.6496754
40
1.8586612
50
262.1334113
51
270.4050397
0
ARC
8
DEFAULT_255_2_778
10
18.6952299
20
3.7354767
40
0.9350665
50
248.6157209
51
262.4553622
0
ARC
8
DEFAULT_255_2_778
10
18.5496516
20
3.3513817
40
0.5243524
50
235.7687764
51
248.1247533
0
ARC
8
DEFAULT_255_2_778
10
18.4701109
20
3.4933057
40
0.2722388
50
228.770754
51
242.7885619
0
ARC
8
DEFAULT_255_2_778
10
17.4632926
20
1.6105225
40
1.8628793
50
60.0762107
51
61.7293016
0
ARC
8
DEFAULT_255_2_778
10
18.662224
20
3.7014545
40
0.5474084
50
240.490172
51
255.8048344
0
ARC
8
DEFAULT_255_2_778
10
18.958869
20
4.3722364
40
1.2764029
50
250.2707161
51
252.5612455
0
ARC
8
DEFAULT_255_2_778
10
18.804837
20
3.8770074
40
0.7577759
50
252.4507825
51
260.3019683
0
ARC
8
DEFAULT_255_2_778
10
18.8252041
20
3.9343899
40
0.8178355
50
259.5726756
51
269.7745134
0
ARC
8
DEFAULT_255_2_778
10
18.834006
20
3.6000593
40
0.483648
50
268.5758383
51
284.2376603
0
ARC
8
DEFAULT_255_2_778
10
18.9139354
20
3.2889918
40
0.1624799
50
283.8959717
51
313.3089186
0
ARC
8
DEFAULT_255_2_778
10
18.912403
20
3.2999173
40
0.1715998
50
311.1785163
51
2.1184972
0
ARC
8
DEFAULT_255_2_778
10
18.9224303
20
3.3161343
40
0.1617568
50
356.5005203
51
41.7099092
0
ARC
8
DEFAULT_255_2_778
10
18.8335375
20
3.1906827
40
0.3134926
50
48.0293984
51
73.8216396
0
ARC
8
DEFAULT_255_2_778
10
19.1186449
20
4.8270943
40
1.3295433
50
241.4285703
51
253.0568373
0
ARC
8
DEFAULT_255_2_778
10
18.694266
20
4.0492488
40
0.4434622
50
213.5038454
51
241.5178432
0
ARC
8
DEFAULT_255_2_778
10
18.716022
20
4.0251948
40
0.4494712
50
186.9194779
51
209.4127296
0
ARC
8
DEFAULT_255_2_778
10
19.3496416
20
4.1371882
40
1.0925239
50
184.8845999
51
188.7470629
0
ARC
8
DEFAULT_255_2_778
10
18.9077465
20
4.0387669
40
0.6466835
50
160.7323294
51
179.5221078
0
ARC
8
DEFAULT_255_2_778
10
18.7310965
20
4.0982853
40
0.460293
50
134.1845301
51
160.4700886
0
ARC
8
DEFAULT_255_2_778
10
18.8202981
20
3.9918274
40
0.598892
50
111.1013672
51
133.2056132
0
ARC
8
DEFAULT_255_2_778
10
18.8569278
20
3.85658
40
0.7384006
50
91.1373626
51
109.9747697
0
ARC
8
DEFAULT_255_2_778
10
18.8930844
20
3.3368859
40
1.2589751
50
89.9635442
51
92.3131412
0
ARC
8
DEFAULT_255_2_778
10
18.8860483
20
3.1176771
40
1.4782044
50
77.3254428
51
89.6962244
0
ARC
8
DEFAULT_255_2_778
10
18.5497302
20
2.0962771
40
2.5506293
50
74.758444
51
74.988281
0
ARC
8
DEFAULT_255_2_778
10
18.9388654
20
3.4603108
40
1.1324001
50
67.3871803
51
75.6114548
0
ARC
8
DEFAULT_255_2_778
10
19.2151558
20
4.1322059
40
0.4059365
50
56.2324423
51
66.9221579
0
ARC
8
DEFAULT_255_2_778
10
18.8945648
20
3.5162577
40
0.7743797
50
48.8054101
51
57.1706908
0
ARC
8
DEFAULT_255_2_778
10
19.0170694
20
3.7170386
40
0.5392835
50
56.5426037
51
70.5225986
0
ARC
8
DEFAULT_255_2_778
10
18.9330727
20
3.6075048
40
0.6719127
50
66.8817788
51
78.5996226
0
ARC
8
DEFAULT_255_2_778
10
18.929802
20
3.5870388
40
0.692622
50
78.6690474
51
89.9517297
0
ARC
8
DEFAULT_255_2_778
10
18.9136775
20
3.8508291
40
0.429157
50
87.7687891
51
114.8947481
0
ARC
8
DEFAULT_255_2_778
10
18.8456413
20
4.025451
40
0.2424075
50
117.6833001
51
120.479358
0
ARC
8
DEFAULT_255_2_778
10
18.7990502
20
4.0961633
40
0.1578927
50
118.9240184
51
180.044716
0
ARC
8
DEFAULT_255_2_778
10
18.8006284
20
4.0960488
40
0.1594709
50
180.0031592
51
182.2957743
0
ARC
8
DEFAULT_255_2_778
10
18.789106
20
4.077953
40
0.1482835
50
175.4714961
51
230.8493674
0
ARC
8
DEFAULT_255_2_778
10
19.0946624
20
4.5421884
40
0.7034536
50
235.4271869
51
248.8182754
0
ARC
8
DEFAULT_255_2_778
10
19.3767891
20
5.5723697
40
1.7696333
50
254.3356468
51
256.5117949
0
ARC
8
DEFAULT_255_2_778
10
18.6365865
20
2.6143283
40
1.2798159
50
75.0390095
51
75.1758938
0
ARC
8
DEFAULT_255_2_778
10
19.017242
20
3.2919291
40
0.5163825
50
44.9676837
51
65.2188468
0
ARC
8
DEFAULT_255_2_778
10
19.0805006
20
3.3594709
40
0.4239057
50
20.4906221
51
44.5512776
0
ARC
8
DEFAULT_255_2_778
10
18.9991884
20
3.3296212
40
0.5105224
50
357.1638693
51
20.4342146
0
ARC
8
DEFAULT_255_2_778
10
18.7804751
20
3.2755086
40
0.7291814
50
0.0174007
51
2.2676621
0
ARC
8
DEFAULT_255_2_778
10
19.0262356
20
3.2626335
40
0.4835982
50
333.1483098
51
1.5518372
0
ARC
8
DEFAULT_255_2_778
10
19.0933749
20
3.2487569
40
0.4178156
50
289.856513
51
330.6866918
0
ARC
8
DEFAULT_255_2_778
10
18.9275716
20
3.6532448
40
0.8547742
50
275.8594309
51
291.1003569
0
ARC
8
DEFAULT_255_2_778
10
18.8460778
20
4.2989767
40
1.5055283
50
269.7681449
51
276.4358672
0
ARC
8
DEFAULT_255_2_778
10
20.3658571
20
3.367077
40
0.5757311
50
270.0056722
51
270.4108597
0
ARC
8
DEFAULT_255_2_778
10
20.3651166
20
3.3521713
40
0.560826
50
249.2679768
51
270.0814683
0
ARC
8
DEFAULT_255_2_778
10
20.3105332
20
3.1868605
40
0.3869696
50
221.6952215
51
248.1617746
0
ARC
8
DEFAULT_255_2_778
10
20.3287042
20
3.2210651
40
0.4235033
50
200.253265
51
223.5156574
0
ARC
8
DEFAULT_255_2_778
10
20.4484726
20
3.2578179
40
0.5486337
50
180.7474739
51
199.5243219
0
ARC
8
DEFAULT_255_2_778
10
21.6208964
20
3.4137479
40
1.2911151
50
179.8529887
51
185.4451912
0
ARC
8
DEFAULT_255_2_778
10
21.8362437
20
3.4361106
40
1.507614
50
185.5146121
51
186.7518684
0
ARC
8
DEFAULT_255_2_778
10
20.4740771
20
3.2641979
40
0.135097
50
182.2641494
51
219.9991843
0
ARC
8
DEFAULT_255_2_778
10
20.4474217
20
3.2553217
40
0.109461
50
225.4163315
51
269.928731
0
ARC
8
DEFAULT_255_2_778
10
20.5619303
20
4.4591657
40
1.3182994
50
265.0110202
51
267.5331772
0
ARC
8
DEFAULT_255_2_778
10
20.5594243
20
4.4010834
40
1.2601631
50
267.5333483
51
269.9906223
0
ARC
8
DEFAULT_255_2_778
10
20.5593085
20
4.3534272
40
1.212507
50
269.9957247
51
271.5443059
0
LINE
8
DEFAULT_255_2_778
10
1.6536855
20
3.7086607
11
1.6536855
21
5.6935607
0
LINE
8
DEFAULT_255_2_778
10
1.6536855
20
5.6935607
11
3.4358855
21
6.6857607
0
LINE
8
DEFAULT_255_2_778
10
3.4358855
20
6.6857607
11
1.6536855
21
7.6816607
0
LINE
8
DEFAULT_255_2_778
10
1.6536855
20
7.6816607
11
1.0826855
21
7.6816607
0
LINE
8
DEFAULT_255_2_778
10
0.2645855
20
6.8540607
11
0.2645855
21
0.5564607
0
LINE
8
DEFAULT_255_2_778
10
1.0887855
20
-0.2616393
11
7.3863855
21
-0.2616393
0
LINE
8
DEFAULT_255_2_778
10
8.2044855
20
0.5625607
11
8.2044855
21
3.7084607
0
LINE
8
DEFAULT_255_2_778
10
8.2044855
20
3.7084607
11
4.9257855
21
1.8883607
0
LINE
8
DEFAULT_255_2_778
10
4.9257855
20
1.8883607
11
1.6536855
21
3.7086607
0
LINE
8
DEFAULT_255_2_778
10
10.7312855
20
4.4640607
11
10.6949855
21
4.0933607
0
LINE
8
DEFAULT_255_2_778
10
10.6949855
20
3.2895607
11
10.7312855
21
2.9188607
0
LINE
8
DEFAULT_255_2_778
10
10.2115855
20
2.7921607
11
10.2118855
21
2.7910607
0
LINE
8
DEFAULT_255_2_778
10
12.5269855
20
3.1440607
11
12.4906855
21
2.7913607
0
LINE
8
DEFAULT_255_2_778
10
12.4906855
20
2.7913607
11
12.3324855
21
2.7913607
0
LINE
8
DEFAULT_255_2_778
10
11.1032855
20
4.0891607
11
11.0669855
21
4.4418607
0
LINE
8
DEFAULT_255_2_778
10
12.3282855
20
3.8949607
11
12.3282855
21
3.4247607
0
LINE
8
DEFAULT_255_2_778
10
12.3282855
20
3.4247607
11
12.3327855
21
3.2758607
0
LINE
8
DEFAULT_255_2_778
10
12.4848855
20
3.1445607
11
12.5269855
21
3.1440607
0
LINE
8
DEFAULT_255_2_778
10
11.8895855
20
3.2459607
11
11.8895855
21
3.6438607
0
LINE
8
DEFAULT_255_2_778
10
11.8893855
20
3.2459607
11
11.8895855
21
3.2459607
0
LINE
8
DEFAULT_255_2_778
10
13.6321855
20
3.1440607
11
13.5961855
21
2.7913607
0
LINE
8
DEFAULT_255_2_778
10
13.5961855
20
2.7913607
11
13.2841855
21
2.7913607
0
LINE
8
DEFAULT_255_2_778
10
12.8140855
20
3.2506607
11
12.8140855
21
4.2134607
0
LINE
8
DEFAULT_255_2_778
10
12.8140855
20
4.2134607
11
12.5655855
21
4.2134607
0
LINE
8
DEFAULT_255_2_778
10
12.5655855
20
4.2134607
11
12.6018855
21
4.5706607
0
LINE
8
DEFAULT_255_2_778
10
12.6018855
20
4.5706607
11
12.8095855
21
4.5706607
0
LINE
8
DEFAULT_255_2_778
10
12.8095855
20
4.5706607
11
12.8095855
21
4.9477607
0
LINE
8
DEFAULT_255_2_778
10
12.8095855
20
4.9477607
11
13.2389855
21
4.9929607
0
LINE
8
DEFAULT_255_2_778
10
13.2389855
20
4.9929607
11
13.2389855
21
4.5608607
0
LINE
8
DEFAULT_255_2_778
10
13.2389855
20
4.5608607
11
13.6204855
21
4.5608607
0
LINE
8
DEFAULT_255_2_778
10
13.6204855
20
4.5608607
11
13.6204855
21
4.2037607
0
LINE
8
DEFAULT_255_2_778
10
13.6204855
20
4.2037607
11
13.2389855
21
4.2037607
0
LINE
8
DEFAULT_255_2_778
10
13.2389855
20
4.2037607
11
13.2389855
21
3.4170607
0
LINE
8
DEFAULT_255_2_778
10
13.5011855
20
3.1413607
11
13.6321855
21
3.1440607
0
LINE
8
DEFAULT_255_2_778
10
15.4270855
20
3.1440607
11
15.3907855
21
2.7913607
0
LINE
8
DEFAULT_255_2_778
10
15.3907855
20
2.7913607
11
15.2325855
21
2.7913607
0
LINE
8
DEFAULT_255_2_778
10
14.0038855
20
4.0891607
11
13.9676855
21
4.4418607
0
LINE
8
DEFAULT_255_2_778
10
15.2288855
20
3.8949607
11
15.2288855
21
3.4247607
0
LINE
8
DEFAULT_255_2_778
10
15.2288855
20
3.4247607
11
15.2333855
21
3.2758607
0
LINE
8
DEFAULT_255_2_778
10
15.3855855
20
3.1445607
11
15.4270855
21
3.1440607
0
LINE
8
DEFAULT_255_2_778
10
14.7851855
20
3.2459607
11
14.7851855
21
3.6438607
0
LINE
8
DEFAULT_255_2_778
10
14.7849855
20
3.2459607
11
14.7851855
21
3.2459607
0
LINE
8
DEFAULT_255_2_778
10
16.2903855
20
3.1440607
11
16.2541855
21
2.7913607
0
LINE
8
DEFAULT_255_2_778
10
16.2541855
20
2.7913607
11
16.0959855
21
2.7913607
0
LINE
8
DEFAULT_255_2_778
10
15.6482855
20
3.2480607
11
15.6482855
21
5.4355607
0
LINE
8
DEFAULT_255_2_778
10
15.6482855
20
5.4355607
11
16.0776855
21
5.4355607
0
LINE
8
DEFAULT_255_2_778
10
16.0776855
20
5.4355607
11
16.0776855
21
3.4239607
0
LINE
8
DEFAULT_255_2_778
10
16.0776855
20
3.4239607
11
16.0821855
21
3.2657607
0
LINE
8
DEFAULT_255_2_778
10
16.2903855
20
3.1435607
11
16.2903855
21
3.1440607
0
LINE
8
DEFAULT_255_2_778
10
18.1797855
20
4.5630607
11
17.0904855
21
1.9817607
0
LINE
8
DEFAULT_255_2_778
10
17.0904855
20
1.9817607
11
16.6610855
21
1.9817607
0
LINE
8
DEFAULT_255_2_778
10
16.6610855
20
1.9817607
11
17.0426855
21
2.9400607
0
LINE
8
DEFAULT_255_2_778
10
17.0426855
20
2.9400607
11
16.3192855
21
4.5632607
0
LINE
8
DEFAULT_255_2_778
10
16.3192855
20
4.5632607
11
16.8007855
21
4.5632607
0
LINE
8
DEFAULT_255_2_778
10
16.8007855
20
4.5632607
11
17.2484855
21
3.4419607
0
LINE
8
DEFAULT_255_2_778
10
17.2484855
20
3.4419607
11
17.7006855
21
4.5632607
0
LINE
8
DEFAULT_255_2_778
10
17.7006855
20
4.5632607
11
18.1797855
21
4.5630607
0
LINE
8
DEFAULT_255_2_778
10
18.2546855
20
2.9178607
11
18.2906855
21
3.2885607
0
LINE
8
DEFAULT_255_2_778
10
18.9208855
20
3.4917607
11
18.7311855
21
3.5552607
0
LINE
8
DEFAULT_255_2_778
10
19.4407855
20
4.4696607
11
19.4045855
21
4.0989607
0
LINE
8
DEFAULT_255_2_778
10
18.8404855
20
3.8862607
11
18.8989855
21
3.8684607
0
LINE
8
DEFAULT_255_2_778
10
18.9669855
20
3.8507607
11
19.0391855
21
3.8330607
0
LINE
8
DEFAULT_255_2_778
10
19.0391855
20
3.8330607
11
19.2336855
21
3.7607607
0
LINE
8
DEFAULT_255_2_778
10
18.8399855
20
2.7934607
11
18.8399855
21
2.7910607
0
LINE
8
DEFAULT_255_2_778
10
20.7115855
20
3.1440607
11
20.6753855
21
2.7913607
0
LINE
8
DEFAULT_255_2_778
10
20.6753855
20
2.7913607
11
20.3699855
21
2.7913607
0
LINE
8
DEFAULT_255_2_778
10
19.8998855
20
3.2506607
11
19.8998855
21
4.2134607
0
LINE
8
DEFAULT_255_2_778
10
19.8998855
20
4.2134607
11
19.6513855
21
4.2134607
0
LINE
8
DEFAULT_255_2_778
10
19.6513855
20
4.2134607
11
19.6873855
21
4.5706607
0
LINE
8
DEFAULT_255_2_778
10
19.6873855
20
4.5706607
11
19.8953855
21
4.5706607
0
LINE
8
DEFAULT_255_2_778
10
19.8953855
20
4.5706607
11
19.8953855
21
4.9477607
0
LINE
8
DEFAULT_255_2_778
10
19.8953855
20
4.9477607
11
20.3247855
21
4.9929607
0
LINE
8
DEFAULT_255_2_778
10
20.3247855
20
4.9929607
11
20.3247855
21
4.5608607
0
LINE
8
DEFAULT_255_2_778
10
20.3247855
20
4.5608607
11
20.7062855
21
4.5608607
0
LINE
8
DEFAULT_255_2_778
10
20.7062855
20
4.5608607
11
20.7062855
21
4.2037607
0
LINE
8
DEFAULT_255_2_778
10
20.7062855
20
4.2037607
11
20.3297855
21
4.2037607
0
LINE
8
DEFAULT_255_2_778
10
20.3297855
20
4.2037607
11
20.3297855
21
3.4170607
0
LINE
8
DEFAULT_255_2_778
10
20.5919855
20
3.1413607
11
20.7115855
21
3.1440607
0
ARC
8
DEFAULT_255_2_778
10
22.563704
20
3.7606498
40
0.9698318
50
251.0354546
51
270.3566914
0
ARC
8
DEFAULT_255_2_778
10
22.52831
20
3.6410915
40
0.8452779
50
247.7349676
51
250.6706658
0
ARC
8
DEFAULT_255_2_778
10
22.4838918
20
3.5289836
40
0.7247001
50
221.5259904
51
247.6266318
0
ARC
8
DEFAULT_255_2_778
10
22.5895094
20
3.6250834
40
0.8674834
50
199.9613313
51
221.6531567
0
ARC
8
DEFAULT_255_2_778
10
22.8284904
20
3.6714756
40
1.1085957
50
180.0011973
51
197.9980409
0
ARC
8
DEFAULT_255_2_778
10
22.8282411
20
3.6714734
40
1.1083464
50
179.4745957
51
180.0010798
0
ARC
8
DEFAULT_255_2_778
10
22.8290605
20
3.6953523
40
1.1092038
50
180.000073
51
180.7084922
0
ARC
8
DEFAULT_255_2_778
10
22.8361433
20
3.6949646
40
1.1162867
50
162.0582383
51
179.9801686
0
ARC
8
DEFAULT_255_2_778
10
22.4892248
20
3.8114986
40
0.750351
50
137.4058583
51
162.3635777
0
ARC
8
DEFAULT_255_2_778
10
22.4657209
20
3.8332376
40
0.7183355
50
111.7925017
51
137.4135243
0
ARC
8
DEFAULT_255_2_778
10
22.5352612
20
3.6263673
40
0.9363181
50
93.0339775
51
111.0441359
0
ARC
8
DEFAULT_255_2_778
10
22.5603514
20
3.3839119
40
1.1798249
50
89.9810543
51
93.6275409
0
ARC
8
DEFAULT_255_2_778
10
22.5746098
20
2.8303393
40
1.733453
50
81.8698034
51
90.4583901
0
ARC
8
DEFAULT_255_2_778
10
22.7083747
20
3.7220419
40
0.8318191
50
66.3259582
51
82.3046632
0
ARC
8
DEFAULT_255_2_778
10
22.8199783
20
3.9997616
40
0.5327396
50
60.174519
51
65.3254842
0
ARC
8
DEFAULT_255_2_778
10
22.5893681
20
3.2560846
40
1.0272576
50
64.2632344
51
89.8118428
0
ARC
8
DEFAULT_255_2_778
10
22.5806637
20
3.5682928
40
0.715146
50
89.0323052
51
107.804588
0
ARC
8
DEFAULT_255_2_778
10
22.4940249
20
3.8403352
40
0.429642
50
107.8970858
51
138.4800043
0
ARC
8
DEFAULT_255_2_778
10
22.5574895
20
3.7835948
40
0.5147717
50
138.4339921
51
170.2174955
0
ARC
8
DEFAULT_255_2_778
10
23.0027494
20
3.6855539
40
0.9704418
50
168.9797853
51
180.4792445
0
ARC
8
DEFAULT_255_2_778
10
22.9324552
20
3.6641583
40
0.9002115
50
179.1548335
51
195.4303687
0
ARC
8
DEFAULT_255_2_778
10
22.5489256
20
3.5572969
40
0.502075
50
195.3202534
51
221.4048504
0
ARC
8
DEFAULT_255_2_778
10
22.5328202
20
3.5611631
40
0.4927386
50
222.9808277
51
260.8607887
0
ARC
8
DEFAULT_255_2_778
10
22.5891737
20
3.8142775
40
0.7517492
50
259.6843032
51
270.2719339
0
ARC
8
DEFAULT_255_2_778
10
22.5854944
20
4.1075561
40
1.0450445
50
270.3973347
51
295.8067762
0
ARC
8
DEFAULT_255_2_778
10
22.7255766
20
3.4049943
40
0.6027711
50
281.0419254
51
306.1605363
0
ARC
8
DEFAULT_255_2_778
10
22.5894094
20
4.0204169
40
1.2329814
50
269.9812256
51
281.7750556
0
ARC
8
DEFAULT_255_2_778
10
22.570339
20
4.5506577
40
1.7633209
50
269.9968331
51
270.6065383
0
ARC
8
DEFAULT_255_2_778
10
23.785068
20
3.3915573
40
0.6008378
50
251.8365382
51
271.1323383
0
ARC
8
DEFAULT_255_2_778
10
23.6970313
20
3.1223859
40
0.3176354
50
222.3918977
51
251.7898777
0
ARC
8
DEFAULT_255_2_778
10
23.7700489
20
3.179373
40
0.4100453
50
176.8035793
51
221.394114
0
ARC
8
DEFAULT_255_2_778
10
25.3969206
20
3.3847681
40
1.72698
50
180.0607553
51
185.9170306
0
ARC
8
DEFAULT_255_2_778
10
23.8794089
20
3.2183028
40
0.2006011
50
183.3053113
51
215.1765921
0
ARC
8
DEFAULT_255_2_778
10
23.8290993
20
3.1974437
40
0.1479442
50
219.8032357
51
257.4457544
0
ARC
8
DEFAULT_255_2_778
10
23.9006242
20
3.470711
40
0.4303508
50
256.0588073
51
269.3298889
0
ARC
8
DEFAULT_255_2_778
10
23.9404117
20
4.2164114
40
1.1768755
50
267.817394
51
270.0744788
0
ARC
8
DEFAULT_255_2_778
10
24.9505033
20
3.5395684
40
0.744517
50
274.5665459
51
317.7767019
0
ARC
8
DEFAULT_255_2_778
10
24.8888942
20
3.9046038
40
1.1137686
50
269.8995509
51
276.2309972
0
ARC
8
DEFAULT_255_2_778
10
24.8764434
20
3.7092265
40
0.9184497
50
270.0000853
51
270.6549209
0
ARC
8
DEFAULT_255_2_778
10
24.8763592
20
3.7069286
40
0.9161519
50
247.7758112
51
270.0053546
0
ARC
8
DEFAULT_255_2_778
10
24.81521
20
3.5530456
40
0.7505738
50
222.6480914
51
247.6539041
0
ARC
8
DEFAULT_255_2_778
10
24.8749351
20
3.5995733
40
0.8260489
50
199.4114076
51
222.2152111
0
ARC
8
DEFAULT_255_2_778
10
25.1472733
20
3.6812626
40
1.1101376
50
180.1871305
51
198.7164127
0
ARC
8
DEFAULT_255_2_778
10
25.0294269
20
3.6942546
40
0.9924244
50
160.205494
51
180.9594397
0
ARC
8
DEFAULT_255_2_778
10
24.8788379
20
3.7535717
40
0.8306597
50
137.8657268
51
160.5376639
0
ARC
8
DEFAULT_255_2_778
10
24.8468935
20
3.7555965
40
0.8058588
50
113.1915183
51
136.4486473
0
ARC
8
DEFAULT_255_2_778
10
24.8682546
20
3.688157
40
0.8762883
50
89.9879908
51
112.7388498
0
ARC
8
DEFAULT_255_2_778
10
24.8684484
20
3.6852294
40
0.8792158
50
89.1011081
51
90.0006652
0
ARC
8
DEFAULT_255_2_778
10
24.8868486
20
3.6392748
40
0.9250735
50
68.5508211
51
90.2853429
0
ARC
8
DEFAULT_255_2_778
10
24.8890107
20
3.6493404
40
0.914916
50
67.783881
51
68.4463429
0
ARC
8
DEFAULT_255_2_778
10
24.9593839
20
3.8266019
40
0.7242078
50
41.5169368
51
67.6356305
0
ARC
8
DEFAULT_255_2_778
10
24.9120436
20
3.7651083
40
0.8005491
50
19.0299185
51
42.5665692
0
ARC
8
DEFAULT_255_2_778
10
24.7402783
20
3.6911285
40
0.9871475
50
359.2517208
51
19.8384979
0
ARC
8
DEFAULT_255_2_778
10
24.5061552
20
3.6568647
40
1.2213734
50
0.0030179
51
1.0026362
0
ARC
8
DEFAULT_255_2_778
10
24.7679592
20
3.6438656
40
0.9596581
50
337.9431262
51
0.7799657
0
ARC
8
DEFAULT_255_2_778
10
24.8929836
20
3.6035464
40
0.8286986
50
317.2322657
51
337.2806403
0
ARC
8
DEFAULT_255_2_778
10
24.9352894
20
3.8329873
40
0.4482504
50
40.539367
51
89.4439362
0
ARC
8
DEFAULT_255_2_778
10
24.894876
20
3.5232089
40
0.7593282
50
86.6203649
51
90.0403296
0
ARC
8
DEFAULT_255_2_778
10
24.8812106
20
3.7283914
40
0.5543009
50
88.6425823
51
118.1956991
0
ARC
8
DEFAULT_255_2_778
10
24.8289321
20
3.843826
40
0.4279467
50
119.3292393
51
139.0438993
0
ARC
8
DEFAULT_255_2_778
10
24.924482
20
3.7776908
40
0.5436055
50
140.3810149
51
169.0597393
0
ARC
8
DEFAULT_255_2_778
10
25.3438773
20
3.6804123
40
0.9739709
50
168.1234399
51
180.4868276
0
ARC
8
DEFAULT_255_2_778
10
25.2758596
20
3.6593984
40
0.9060076
50
179.1943967
51
195.1409882
0
ARC
8
DEFAULT_255_2_778
10
24.9302255
20
3.566819
40
0.5481915
50
195.236348
51
219.2552001
0
ARC
8
DEFAULT_255_2_778
10
24.8470502
20
3.5151089
40
0.4512407
50
220.8540572
51
268.2603072
0
ARC
8
DEFAULT_255_2_778
10
24.8934169
20
3.8339055
40
0.7721692
50
265.538547
51
270.0686093
0
ARC
8
DEFAULT_255_2_778
10
24.9081065
20
3.6122741
40
0.5507093
50
268.5677447
51
296.4194888
0
ARC
8
DEFAULT_255_2_778
10
24.9565264
20
3.494263
40
0.4235781
50
297.6565764
51
320.430287
0
ARC
8
DEFAULT_255_2_778
10
24.8278938
20
3.5892686
40
0.5833196
50
321.2854609
51
351.0261596
0
ARC
8
DEFAULT_255_2_778
10
24.4490412
20
3.666403
40
0.9697174
50
350.0160163
51
0.3387821
0
ARC
8
DEFAULT_255_2_778
10
24.4398352
20
3.6634577
40
0.9789448
50
0.50798
51
15.4916573
0
ARC
8
DEFAULT_255_2_778
10
24.8758915
20
3.786406
40
0.5258953
50
15.2724743
51
39.9846049
0
ARC
8
DEFAULT_255_2_778
10
26.7014857
20
3.3189111
40
0.526285
50
271.2141514
51
324.3314563
0
ARC
8
DEFAULT_255_2_778
10
26.655104
20
3.659332
40
0.8684955
50
269.9496988
51
273.7983262
0
ARC
8
DEFAULT_255_2_778
10
26.6413306
20
3.5609014
40
0.7701745
50
251.8385601
51
270.9679709
0
ARC
8
DEFAULT_255_2_778
10
26.5673024
20
3.3112257
40
0.5099179
50
195.7174815
51
250.9977749
0
ARC
8
DEFAULT_255_2_778
10
27.0536462
20
3.4840949
40
1.0254919
50
183.4594696
51
197.6542333
0
ARC
8
DEFAULT_255_2_778
10
27.6067233
20
3.534357
40
1.5806833
50
179.9173612
51
184.068309
0
ARC
8
DEFAULT_255_2_778
10
27.4428894
20
3.6121614
40
1.1050194
50
179.3479456
51
191.0000682
0
ARC
8
DEFAULT_255_2_778
10
26.8614678
20
3.4927071
40
0.5115261
50
190.2923281
51
213.5218016
0
ARC
8
DEFAULT_255_2_778
10
26.7092414
20
3.4055083
40
0.336655
50
215.4576066
51
271.3589627
0
ARC
8
DEFAULT_255_2_778
10
26.7358305
20
3.624917
40
0.5562803
50
268.0833694
51
270.0114399
0
ARC
8
DEFAULT_255_2_778
10
26.750137
20
3.5844816
40
0.5160401
50
268.4236826
51
296.5810466
0
ARC
8
DEFAULT_255_2_778
10
26.7988122
20
3.4644852
40
0.3870802
50
298.0856418
51
328.6388553
0
ARC
8
DEFAULT_255_2_778
10
28.6902341
20
3.2994439
40
0.445903
50
305.7007409
51
324.2993228
0
ARC
8
DEFAULT_255_2_778
10
28.5422719
20
3.5003781
40
0.6954265
50
293.0846073
51
305.9397597
0
ARC
8
DEFAULT_255_2_778
10
28.4113494
20
3.731537
40
0.9598718
50
290.5198984
51
294.8639268
0
ARC
8
DEFAULT_255_2_778
10
28.5855196
20
3.2654532
40
0.4623084
50
280.5344002
51
290.5519221
0
ARC
8
DEFAULT_255_2_778
10
28.5360439
20
3.3062582
40
0.5131264
50
270.0439734
51
285.1376967
0
ARC
8
DEFAULT_255_2_778
10
28.5364379
20
3.2956455
40
0.5025135
50
269.7495723
51
269.9999759
0
ARC
8
DEFAULT_255_2_778
10
28.539051
20
3.5436928
40
0.7505714
50
245.4200621
51
269.6328607
0
ARC
8
DEFAULT_255_2_778
10
28.5646361
20
3.5612482
40
0.7773423
50
221.0419062
51
244.2433032
0
ARC
8
DEFAULT_255_2_778
10
28.7004234
20
3.6571056
40
0.9428489
50
200.2132589
51
220.0172331
0
ARC
8
DEFAULT_255_2_778
10
28.732174
20
3.6643215
40
0.9751464
50
179.1236035
51
199.9665528
0
ARC
8
DEFAULT_255_2_778
10
28.8149435
20
3.6838474
40
1.057812
50
161.5604916
51
180.2497317
0
ARC
8
DEFAULT_255_2_778
10
28.6424068
20
3.7435856
40
0.8752407
50
140.2339821
51
161.6977809
0
ARC
8
DEFAULT_255_2_778
10
28.5689888
20
3.8014899
40
0.7817722
50
117.0189305
51
140.0541913
0
ARC
8
DEFAULT_255_2_778
10
28.5169209
20
3.8991547
40
0.6711163
50
88.8541511
51
116.8466926
0
ARC
8
DEFAULT_255_2_778
10
28.5434659
20
3.7625012
40
0.8077423
50
71.5318862
51
90.9309965
0
ARC
8
DEFAULT_255_2_778
10
28.6194589
20
4.0043964
40
0.5542504
50
38.9919232
51
71.0617818
0
ARC
8
DEFAULT_255_2_778
10
28.5495016
20
3.8722506
40
0.4149101
50
88.5996136
51
117.0612059
0
ARC
8
DEFAULT_255_2_778
10
28.5634524
20
3.8523851
40
0.4389606
50
117.5031451
51
143.2482486
0
ARC
8
DEFAULT_255_2_778
10
28.715718
20
3.7440125
40
0.6258205
50
143.6397309
51
163.1576976
0
ARC
8
DEFAULT_255_2_778
10
28.8493514
20
3.7062361
40
0.7646714
50
163.3497197
51
182.1958937
0
ARC
8
DEFAULT_255_2_778
10
28.8990536
20
3.6661247
40
0.8138839
50
179.2388266
51
196.0110653
0
ARC
8
DEFAULT_255_2_778
10
28.7313734
20
3.6215849
40
0.6404324
50
196.3186474
51
215.7693638
0
ARC
8
DEFAULT_255_2_778
10
28.5823453
20
3.5185273
40
0.4592882
50
216.2049884
51
241.1516095
0
ARC
8
DEFAULT_255_2_778
10
28.5600202
20
3.4907309
40
0.4242143
50
241.9813235
51
270.5566513
0
ARC
8
DEFAULT_255_2_778
10
28.5595063
20
3.6617265
40
0.5952077
50
270.4462026
51
290.0063739
0
ARC
8
DEFAULT_255_2_778
10
28.5916539
20
3.5499533
40
0.4792484
50
290.9667517
51
315.7330475
0
ARC
8
DEFAULT_255_2_778
10
28.5770163
20
3.5683129
40
0.502554
50
315.3989914
51
341.0529851
0
ARC
8
DEFAULT_255_2_778
10
28.32128
20
3.6661619
40
0.7762636
50
340.350922
51
359.9599412
0
ARC
8
DEFAULT_255_2_778
10
28.3600076
20
3.6657051
40
0.7375359
50
359.9933292
51
0.1267612
0
ARC
8
DEFAULT_255_2_778
10
28.4074714
20
3.6847867
40
0.6902908
50
358.5514654
51
18.8394897
0
ARC
8
DEFAULT_255_2_778
10
28.573621
20
3.730193
40
0.5184898
50
20.0196473
51
22.5869044
0
ARC
8
DEFAULT_255_2_778
10
28.4453192
20
3.6831202
40
0.6550563
50
22.0781469
51
42.2710918
0
ARC
8
DEFAULT_255_2_778
10
28.5642924
20
3.7908131
40
0.4945813
50
42.3100717
51
66.8991695
0
ARC
8
DEFAULT_255_2_778
10
28.5489631
20
3.7302356
40
0.5563999
50
67.8947417
51
88.9209075
0
LINE
8
DEFAULT_255_2_778
10
23.0849416
20
4.4619368
11
23.0354416
21
4.1814368
0
LINE
8
DEFAULT_255_2_778
10
23.0404416
20
3.1667368
11
23.0812416
21
2.9183368
0
LINE
8
DEFAULT_255_2_778
10
22.5702416
20
2.7873368
11
22.5697416
21
2.7908368
0
LINE
8
DEFAULT_255_2_778
10
23.9440416
20
3.0392368
11
23.8987416
21
2.7908368
0
LINE
8
DEFAULT_255_2_778
10
23.8987416
20
2.7908368
11
23.7969416
21
2.7908368
0
LINE
8
DEFAULT_255_2_778
10
23.3606416
20
3.2022368
11
23.3606416
21
5.4353368
0
LINE
8
DEFAULT_255_2_778
10
23.3606416
20
5.4353368
11
23.6699416
21
5.4353368
0
LINE
8
DEFAULT_255_2_778
10
23.6699416
20
5.4353368
11
23.6699416
21
3.3829368
0
LINE
8
DEFAULT_255_2_778
10
23.9419416
20
3.0395368
11
23.9440416
21
3.0392368
0
LINE
8
DEFAULT_255_2_778
10
25.5013416
20
3.0408368
11
25.5018416
21
3.0392368
0
LINE
8
DEFAULT_255_2_778
10
25.2788416
20
4.1243368
11
25.2759416
21
4.1243368
0
LINE
8
DEFAULT_255_2_778
10
27.4455416
20
2.8222368
11
27.1650416
21
2.8222368
0
LINE
8
DEFAULT_255_2_778
10
27.1650416
20
2.8222368
11
27.1290416
21
3.0120368
0
LINE
8
DEFAULT_255_2_778
10
26.0260416
20
3.5366368
11
26.0260416
21
4.5288368
0
LINE
8
DEFAULT_255_2_778
10
26.0260416
20
4.5288368
11
26.3379416
21
4.5288368
0
LINE
8
DEFAULT_255_2_778
10
26.3379416
20
4.5288368
11
26.3379416
21
3.6247368
0
LINE
8
DEFAULT_255_2_778
10
27.1293416
20
3.2630368
11
27.1293416
21
4.5288368
0
LINE
8
DEFAULT_255_2_778
10
27.1293416
20
4.5288368
11
27.4412416
21
4.5288368
0
LINE
8
DEFAULT_255_2_778
10
27.4412416
20
4.5288368
11
27.4412416
21
2.8244368
0
LINE
8
DEFAULT_255_2_778
10
27.4412416
20
2.8244368
11
27.4455416
21
2.8222368
0
LINE
8
DEFAULT_255_2_778
10
29.3687416
20
2.8222368
11
29.0883416
21
2.8222368
0
LINE
8
DEFAULT_255_2_778
10
29.0883416
20
2.8222368
11
29.0523416
21
3.0392368
0
LINE
8
DEFAULT_255_2_778
10
29.0502416
20
4.3531368
11
29.0502416
21
5.4358368
0
LINE
8
DEFAULT_255_2_778
10
29.0502416
20
5.4358368
11
29.3621416
21
5.4358368
0
LINE
8
DEFAULT_255_2_778
10
29.3621416
20
5.4358368
11
29.3621416
21
2.8230368
0
LINE
8
DEFAULT_255_2_778
10
29.3621416
20
2.8230368
11
29.3687416
21
2.8222368
0
LINE
8
DEFAULT_255_2_778
10
28.5594416
20
4.2865368
11
28.5596416
21
4.2870368
0
ENDSEC
0
EOF