0
SECTION
2
HEADER
9
$MEASUREMENT
70
1
0
ENDSEC
0
SECTION
2
TABLES
0
TABLE
2
LTYPE
0
LTYPE
72
65
70
64
2
CONTINUOUS
3
______
73
0
40
0
0
ENDTAB
0
TABLE
2
LAYER
0
LAYER
2
DEFAULT_255_2_778
70
0
62
255
6
CONTINUOUS
0
ENDTAB
0
ENDSEC
0
SECTION
2
ENTITIES
0
LINE
8
DEFAULT_255_2_778
10
7.2592746
20
8.5756712
11
7.8720746
21
7.9666712
0
LINE
8
DEFAULT_255_2_778
10
7.8720746
20
7.9666712
11
7.2592746
21
7.3575712
0
LINE
8
DEFAULT_255_2_778
10
7.2592746
20
7.3575712
11
2.9473746
21
7.3575712
0
LINE
8
DEFAULT_255_2_778
10
2.9473746
20
7.3575712
11
2.9473746
21
5.3287712
0
LINE
8
DEFAULT_255_2_778
10
2.9473746
20
5.3287712
11
0.3181746
21
7.9666712
0
LINE
8
DEFAULT_255_2_778
10
0.3181746
20
7.9666712
11
2.9473746
21
10.5600712
0
LINE
8
DEFAULT_255_2_778
10
2.9473746
20
10.5600712
11
2.9473746
21
8.5756712
0
LINE
8
DEFAULT_255_2_778
10
2.9473746
20
8.5756712
11
7.2592746
21
8.5756712
0
LINE
8
DEFAULT_255_2_778
10
9.2116248
20
9.2913294
11
8.6025248
21
8.6785294
0
LINE
8
DEFAULT_255_2_778
10
8.6025248
20
8.6785294
11
7.9934248
21
9.2913294
0
LINE
8
DEFAULT_255_2_778
10
7.9934248
20
9.2913294
11
7.9934248
21
13.6032294
0
LINE
8
DEFAULT_255_2_778
10
7.9934248
20
13.6032294
11
5.9646248
21
13.6032294
0
LINE
8
DEFAULT_255_2_778
10
5.9646248
20
13.6032294
11
8.6025248
21
16.2324294
0
LINE
8
DEFAULT_255_2_778
10
8.6025248
20
16.2324294
11
11.1960248
21
13.6032294
0
LINE
8
DEFAULT_255_2_778
10
11.1960248
20
13.6032294
11
9.2116248
21
13.6032294
0
LINE
8
DEFAULT_255_2_778
10
9.2116248
20
13.6032294
11
9.2116248
21
9.2913294
0
LINE
8
DEFAULT_255_2_778
10
9.9273703
20
7.3389712
11
9.3145703
21
7.9480712
0
LINE
8
DEFAULT_255_2_778
10
9.3145703
20
7.9480712
11
9.9273703
21
8.5571712
0
LINE
8
DEFAULT_255_2_778
10
9.9273703
20
8.5571712
11
14.2384703
21
8.5571712
0
LINE
8
DEFAULT_255_2_778
10
14.2384703
20
8.5571712
11
14.2384703
21
10.5859712
0
LINE
8
DEFAULT_255_2_778
10
14.2384703
20
10.5859712
11
16.8676703
21
7.9480712
0
LINE
8
DEFAULT_255_2_778
10
16.8676703
20
7.9480712
11
14.2384703
21
5.3546712
0
LINE
8
DEFAULT_255_2_778
10
14.2384703
20
5.3546712
11
14.2384703
21
7.3389712
0
LINE
8
DEFAULT_255_2_778
10
14.2384703
20
7.3389712
11
9.9273703
21
7.3389712
0
LINE
8
DEFAULT_255_2_778
10
7.9749288
20
6.6232254
11
8.5840288
21
7.2360254
0
LINE
8
DEFAULT_255_2_778
10
8.5840288
20
7.2360254
11
9.1930288
21
6.6232254
0
LINE
8
DEFAULT_255_2_778
10
9.1930288
20
6.6232254
11
9.1930288
21
2.3113254
0
LINE
8
DEFAULT_255_2_778
10
9.1930288
20
2.3113254
11
11.2218288
21
2.3113254
0
LINE
8
DEFAULT_255_2_778
10
11.2218288
20
2.3113254
11
8.5840288
21
-0.3178746
0
LINE
8
DEFAULT_255_2_778
10
8.5840288
20
-0.3178746
11
5.9905288
21
2.3113254
0
LINE
8
DEFAULT_255_2_778
10
5.9905288
20
2.3113254
11
7.9749288
21
2.3113254
0
LINE
8
DEFAULT_255_2_778
10
7.9749288
20
2.3113254
11
7.9749288
21
6.6232254
0
LINE
8
DEFAULT_255_2_778
10
2.7935559
20
13.7570401
11
8.0320559
21
13.7570401
0
LINE
8
DEFAULT_255_2_778
10
8.0320559
20
13.7570401
11
8.0320559
21
8.5185401
0
LINE
8
DEFAULT_255_2_778
10
8.0320559
20
8.5185401
11
2.7935559
21
8.5185401
0
LINE
8
DEFAULT_255_2_778
10
2.7935559
20
8.5185401
11
2.7935559
21
13.7570401
0
LINE
8
DEFAULT_255_2_778
10
9.1547559
20
13.7570401
11
14.3932559
21
13.7570401
0
LINE
8
DEFAULT_255_2_778
10
14.3932559
20
13.7570401
11
14.3932559
21
8.5185401
0
LINE
8
DEFAULT_255_2_778
10
14.3932559
20
8.5185401
11
9.1547559
21
8.5185401
0
LINE
8
DEFAULT_255_2_778
10
9.1547559
20
8.5185401
11
9.1547559
21
13.7570401
0
LINE
8
DEFAULT_255_2_778
10
9.1547559
20
7.3958441
11
14.3932559
21
7.3958441
0
LINE
8
DEFAULT_255_2_778
10
14.3932559
20
7.3958441
11
14.3932559
21
2.1573441
0
LINE
8
DEFAULT_255_2_778
10
14.3932559
20
2.1573441
11
9.1547559
21
2.1573441
0
LINE
8
DEFAULT_255_2_778
10
9.1547559
20
2.1573441
11
9.1547559
21
7.3958441
0
LINE
8
DEFAULT_255_2_778
10
2.7935559
20
7.3958441
11
8.0320559
21
7.3958441
0
LINE
8
DEFAULT_255_2_778
10
8.0320559
20
7.3958441
11
8.0320559
21
2.1573441
0
LINE
8
DEFAULT_255_2_778
10
8.0320559
20
2.1573441
11
2.7935559
21
2.1573441
0
LINE
8
DEFAULT_255_2_778
10
2.7935559
20
2.1573441
11
2.7935559
21
7.3958441
0
LINE
8
DEFAULT_255_2_778
10
0.3912169
20
7.9572831
11
4.0951169
21
11.6611831
0
LINE
8
DEFAULT_255_2_778
10
4.0951169
20
11.6611831
11
7.7995169
21
7.9572831
0
LINE
8
DEFAULT_255_2_778
10
7.7995169
20
7.9572831
11
4.0951169
21
4.2531831
0
LINE
8
DEFAULT_255_2_778
10
4.0951169
20
4.2531831
11
0.3912169
21
7.9572831
0
LINE
8
DEFAULT_255_2_778
10
4.8894169
20
12.4554831
11
8.5933169
21
16.1593831
0
LINE
8
DEFAULT_255_2_778
10
8.5933169
20
16.1593831
11
12.2972169
21
12.4554831
0
LINE
8
DEFAULT_255_2_778
10
12.2972169
20
12.4554831
11
8.5933169
21
8.7510831
0
LINE
8
DEFAULT_255_2_778
10
8.5933169
20
8.7510831
11
4.8894169
21
12.4554831
0
LINE
8
DEFAULT_255_2_778
10
9.3876169
20
7.9572831
11
13.0915169
21
11.6611831
0
LINE
8
DEFAULT_255_2_778
10
13.0915169
20
11.6611831
11
16.7954169
21
7.9572831
0
LINE
8
DEFAULT_255_2_778
10
16.7954169
20
7.9572831
11
13.0915169
21
4.2531831
0
LINE
8
DEFAULT_255_2_778
10
13.0915169
20
4.2531831
11
9.3876169
21
7.9572831
0
LINE
8
DEFAULT_255_2_778
10
4.8894169
20
3.4590831
11
8.5933169
21
7.1635831
0
LINE
8
DEFAULT_255_2_778
10
8.5933169
20
7.1635831
11
12.2972169
21
3.4596831
0
LINE
8
DEFAULT_255_2_778
10
12.2972169
20
3.4596831
11
8.5933169
21
-0.2448169
0
LINE
8
DEFAULT_255_2_778
10
8.5933169
20
-0.2448169
11
4.8894169
21
3.4590831
0
ENDSEC
0
EOF