0
SECTION
2
HEADER
9
$MEASUREMENT
70
1
0
ENDSEC
0
SECTION
2
TABLES
0
TABLE
2
LTYPE
0
LTYPE
72
65
70
64
2
CONTINUOUS
3
______
73
0
40
0
0
ENDTAB
0
TABLE
2
LAYER
0
LAYER
2
DEFAULT_255_2_778
70
0
62
255
6
CONTINUOUS
0
ENDTAB
0
ENDSEC
0
SECTION
2
ENTITIES
0
ARC
8
DEFAULT_255_2_778
10
11.7708123
20
7.9289553
40
3.5648229
50
142.7632346
51
161.5061506
0
ARC
8
DEFAULT_255_2_778
10
11.910732
20
7.9022704
40
3.7060304
50
161.8010714
51
177.7701573
0
ARC
8
DEFAULT_255_2_778
10
1.1700055
20
7.9620151
40
0.8877799
50
180.0091589
51
182.6954264
0
ARC
8
DEFAULT_255_2_778
10
1.1623597
20
7.9461155
40
0.8802751
50
130.1391034
51
178.9743047
0
ARC
8
DEFAULT_255_2_778
10
1.5618396
20
7.5834608
40
1.4168518
50
132.787001
51
133.036212
0
LINE
8
DEFAULT_255_2_778
10
9.2576078
20
10.4758657
11
8.9327078
21
10.0860657
0
LINE
8
DEFAULT_255_2_778
10
8.2075078
20
8.0464657
11
8.1979078
21
7.9202657
0
LINE
8
DEFAULT_255_2_778
10
8.1979078
20
7.9202657
11
0.2832078
21
7.9202657
0
LINE
8
DEFAULT_255_2_778
10
0.5994078
20
8.6232657
11
1.9040078
21
9.8096657
0
LINE
8
DEFAULT_255_2_778
10
1.9040078
20
9.8096657
11
5.7542078
21
13.3036657
0
LINE
8
DEFAULT_255_2_778
10
5.7542078
20
13.3036657
11
6.1220078
21
13.6267657
0
LINE
8
DEFAULT_255_2_778
10
6.1220078
20
13.6267657
11
6.2572078
21
13.4804657
0
LINE
8
DEFAULT_255_2_778
10
6.2572078
20
13.4804657
11
9.2576078
21
10.4737657
0
LINE
8
DEFAULT_255_2_778
10
9.2576078
20
10.4737657
11
9.2576078
21
10.4758657
0
ARC
8
DEFAULT_255_2_778
10
12.386143
20
8.0370436
40
4.1897687
50
181.5648448
51
195.968117
0
ARC
8
DEFAULT_255_2_778
10
11.7903337
20
7.9139721
40
3.5833814
50
196.6970208
51
221.9826572
0
ARC
8
DEFAULT_255_2_778
10
1.2825249
20
7.9624277
40
1.0219057
50
192.6274467
51
230.2250766
0
ARC
8
DEFAULT_255_2_778
10
0.8196281
20
7.8634448
40
0.5485861
50
180.9906352
51
193.1084594
0
ARC
8
DEFAULT_255_2_778
10
0.6121111
20
7.854294
40
0.3409872
50
175.4641242
51
180.0560722
0
ARC
8
DEFAULT_255_2_778
10
0.5636464
20
7.8583587
40
0.2923528
50
168.0428962
51
175.5070885
0
LINE
8
DEFAULT_255_2_778
10
0.2832368
20
7.9223282
11
8.1979368
21
7.9226282
0
LINE
8
DEFAULT_255_2_778
10
9.1266368
20
5.5170282
11
9.2398368
21
5.3755282
0
LINE
8
DEFAULT_255_2_778
10
9.2398368
20
5.3755282
11
9.1266368
21
5.2556282
0
LINE
8
DEFAULT_255_2_778
10
9.1266368
20
5.2556282
11
6.2003368
21
2.3293282
0
LINE
8
DEFAULT_255_2_778
10
6.2003368
20
2.3293282
11
6.0937368
21
2.2311282
0
LINE
8
DEFAULT_255_2_778
10
6.0937368
20
2.2311282
11
5.0930368
21
3.1262282
0
LINE
8
DEFAULT_255_2_778
10
5.0930368
20
3.1262282
11
0.6287368
21
7.1770282
0
LINE
8
DEFAULT_255_2_778
10
0.2776368
20
7.9189282
11
0.2832368
21
7.9223282
0
ARC
8
DEFAULT_255_2_778
10
11.806604
20
7.9109627
40
3.5923916
50
234.5169588
51
268.3706221
0
ARC
8
DEFAULT_255_2_778
10
11.6634922
20
3.3659736
40
0.954929
50
83.1575465
51
87.5413353
0
ARC
8
DEFAULT_255_2_778
10
12.3219838
20
9.37586
40
5.0909846
50
263.8577472
51
264.0139677
0
ARC
8
DEFAULT_255_2_778
10
11.9394997
20
5.7191897
40
1.4143653
50
263.9758479
51
264.8547172
0
ARC
8
DEFAULT_255_2_778
10
11.6118964
20
3.6475966
40
3.7932054
50
269.9623659
51
273.0384182
0
ARC
8
DEFAULT_255_2_778
10
11.6997444
20
6.3911208
40
6.5373529
50
261.2863305
51
269.208206
0
ARC
8
DEFAULT_255_2_778
10
11.8090601
20
7.9611627
40
8.1068731
50
248.0045667
51
262.2037531
0
ARC
8
DEFAULT_255_2_778
10
11.7725893
20
7.8176155
40
7.9601398
50
234.8787973
51
247.8609927
0
ARC
8
DEFAULT_255_2_778
10
10.8753822
20
6.7410358
40
6.5643937
50
223.3567591
51
235.8781809
0
LINE
8
DEFAULT_255_2_778
10
6.0992573
20
2.2340236
11
6.2058573
21
2.3325236
0
LINE
8
DEFAULT_255_2_778
10
6.2058573
20
2.3325236
11
9.1321573
21
5.2587236
0
LINE
8
DEFAULT_255_2_778
10
9.1321573
20
5.2587236
11
9.2454573
21
5.3786236
0
LINE
8
DEFAULT_255_2_778
10
9.2454573
20
5.3786236
11
9.7213573
21
4.9857236
0
LINE
8
DEFAULT_255_2_778
10
11.8126573
20
4.3105236
11
11.8129573
21
-0.1402764
0
LINE
8
DEFAULT_255_2_778
10
6.1024573
20
2.2343236
11
6.0992573
21
2.2340236
0
ARC
8
DEFAULT_255_2_778
10
10.8620568
20
9.1212634
40
6.5408861
50
123.7154471
51
136.4421313
0
ARC
8
DEFAULT_255_2_778
10
11.7391911
20
8.0813936
40
7.8941957
50
96.0993147
51
124.821666
0
ARC
8
DEFAULT_255_2_778
10
11.7159203
20
9.5090179
40
6.4734568
50
90.8892909
51
97.2371623
0
ARC
8
DEFAULT_255_2_778
10
11.6186808
20
12.8193415
40
3.162355
50
86.6220168
51
90.0585465
0
ARC
8
DEFAULT_255_2_778
10
11.9567332
20
7.1934441
40
4.339855
50
91.982283
51
106.3215248
0
ARC
8
DEFAULT_255_2_778
10
11.8109662
20
7.9173263
40
3.6047409
50
107.3314879
51
132.3755827
0
LINE
8
DEFAULT_255_2_778
10
9.2576156
20
10.475502
11
7.6944156
21
12.043902
0
LINE
8
DEFAULT_255_2_778
10
7.6944156
20
12.043902
11
6.2572156
21
13.482202
0
LINE
8
DEFAULT_255_2_778
10
6.2572156
20
13.482202
11
6.1220156
21
13.628502
0
LINE
8
DEFAULT_255_2_778
10
11.8050156
20
15.976202
11
11.8066156
21
11.530702
0
LINE
8
DEFAULT_255_2_778
10
9.3814156
20
10.580302
11
9.2576156
21
10.475502
0
LINE
8
DEFAULT_255_2_778
10
9.2576156
20
10.475502
11
9.2576156
21
10.475502
0
ARC
8
DEFAULT_255_2_778
10
11.6989847
20
8.4271382
40
4.1181232
50
271.5344492
51
286.9396667
0
ARC
8
DEFAULT_255_2_778
10
11.7561292
20
8.0249359
40
3.7172475
50
287.9033991
51
303.0141982
0
ARC
8
DEFAULT_255_2_778
10
14.3164953
20
4.1255959
40
0.9477605
50
90.7071438
51
124.3693943
0
ARC
8
DEFAULT_255_2_778
10
14.3035783
20
4.1486754
40
0.9246095
50
80.5705618
51
89.9243973
0
ARC
8
DEFAULT_255_2_778
10
14.3425423
20
4.2957479
40
0.7732738
50
45.2790713
51
81.6333103
0
ARC
8
DEFAULT_255_2_778
10
16.2351509
20
2.0843448
40
0.9982671
50
25.0038634
51
44.8189146
0
ARC
8
DEFAULT_255_2_778
10
16.4817093
20
2.1923192
40
0.7292055
50
9.9751906
51
25.5036136
0
ARC
8
DEFAULT_255_2_778
10
16.5914574
20
2.2143691
40
0.6173028
50
0.0641519
51
9.7240392
0
ARC
8
DEFAULT_255_2_778
10
16.6044451
20
2.2185831
40
0.604325
50
322.012208
51
359.6660021
0
ARC
8
DEFAULT_255_2_778
10
16.4594041
20
2.3169515
40
0.7792714
50
315.4936957
51
322.8756841
0
ARC
8
DEFAULT_255_2_778
10
15.8294248
20
2.9782393
40
1.6923765
50
307.7000384
51
314.4778166
0
ARC
8
DEFAULT_255_2_778
10
11.6380996
20
8.1500005
40
8.3489177
50
298.2707393
51
308.7541943
0
ARC
8
DEFAULT_255_2_778
10
11.8853667
20
7.7171713
40
7.8506118
50
279.8179809
51
298.1775524
0
ARC
8
DEFAULT_255_2_778
10
11.7746452
20
8.2666449
40
8.4109323
50
276.6671113
51
279.9229163
0
ARC
8
DEFAULT_255_2_778
10
10.8494222
20
15.9099253
40
16.1099747
50
276.0377194
51
276.7794146
0
ARC
8
DEFAULT_255_2_778
10
11.9408335
20
5.2240578
40
5.368724
50
270.4640983
51
276.449841
0
ARC
8
DEFAULT_255_2_778
10
11.982051
20
3.2522123
40
3.3967031
50
267.0891544
51
270.0382718
0
LINE
8
DEFAULT_255_2_778
10
11.8095597
20
-0.1404082
11
11.8092597
21
4.3104918
0
LINE
8
DEFAULT_255_2_778
10
14.8866597
20
4.8451918
11
16.9432597
21
2.7879918
0
LINE
8
DEFAULT_255_2_778
10
11.8095597
20
-0.1401082
11
11.8095597
21
-0.1404082
0
ARC
8
DEFAULT_255_2_778
10
12.0045426
20
13.9056507
40
2.0804099
50
89.8486551
51
95.5090903
0
ARC
8
DEFAULT_255_2_778
10
11.9258122
20
11.046481
40
4.9402903
50
83.1115381
51
89.0231316
0
ARC
8
DEFAULT_255_2_778
10
23.6395968
20
123.2361863
40
107.8599558
50
264.0818089
51
264.097072
0
ARC
8
DEFAULT_255_2_778
10
11.8303443
20
7.9896659
40
7.9906797
50
65.7323161
51
84.8550383
0
ARC
8
DEFAULT_255_2_778
10
11.8130895
20
7.9354246
40
8.0472226
50
50.7839595
51
65.7790452
0
ARC
8
DEFAULT_255_2_778
10
16.2128586
20
13.3162891
40
1.096587
50
40.2070183
51
51.1375233
0
ARC
8
DEFAULT_255_2_778
10
16.4959316
20
13.5521191
40
0.7281637
50
22.7709595
51
40.4140226
0
ARC
8
DEFAULT_255_2_778
10
16.646564
20
13.6184003
40
0.5636246
50
0.0687624
51
22.4849756
0
ARC
8
DEFAULT_255_2_778
10
16.5790116
20
13.6240221
40
0.631196
50
339.0375223
51
359.5510908
0
ARC
8
DEFAULT_255_2_778
10
16.329358
20
13.7163368
40
0.8973579
50
327.2947057
51
339.2361187
0
ARC
8
DEFAULT_255_2_778
10
16.0698471
20
13.8764999
40
1.2022775
50
322.2142153
51
327.5543069
0
ARC
8
DEFAULT_255_2_778
10
15.5928479
20
14.2871533
40
1.8311498
50
314.4817356
51
321.2041504
0
ARC
8
DEFAULT_255_2_778
10
4.50033
20
25.137102
40
17.3474339
50
315.5015109
51
315.5118115
0
ARC
8
DEFAULT_255_2_778
10
14.2627614
20
11.7067023
40
0.9472035
50
286.428489
51
316.2962492
0
ARC
8
DEFAULT_255_2_778
10
14.2972371
20
11.6114702
40
0.8461314
50
270.0343132
51
286.0130736
0
ARC
8
DEFAULT_255_2_778
10
14.2981882
20
11.6130761
40
0.8477374
50
257.0035277
51
269.9699631
0
ARC
8
DEFAULT_255_2_778
10
14.3128976
20
11.6730221
40
0.9094563
50
244.3278662
51
256.9498942
0
ARC
8
DEFAULT_255_2_778
10
14.3558469
20
11.7648873
40
1.0108602
50
237.0893416
51
244.3895498
0
ARC
8
DEFAULT_255_2_778
10
11.7474013
20
7.771572
40
3.7589055
50
56.7822213
51
76.4996423
0
ARC
8
DEFAULT_255_2_778
10
11.7774171
20
7.8206973
40
3.7041727
50
76.7737045
51
89.0409686
0
ARC
8
DEFAULT_255_2_778
10
11.8409666
20
11.5971328
40
0.0727982
50
254.6660959
51
268.7791758
0
ARC
8
DEFAULT_255_2_778
10
11.9006691
20
11.8343345
40
0.3173854
50
253.887873
51
255.5957285
0
ARC
8
DEFAULT_255_2_778
10
11.727623
20
11.2344374
40
0.3069713
50
73.9314328
51
75.5899907
0
LINE
8
DEFAULT_255_2_778
10
11.8066156
20
11.5309512
11
11.8048156
21
15.9764512
0
LINE
8
DEFAULT_255_2_778
10
16.8737156
20
12.9784512
11
14.9475156
21
11.0522512
0
LINE
8
DEFAULT_255_2_778
10
11.8040156
20
11.5317512
11
11.8066156
21
11.5309512
0
ENDSEC
0
EOF