0
SECTION
2
HEADER
9
$MEASUREMENT
70
1
0
ENDSEC
0
SECTION
2
TABLES
0
TABLE
2
LTYPE
0
LTYPE
72
65
70
64
2
CONTINUOUS
3
______
73
0
40
0
0
ENDTAB
0
TABLE
2
LAYER
0
LAYER
2
DEFAULT_255_2_778
70
0
62
255
6
CONTINUOUS
0
ENDTAB
0
ENDSEC
0
SECTION
2
ENTITIES
0
ARC
8
DEFAULT_255_2_778
10
11.7113971
20
2.9094896
40
1.0916889
50
292.3417947
51
295.4340669
0
ARC
8
DEFAULT_255_2_778
10
11.5671085
20
3.2580506
40
1.4689333
50
289.7141222
51
292.3791787
0
ARC
8
DEFAULT_255_2_778
10
11.4972521
20
3.4493266
40
1.672563
50
288.8957386
51
289.7565766
0
ARC
8
DEFAULT_255_2_778
10
11.4144389
20
3.70075
40
1.9372585
50
283.5746553
51
288.8048724
0
ARC
8
DEFAULT_255_2_778
10
11.3545735
20
3.9429469
40
2.1867411
50
277.4165823
51
283.6099346
0
ARC
8
DEFAULT_255_2_778
10
11.3463493
20
3.9983171
40
2.2427099
50
270.0050552
51
277.442337
0
ARC
8
DEFAULT_255_2_778
10
11.3362606
20
3.4439048
40
1.6883291
50
254.6735835
51
270.349091
0
ARC
8
DEFAULT_255_2_778
10
11.2345711
20
3.0888663
40
1.3190458
50
226.2672976
51
254.857323
0
ARC
8
DEFAULT_255_2_778
10
11.2607856
20
3.0926496
40
1.3400007
50
197.0521031
51
225.5691901
0
ARC
8
DEFAULT_255_2_778
10
11.6352074
20
3.2149757
40
1.733848
50
181.693528
51
197.2884651
0
ARC
8
DEFAULT_255_2_778
10
11.9276976
20
3.235458
40
2.0268503
50
179.9929597
51
182.0279246
0
ARC
8
DEFAULT_255_2_778
10
11.6484125
20
3.2456138
40
1.7475935
50
162.6925984
51
180.3247985
0
ARC
8
DEFAULT_255_2_778
10
11.3272011
20
3.3550812
40
1.4083877
50
109.6603307
51
163.0567511
0
ARC
8
DEFAULT_255_2_778
10
11.4333586
20
3.0708577
40
1.7117636
50
93.2900524
51
109.8057266
0
ARC
8
DEFAULT_255_2_778
10
11.4598642
20
2.7903503
40
1.9933568
50
89.9803705
51
93.5879332
0
ARC
8
DEFAULT_255_2_778
10
11.4594133
20
2.8579623
40
1.9257451
50
79.3139142
51
89.966264
0
ARC
8
DEFAULT_255_2_778
10
11.5176174
20
3.139681
40
1.6381268
50
70.8420737
51
79.4872651
0
ARC
8
DEFAULT_255_2_778
10
11.7400329
20
3.7717639
40
0.9680631
50
62.1382591
51
70.9998083
0
ARC
8
DEFAULT_255_2_778
10
11.5683181
20
3.2626614
40
1.0873279
50
62.3717899
51
64.242604
0
ARC
8
DEFAULT_255_2_778
10
11.5448381
20
3.2107894
40
1.1442502
50
64.3124284
51
73.4165463
0
ARC
8
DEFAULT_255_2_778
10
11.4955088
20
3.0417154
40
1.3203711
50
73.4589953
51
83.0872427
0
ARC
8
DEFAULT_255_2_778
10
11.4633999
20
2.78831
40
1.5757995
50
83.037208
51
90.103726
0
ARC
8
DEFAULT_255_2_778
10
11.4513162
20
3.2324296
40
1.1317152
50
89.5326547
51
107.4382737
0
ARC
8
DEFAULT_255_2_778
10
11.4116767
20
3.4038987
40
0.9563439
50
108.2511723
51
166.5131603
0
ARC
8
DEFAULT_255_2_778
10
11.7923818
20
3.2721453
40
1.3578479
50
164.8533065
51
180.2547917
0
ARC
8
DEFAULT_255_2_778
10
11.7757726
20
3.2565895
40
1.3412592
50
179.5934265
51
195.7901574
0
ARC
8
DEFAULT_255_2_778
10
11.4587634
20
3.1638554
40
1.0109825
50
195.6217354
51
221.6401965
0
ARC
8
DEFAULT_255_2_778
10
11.4064287
20
3.1368815
40
0.9540601
50
222.5179526
51
265.4454921
0
ARC
8
DEFAULT_255_2_778
10
11.4416872
20
3.3399304
40
1.1594236
50
264.5053495
51
270.0326108
0
ARC
8
DEFAULT_255_2_778
10
11.4592726
20
3.6945817
40
1.5141692
50
269.3595326
51
270.0005792
0
ARC
8
DEFAULT_255_2_778
10
11.4595976
20
3.6904744
40
1.5100621
50
269.9882499
51
294.6851471
0
ARC
8
DEFAULT_255_2_778
10
14.2047858
20
3.7746684
40
0.9949892
50
119.4128688
51
150.5871312
0
ARC
8
DEFAULT_255_2_778
10
14.2606453
20
3.6835786
40
1.1017775
50
90.7314897
51
119.6169924
0
ARC
8
DEFAULT_255_2_778
10
14.2558428
20
3.733696
40
1.0516111
50
89.999764
51
90.5047143
0
ARC
8
DEFAULT_255_2_778
10
14.2547578
20
3.7799503
40
1.0053574
50
82.2608422
51
89.9379191
0
ARC
8
DEFAULT_255_2_778
10
14.2526123
20
3.7570572
40
1.0283314
50
72.9636263
51
82.3141588
0
ARC
8
DEFAULT_255_2_778
10
14.2613356
20
3.7868654
40
0.9972755
50
69.5571059
51
72.9410637
0
ARC
8
DEFAULT_255_2_778
10
14.286026
20
3.8455561
40
0.9336611
50
49.5769048
51
69.7188878
0
ARC
8
DEFAULT_255_2_778
10
14.2806069
20
3.8449748
40
0.9376249
50
32.2357778
51
49.3478421
0
ARC
8
DEFAULT_255_2_778
10
14.130911
20
3.7517699
40
1.113963
50
19.076082
51
32.1838255
0
ARC
8
DEFAULT_255_2_778
10
13.8184439
20
3.6430065
40
1.4448178
50
8.9712233
51
19.1026153
0
ARC
8
DEFAULT_255_2_778
10
13.3440148
20
3.5661046
40
1.9254359
50
1.4208004
51
9.0301274
0
ARC
8
DEFAULT_255_2_778
10
12.9666108
20
3.5498806
40
2.3031363
50
359.9907079
51
1.5914887
0
ARC
8
DEFAULT_255_2_778
10
13.3636486
20
3.5090447
40
1.3802383
50
359.1847849
51
15.4743581
0
ARC
8
DEFAULT_255_2_778
10
14.1074571
20
3.7447822
40
0.6011837
50
12.7343798
51
72.0125235
0
ARC
8
DEFAULT_255_2_778
10
14.0799972
20
3.5915066
40
0.7557454
50
73.6211301
51
90.6254797
0
ARC
8
DEFAULT_255_2_778
10
14.0733787
20
3.6280391
40
0.7191698
50
90.1299865
51
132.9016326
0
ARC
8
DEFAULT_255_2_778
10
14.1457417
20
3.5410044
40
0.8322087
50
132.4719771
51
159.9948271
0
ARC
8
DEFAULT_255_2_778
10
13.7722434
20
3.6692745
40
0.4374247
50
159.0457928
51
159.229274
0
ARC
8
DEFAULT_255_2_778
10
14.0066177
20
3.6054424
40
0.6796072
50
161.2051972
51
182.6680514
0
ARC
8
DEFAULT_255_2_778
10
17.5574997
20
3.8352538
40
1.0003296
50
135.4792648
51
161.7025738
0
ARC
8
DEFAULT_255_2_778
10
17.4269179
20
3.97263
40
0.8109266
50
90.6338381
51
135.9306924
0
ARC
8
DEFAULT_255_2_778
10
17.4154018
20
4.0053195
40
0.7781918
50
82.6018721
51
89.8125957
0
ARC
8
DEFAULT_255_2_778
10
17.0302576
20
0.8985545
40
3.9087284
50
82.187953
51
82.8671749
0
ARC
8
DEFAULT_255_2_778
10
17.4812133
20
3.9092059
40
0.3723699
50
77.5412455
51
77.8165564
0
ARC
8
DEFAULT_255_2_778
10
17.41722
20
3.4504929
40
0.8349595
50
80.1678902
51
92.4211777
0
ARC
8
DEFAULT_255_2_778
10
17.3820192
20
3.6070428
40
0.6776643
50
90.0060911
51
155.0824367
0
ARC
8
DEFAULT_255_2_778
10
17.6783288
20
3.431439
40
1.0209565
50
153.1505209
51
169.7559605
0
ARC
8
DEFAULT_255_2_778
10
18.090025
20
3.3903053
40
1.433779
50
171.0643518
51
178.1768577
0
ARC
8
DEFAULT_255_2_778
10
18.4814857
20
3.3663876
40
1.8258385
50
177.8175008
51
179.9836972
0
ARC
8
DEFAULT_255_2_778
10
18.6414388
20
3.2894433
40
2.0144248
50
349.6142061
51
0.2322011
0
ARC
8
DEFAULT_255_2_778
10
19.0682693
20
3.210009
40
1.580268
50
335.4102775
51
349.6572014
0
ARC
8
DEFAULT_255_2_778
10
19.2851673
20
3.1117324
40
1.3421459
50
314.9075237
51
335.3722359
0
ARC
8
DEFAULT_255_2_778
10
19.2443387
20
3.1760924
40
1.4166488
50
277.9830258
51
314.2393991
0
ARC
8
DEFAULT_255_2_778
10
19.210301
20
3.3089187
40
1.5529901
50
275.2109934
51
278.5460721
0
ARC
8
DEFAULT_255_2_778
10
19.2098825
20
3.3128693
40
1.5569624
50
270.0023789
51
275.2131259
0
ARC
8
DEFAULT_255_2_778
10
19.1993455
20
3.1789497
40
1.4230821
50
244.8295222
51
270.4268447
0
ARC
8
DEFAULT_255_2_778
10
19.1593909
20
3.0711109
40
1.3085259
50
205.7869292
51
244.4045951
0
ARC
8
DEFAULT_255_2_778
10
19.3959419
20
3.1901089
40
1.5732937
50
188.5477097
51
205.9414176
0
ARC
8
DEFAULT_255_2_778
10
19.7228875
20
3.2461153
40
1.9049443
50
179.8829447
51
188.7519188
0
ARC
8
DEFAULT_255_2_778
10
19.7346586
20
3.2590443
40
1.9167328
50
167.2260307
51
180.2701445
0
ARC
8
DEFAULT_255_2_778
10
19.3492072
20
3.3483653
40
1.5210731
50
148.8661351
51
167.29703
0
ARC
8
DEFAULT_255_2_778
10
19.2086421
20
3.4190085
40
1.3642841
50
93.1391087
51
148.3533535
0
ARC
8
DEFAULT_255_2_778
10
19.2573936
20
3.1487043
40
1.6372028
50
89.984129
51
94.3247392
0
ARC
8
DEFAULT_255_2_778
10
19.2674522
20
3.269816
40
1.5161215
50
72.2349017
51
90.3629863
0
ARC
8
DEFAULT_255_2_778
10
19.3280524
20
3.4800807
40
1.2974092
50
18.2642451
51
71.9503041
0
ARC
8
DEFAULT_255_2_778
10
18.9310015
20
3.323389
40
1.7237367
50
2.7719445
51
19.074049
0
ARC
8
DEFAULT_255_2_778
10
18.6448646
20
3.2983195
40
2.0107825
50
359.9853993
51
3.0911501
0
ARC
8
DEFAULT_255_2_778
10
19.8530927
20
3.2588059
40
1.494572
50
179.6587617
51
196.6151027
0
ARC
8
DEFAULT_255_2_778
10
19.4826769
20
3.1432976
40
1.106604
50
196.3682104
51
219.0488608
0
ARC
8
DEFAULT_255_2_778
10
19.2337246
20
2.9322443
40
0.7803375
50
218.5297284
51
270.0383656
0
ARC
8
DEFAULT_255_2_778
10
19.223254
20
2.9601461
40
0.8083138
50
270.7792536
51
329.1011605
0
ARC
8
DEFAULT_255_2_778
10
18.8936045
20
3.197098
40
1.2133358
50
327.4935382
51
347.5576098
0
ARC
8
DEFAULT_255_2_778
10
18.576777
20
3.2743318
40
1.5393791
50
347.2912301
51
0.1963454
0
ARC
8
DEFAULT_255_2_778
10
18.5790939
20
3.2784899
40
1.5370536
50
0.0416452
51
7.1468311
0
ARC
8
DEFAULT_255_2_778
10
18.5681126
20
3.2777441
40
1.5480425
50
7.1236516
51
9.6383826
0
ARC
8
DEFAULT_255_2_778
10
18.9566536
20
3.3821971
40
1.1481242
50
7.7454187
51
44.8727798
0
ARC
8
DEFAULT_255_2_778
10
19.2723994
20
3.653909
40
0.7332835
50
47.2342629
51
79.0767748
0
ARC
8
DEFAULT_255_2_778
10
19.2488189
20
3.5352488
40
0.8542624
50
79.0319774
51
90.1791956
0
ARC
8
DEFAULT_255_2_778
10
19.2381795
20
3.5513817
40
0.8381633
50
89.4553314
51
111.0289367
0
ARC
8
DEFAULT_255_2_778
10
19.2926188
20
3.5191353
40
0.8886638
50
113.5598739
51
163.3534225
0
ARC
8
DEFAULT_255_2_778
10
19.869038
20
3.2815455
40
1.5102811
50
160.981401
51
177.4694905
0
ARC
8
DEFAULT_255_2_778
10
20.0138093
20
3.2672324
40
1.655562
50
177.195832
51
180.0008757
0
ARC
8
DEFAULT_255_2_778
10
22.7713335
20
3.7054667
40
1.1116755
50
124.2168902
51
150.6819174
0
ARC
8
DEFAULT_255_2_778
10
22.6630444
20
3.8324838
40
0.945923
50
102.2736112
51
123.1192349
0
ARC
8
DEFAULT_255_2_778
10
22.7122634
20
3.6073005
40
1.1764223
50
89.7037002
51
102.284543
0
ARC
8
DEFAULT_255_2_778
10
22.7256026
20
3.9336073
40
0.8501307
50
59.2055035
51
90.4889972
0
ARC
8
DEFAULT_255_2_778
10
22.6924945
20
3.9037811
40
0.8927989
50
19.5070483
51
58.3602602
0
ARC
8
DEFAULT_255_2_778
10
24.4863952
20
3.7059386
40
1.0632156
50
134.2781754
51
152.1939725
0
ARC
8
DEFAULT_255_2_778
10
24.6320869
20
3.5612887
40
1.2684969
50
127.8393319
51
134.4282664
0
ARC
8
DEFAULT_255_2_778
10
24.7285183
20
3.4408425
40
1.422775
50
126.8198886
51
127.9306469
0
ARC
8
DEFAULT_255_2_778
10
24.4550095
20
3.8464628
40
0.9344639
50
96.9512585
51
128.3000912
0
ARC
8
DEFAULT_255_2_778
10
24.5052751
20
3.4784259
40
1.3058898
50
89.7906253
51
97.186187
0
ARC
8
DEFAULT_255_2_778
10
24.5095588
20
3.8547619
40
0.9295453
50
81.182903
51
89.9699005
0
ARC
8
DEFAULT_255_2_778
10
24.5121964
20
3.8670997
40
0.9169493
50
70.9640968
51
81.2275941
0
ARC
8
DEFAULT_255_2_778
10
24.5318702
20
3.9206687
40
0.8598937
50
49.7856373
51
71.0391132
0
ARC
8
DEFAULT_255_2_778
10
24.4997545
20
3.8880166
40
0.90557
50
32.5540399
51
49.5678078
0
ARC
8
DEFAULT_255_2_778
10
24.3175074
20
3.7723555
40
1.1214198
50
19.502258
51
32.5245436
0
ARC
8
DEFAULT_255_2_778
10
23.9696463
20
3.6473948
40
1.4910419
50
10.0042892
51
19.5660537
0
ARC
8
DEFAULT_255_2_778
10
23.4486989
20
3.5540943
40
2.0202769
50
2.4568998
51
10.0434788
0
ARC
8
DEFAULT_255_2_778
10
22.9578162
20
3.5258068
40
2.5119313
50
359.9726352
51
2.621548
0
ARC
8
DEFAULT_255_2_778
10
23.1930218
20
3.4729925
40
1.7644688
50
359.5978186
51
9.475698
0
ARC
8
DEFAULT_255_2_778
10
23.9348449
20
3.6018655
40
1.0115635
50
9.1931269
51
24.9457289
0
ARC
8
DEFAULT_255_2_778
10
24.3593542
20
3.8157947
40
0.5366386
50
23.351432
51
85.8546334
0
ARC
8
DEFAULT_255_2_778
10
24.3284196
20
3.6111136
40
0.743194
50
84.6165743
51
90.0672612
0
ARC
8
DEFAULT_255_2_778
10
24.3374487
20
3.7060213
40
0.6483614
50
90.8750375
51
145.2355742
0
ARC
8
DEFAULT_255_2_778
10
24.4669943
20
3.5876117
40
0.8226342
50
143.6051087
51
159.2840042
0
ARC
8
DEFAULT_255_2_778
10
24.5539392
20
3.6066902
40
0.8985245
50
162.3846016
51
179.5142904
0
ARC
8
DEFAULT_255_2_778
10
21.8996255
20
3.573367
40
1.2396873
50
359.4102538
51
14.710254
0
ARC
8
DEFAULT_255_2_778
10
22.409792
20
3.7145323
40
0.7104311
50
14.1464176
51
40.6367314
0
ARC
8
DEFAULT_255_2_778
10
22.559285
20
3.8278191
40
0.5233324
50
41.8839166
51
86.5981186
0
ARC
8
DEFAULT_255_2_778
10
22.5341592
20
3.6586129
40
0.6938944
50
85.3560715
51
90.0422824
0
ARC
8
DEFAULT_255_2_778
10
22.5595059
20
3.6686455
40
0.6843503
50
92.1654867
51
150.0501223
0
ARC
8
DEFAULT_255_2_778
10
22.6570509
20
3.5735714
40
0.8170289
50
147.6876049
51
162.0399754
0
ARC
8
DEFAULT_255_2_778
10
22.4352068
20
3.6473899
40
0.5832354
50
162.2182833
51
162.3108963
0
ARC
8
DEFAULT_255_2_778
10
22.4644198
20
3.6028797
40
0.6254911
50
159.2380972
51
177.7683532
0
ARC
8
DEFAULT_255_2_778
10
22.820021
20
3.5668778
40
0.9824738
50
176.4778125
51
180.0099567
0
ARC
8
DEFAULT_255_2_778
10
28.02648
20
3.1916168
40
1.4074987
50
180.5540276
51
193.0564638
0
ARC
8
DEFAULT_255_2_778
10
27.6028781
20
3.0907354
40
0.972061
50
192.9045683
51
212.2420033
0
ARC
8
DEFAULT_255_2_778
10
27.5287824
20
3.0783022
40
0.9032236
50
214.0828032
51
267.372426
0
ARC
8
DEFAULT_255_2_778
10
27.6137434
20
3.5446083
40
1.3744017
50
264.7245397
51
270.0501829
0
ARC
8
DEFAULT_255_2_778
10
27.6226592
20
4.8686183
40
2.6984223
50
269.8362487
51
275.324962
0
ARC
8
DEFAULT_255_2_778
10
27.6957055
20
4.0991177
40
1.925464
50
275.2857416
51
282.9897082
0
ARC
8
DEFAULT_255_2_778
10
27.752475
20
3.8315591
40
1.6519989
50
283.1570185
51
292.8794637
0
ARC
8
DEFAULT_255_2_778
10
27.6431721
20
4.1024002
40
1.944033
50
292.7439535
51
293.5222991
0
ARC
8
DEFAULT_255_2_778
10
27.8427173
20
3.4336829
40
1.6362831
50
292.1273843
51
294.2606582
0
ARC
8
DEFAULT_255_2_778
10
27.7944422
20
3.5514348
40
1.7635461
50
290.8441171
51
292.139285
0
ARC
8
DEFAULT_255_2_778
10
27.7141697
20
3.7702413
40
1.9965974
50
285.129104
51
290.7626657
0
ARC
8
DEFAULT_255_2_778
10
27.6246845
20
4.0988731
40
2.3371939
50
279.538602
51
285.1441172
0
ARC
8
DEFAULT_255_2_778
10
27.5668143
20
4.4444518
40
2.6875847
50
273.5489738
51
279.5344139
0
ARC
8
DEFAULT_255_2_778
10
27.5446317
20
4.7645332
40
3.0084264
50
269.9736313
51
273.5932825
0
ARC
8
DEFAULT_255_2_778
10
27.5328313
20
3.4904676
40
1.7343918
50
256.2185691
51
270.3440902
0
ARC
8
DEFAULT_255_2_778
10
27.4307335
20
3.0881732
40
1.3193614
50
233.1962015
51
256.3629411
0
ARC
8
DEFAULT_255_2_778
10
27.4184751
20
3.0427327
40
1.2757524
50
198.0545118
51
232.4144008
0
ARC
8
DEFAULT_255_2_778
10
27.8431549
20
3.1947698
40
1.72669
50
182.8410402
51
198.4836849
0
ARC
8
DEFAULT_255_2_778
10
28.1942298
20
3.2252083
40
2.0788827
50
179.9807412
51
183.1993344
0
ARC
8
DEFAULT_255_2_778
10
28.1088015
20
3.2364107
40
1.993482
50
164.2649071
51
180.3018926
0
ARC
8
DEFAULT_255_2_778
10
27.6596116
20
3.3690172
40
1.5251747
50
141.5664717
51
164.4835946
0
ARC
8
DEFAULT_255_2_778
10
27.4295129
20
3.5460175
40
1.2349149
50
101.2683931
51
141.3631993
0
ARC
8
DEFAULT_255_2_778
10
27.4730798
20
3.3469404
40
1.4386724
50
89.8380149
51
101.4207793
0
ARC
8
DEFAULT_255_2_778
10
27.4837538
20
3.3650763
40
1.4205461
50
79.1644565
51
90.2664719
0
ARC
8
DEFAULT_255_2_778
10
27.5438672
20
3.6759252
40
1.1039387
50
63.7458275
51
79.1958534
0
ARC
8
DEFAULT_255_2_778
10
27.5831387
20
3.7659032
40
1.0058815
50
39.3904087
51
63.484843
0
ARC
8
DEFAULT_255_2_778
10
27.3071807
20
3.5629581
40
1.3480659
50
13.7875212
51
38.613478
0
ARC
8
DEFAULT_255_2_778
10
26.8760904
20
3.4309338
40
1.7983796
50
6.8820258
51
14.5993919
0
ARC
8
DEFAULT_255_2_778
10
26.8094868
20
3.4208952
40
1.8657075
50
1.7296013
51
6.9430007
0
ARC
8
DEFAULT_255_2_778
10
26.8874641
20
3.4236378
40
1.787683
50
0.0054264
51
1.7171728
0
ARC
8
DEFAULT_255_2_778
10
26.876001
20
3.4124857
40
1.7991818
50
355.3879308
51
0.3605365
0
ARC
8
DEFAULT_255_2_778
10
27.8609751
20
3.3341211
40
0.8110966
50
348.8812778
51
355.3109493
0
ARC
8
DEFAULT_255_2_778
10
27.0891207
20
3.575704
40
1.0782101
50
358.9426234
51
0.0023647
0
ARC
8
DEFAULT_255_2_778
10
27.0235471
20
3.574959
40
1.1437838
50
0.0395507
51
6.6876976
0
ARC
8
DEFAULT_255_2_778
10
27.0620559
20
3.5807802
40
1.1048597
50
6.6204384
51
14.1000301
0
ARC
8
DEFAULT_255_2_778
10
27.400939
20
3.6911782
40
0.749693
50
12.226137
51
51.7368768
0
ARC
8
DEFAULT_255_2_778
10
27.4911727
20
3.7675389
40
0.6342948
50
53.8656333
51
76.4573315
0
ARC
8
DEFAULT_255_2_778
10
27.441354
20
3.5635565
40
0.8442718
50
76.4120615
51
90.4076528
0
ARC
8
DEFAULT_255_2_778
10
27.4291666
20
3.6377612
40
0.7700707
50
89.5401407
51
108.9139446
0
ARC
8
DEFAULT_255_2_778
10
27.4433525
20
3.6520932
40
0.7613251
50
110.2736605
51
151.2568501
0
ARC
8
DEFAULT_255_2_778
10
27.7536487
20
3.4524959
40
1.1296653
50
149.9488203
51
162.9701157
0
ARC
8
DEFAULT_255_2_778
10
27.88047
20
3.4092161
40
1.2636084
50
162.7778674
51
170.1590057
0
ARC
8
DEFAULT_255_2_778
10
27.8413515
20
3.4158297
40
1.2239351
50
170.1510674
51
173.4329038
0
LINE
8
DEFAULT_255_2_778
10
12.1924471
20
4.6276071
11
12.0725471
21
4.2260071
0
LINE
8
DEFAULT_255_2_778
10
12.0902471
20
2.3184071
11
12.1802471
21
1.9236071
0
LINE
8
DEFAULT_255_2_778
10
12.7982471
20
6.0810071
11
13.3261471
21
6.0810071
0
LINE
8
DEFAULT_255_2_778
10
13.3261471
20
6.0810071
11
13.3261471
21
4.2633071
0
LINE
8
DEFAULT_255_2_778
10
13.3261471
20
4.2633071
11
13.3380471
21
4.2633071
0
LINE
8
DEFAULT_255_2_778
10
15.2697471
20
3.5495071
11
15.2697471
21
1.8217071
0
LINE
8
DEFAULT_255_2_778
10
15.2697471
20
1.8217071
11
14.7437471
21
1.8217071
0
LINE
8
DEFAULT_255_2_778
10
14.7437471
20
1.8217071
11
14.7437471
21
3.4894071
0
LINE
8
DEFAULT_255_2_778
10
13.3277471
20
3.5738071
11
13.3277471
21
1.8217071
0
LINE
8
DEFAULT_255_2_778
10
13.3277471
20
1.8217071
11
12.7998471
21
1.8217071
0
LINE
8
DEFAULT_255_2_778
10
12.7998471
20
1.8217071
11
12.7982471
21
6.0810071
0
LINE
8
DEFAULT_255_2_778
10
16.1278471
20
3.8196071
11
16.1037471
21
4.7255071
0
LINE
8
DEFAULT_255_2_778
10
16.1037471
20
4.7255071
11
16.5657471
21
4.7255071
0
LINE
8
DEFAULT_255_2_778
10
16.5657471
20
4.7255071
11
16.5897471
21
4.1493071
0
LINE
8
DEFAULT_255_2_778
10
16.5897471
20
4.1493071
11
16.6077471
21
4.1493071
0
LINE
8
DEFAULT_255_2_778
10
17.5615471
20
4.7710071
11
17.5615471
21
4.2728071
0
LINE
8
DEFAULT_255_2_778
10
16.6556471
20
3.3669071
11
16.6556471
21
1.8209071
0
LINE
8
DEFAULT_255_2_778
10
16.6556471
20
1.8209071
11
16.1275471
21
1.8209071
0
LINE
8
DEFAULT_255_2_778
10
16.1275471
20
1.8209071
11
16.1275471
21
3.8188071
0
LINE
8
DEFAULT_255_2_778
10
16.1275471
20
3.8188071
11
16.1278471
21
3.8196071
0
LINE
8
DEFAULT_255_2_778
10
20.6556471
20
3.2978071
11
20.6558471
21
3.2976071
0
LINE
8
DEFAULT_255_2_778
10
18.3582471
20
3.2672071
11
18.3585471
21
3.2677071
0
LINE
8
DEFAULT_255_2_778
10
21.3218471
20
3.9397071
11
21.2980471
21
4.7255071
0
LINE
8
DEFAULT_255_2_778
10
21.2980471
20
4.7255071
11
21.7597471
21
4.7255071
0
LINE
8
DEFAULT_255_2_778
10
21.7597471
20
4.7255071
11
21.7838471
21
4.2498071
0
LINE
8
DEFAULT_255_2_778
10
21.7838471
20
4.2498071
11
21.8020471
21
4.2498071
0
LINE
8
DEFAULT_255_2_778
10
23.5340471
20
4.2019071
11
23.5459471
21
4.2019071
0
LINE
8
DEFAULT_255_2_778
10
25.4697471
20
3.5246071
11
25.4697471
21
1.8209071
0
LINE
8
DEFAULT_255_2_778
10
25.4697471
20
1.8209071
11
24.9574471
21
1.8209071
0
LINE
8
DEFAULT_255_2_778
10
24.9574471
20
1.8209071
11
24.9574471
21
3.4606071
0
LINE
8
DEFAULT_255_2_778
10
23.6554471
20
3.6143071
11
23.6554471
21
1.8207071
0
LINE
8
DEFAULT_255_2_778
10
23.6554471
20
1.8207071
11
23.1392471
21
1.8207071
0
LINE
8
DEFAULT_255_2_778
10
23.1392471
20
1.8207071
11
23.1392471
21
3.5606071
0
LINE
8
DEFAULT_255_2_778
10
21.8375471
20
3.5667071
11
21.8375471
21
1.8209071
0
LINE
8
DEFAULT_255_2_778
10
21.8375471
20
1.8209071
11
21.3213471
21
1.8209071
0
LINE
8
DEFAULT_255_2_778
10
21.3213471
20
1.8209071
11
21.3218471
21
3.9397071
0
LINE
8
DEFAULT_255_2_778
10
28.4190471
20
2.3199071
11
28.5150471
21
1.9419071
0
LINE
8
DEFAULT_255_2_778
10
28.6568471
20
3.1777071
11
26.6188471
21
3.1777071
0
LINE
8
DEFAULT_255_2_778
10
26.6188471
20
3.1777071
11
26.6190471
21
3.1780071
0
LINE
8
DEFAULT_255_2_778
10
26.6254471
20
3.5558071
11
28.1671471
21
3.5558071
0
ARC
8
DEFAULT_255_2_778
10
4.3136708
20
3.911745
40
4.0769984
50
180.0013292
51
180.1230433
0
ARC
8
DEFAULT_255_2_778
10
4.2399448
20
3.9116705
40
4.0032724
50
135.0004451
51
180.0002877
0
ARC
8
DEFAULT_255_2_778
10
4.2399008
20
3.9116266
40
4.0032724
50
89.9997123
51
134.9995549
0
ARC
8
DEFAULT_255_2_778
10
4.2398263
20
3.8379006
40
4.0769984
50
89.8769567
51
89.9986708
0
ARC
8
DEFAULT_255_2_778
10
4.2577089
20
3.8316744
40
4.0832254
50
90.0012765
51
90.128073
0
ARC
8
DEFAULT_255_2_778
10
4.25765
20
3.9120816
40
4.0028182
50
44.9997596
51
90.0004583
0
ARC
8
DEFAULT_255_2_778
10
4.2580982
20
3.9119509
40
4.0025937
50
0.0010418
51
45.0056198
0
ARC
8
DEFAULT_255_2_778
10
4.1796547
20
3.9121144
40
4.0810372
50
359.8718922
51
359.9987253
0
ARC
8
DEFAULT_255_2_778
10
4.1803983
20
3.8938657
40
4.0802936
50
0.0012748
51
0.1281191
0
ARC
8
DEFAULT_255_2_778
10
4.2578326
20
3.8941384
40
4.0028593
50
314.9979789
51
359.9973953
0
ARC
8
DEFAULT_255_2_778
10
4.2576308
20
3.8939468
40
4.0028665
50
269.998737
51
315.0019614
0
ARC
8
DEFAULT_255_2_778
10
4.2576371
20
3.9680787
40
4.0769984
50
269.8769567
51
269.9986708
0
ARC
8
DEFAULT_255_2_778
10
4.2397545
20
3.9743059
40
4.0832265
50
270.0012765
51
270.128073
0
ARC
8
DEFAULT_255_2_778
10
4.2398093
20
3.8941289
40
4.0030495
50
225.001131
51
270.0005184
0
ARC
8
DEFAULT_255_2_778
10
4.2396793
20
3.8941987
40
4.0030069
50
179.9981495
51
225.0031532
0
ARC
8
DEFAULT_255_2_778
10
4.3144293
20
3.8942334
40
4.0777569
50
179.8769681
51
179.9986709
0
LINE
8
DEFAULT_255_2_778
10
0.2366817
20
3.9029896
11
0.2366817
21
3.9029896
0
ARC
8
DEFAULT_255_2_778
10
4.2544804
20
3.1762577
40
2.5473231
50
359.9323599
51
20.7877524
0
ARC
8
DEFAULT_255_2_778
10
4.2461445
20
3.1699582
40
2.5573537
50
20.8534175
51
79.2636807
0
ARC
8
DEFAULT_255_2_778
10
4.2498024
20
3.1593365
40
2.5671142
50
79.3880557
51
90.0223348
0
ARC
8
DEFAULT_255_2_778
10
4.2458101
20
3.1792359
40
2.5472163
50
89.9327079
51
110.7883466
0
ARC
8
DEFAULT_255_2_778
10
4.2521368
20
3.1707445
40
2.5574021
50
110.853343
51
169.2659374
0
ARC
8
DEFAULT_255_2_778
10
4.2627412
20
3.1744356
40
2.5671396
50
169.3909592
51
180.0264516
0
ARC
8
DEFAULT_255_2_778
10
4.2413849
20
3.1758756
40
1.8162851
50
154.2882224
51
180.082812
0
ARC
8
DEFAULT_255_2_778
10
4.249745
20
3.171439
40
1.8257422
50
99.1997541
51
154.2765996
0
ARC
8
DEFAULT_255_2_778
10
4.2479469
20
3.1600305
40
1.83672
50
89.9795741
51
99.0874877
0
ARC
8
DEFAULT_255_2_778
10
4.2511898
20
3.1806869
40
1.8160655
50
64.286641
51
90.0816529
0
ARC
8
DEFAULT_255_2_778
10
4.2465639
20
3.1718749
40
1.8260118
50
9.4636412
51
64.2758297
0
ARC
8
DEFAULT_255_2_778
10
4.2363333
20
3.173934
40
1.8357685
50
359.9786672
51
9.3477489
0
ARC
8
DEFAULT_255_2_778
10
4.4286781
20
3.3953454
40
1.3836798
50
149.8442957
51
180.1281545
0
ARC
8
DEFAULT_255_2_778
10
4.4271278
20
3.3958947
40
1.3820634
50
97.6996262
51
149.8317024
0
ARC
8
DEFAULT_255_2_778
10
4.4304604
20
3.3676903
40
1.4104602
50
89.9820729
51
97.6802771
0
ARC
8
DEFAULT_255_2_778
10
4.433972
20
3.3945474
40
1.3836065
50
59.8434824
51
90.1271435
0
ARC
8
DEFAULT_255_2_778
10
4.4344795
20
3.3959518
40
1.3821372
50
7.702247
51
59.8324227
0
ARC
8
DEFAULT_255_2_778
10
4.4065193
20
3.3926889
40
1.4102825
50
359.9821883
51
7.6813693
0
ARC
8
DEFAULT_255_2_778
10
4.5390394
20
3.3901028
40
1.2777641
50
359.9949324
51
0.096305
0
ARC
8
DEFAULT_255_2_778
10
4.4327332
20
3.3900529
40
1.3840704
50
315.0107164
51
359.9973849
0
ARC
8
DEFAULT_255_2_778
10
4.4329929
20
3.3899927
40
1.3838441
50
270.0069567
51
315.0048765
0
ARC
8
DEFAULT_255_2_778
10
4.4325963
20
2.9177299
40
0.9115815
50
269.8934883
51
270.0354852
0
ARC
8
DEFAULT_255_2_778
10
4.4278134
20
3.3896635
40
1.3835165
50
239.8400505
51
270.1278982
0
ARC
8
DEFAULT_255_2_778
10
4.4274794
20
3.3884279
40
1.3822802
50
187.6974178
51
239.8262879
0
ARC
8
DEFAULT_255_2_778
10
4.4558342
20
3.3918092
40
1.4108325
50
179.9820809
51
187.6792657
0
LINE
8
DEFAULT_255_2_778
10
1.6956017
20
3.1732505
11
2.4251017
21
3.1732505
0
LINE
8
DEFAULT_255_2_778
10
3.0450017
20
3.3922505
11
3.0450017
21
3.3922505
0
ARC
8
DEFAULT_255_2_778
10
4.3756623
20
3.9061485
40
1.6225957
50
180.0038089
51
180.1102419
0
ARC
8
DEFAULT_255_2_778
10
4.2451766
20
3.9061712
40
1.4921101
50
134.9959766
51
180.0050145
0
ARC
8
DEFAULT_255_2_778
10
4.2453248
20
3.9063194
40
1.4921101
50
89.9949855
51
135.0040234
0
ARC
8
DEFAULT_255_2_778
10
4.2453475
20
3.7758337
40
1.6225958
50
89.8897581
51
89.9961911
0
ARC
8
DEFAULT_255_2_778
10
4.2515923
20
3.7749951
40
1.6234344
50
90.0038079
51
90.1102127
0
ARC
8
DEFAULT_255_2_778
10
4.2516903
20
3.9062617
40
1.4921678
50
44.9968932
51
90.0079066
0
ARC
8
DEFAULT_255_2_778
10
4.2514417
20
3.9059969
40
1.4925308
50
0.0016036
51
44.9973321
0
ARC
8
DEFAULT_255_2_778
10
4.1234777
20
3.9061465
40
1.6204949
50
359.8896849
51
359.9961885
0
ARC
8
DEFAULT_255_2_778
10
4.1226399
20
3.8999056
40
1.6213326
50
0.0038104
51
0.1102859
0
ARC
8
DEFAULT_255_2_778
10
4.2513841
20
3.8999799
40
1.4925885
50
315.003584
51
0.0012891
0
ARC
8
DEFAULT_255_2_778
10
4.2518274
20
3.8996984
40
1.492076
50
270.0011432
51
314.9991916
0
ARC
8
DEFAULT_255_2_778
10
4.2519515
20
4.0017975
40
1.5941749
50
269.8748561
51
269.9966099
0
ARC
8
DEFAULT_255_2_778
10
4.2449885
20
4.0008324
40
1.5932098
50
270.0033913
51
270.1251882
0
ARC
8
DEFAULT_255_2_778
10
4.2451877
20
3.8996406
40
1.492018
50
224.999891
51
269.9959689
0
ARC
8
DEFAULT_255_2_778
10
4.2452343
20
3.8998056
40
1.4921678
50
179.9920934
51
225.0031068
0
ARC
8
DEFAULT_255_2_778
10
4.3765009
20
3.8999037
40
1.6234344
50
179.8897873
51
179.9961921
0
LINE
8
DEFAULT_255_2_778
10
2.7530695
20
3.9030265
11
2.7530695
21
3.9030265
0
ARC
8
DEFAULT_255_2_778
10
4.2249765
20
3.9049569
40
4.0980374
50
26.3944869
51
39.2092953
0
ARC
8
DEFAULT_255_2_778
10
4.2558949
20
3.9273876
40
4.0599016
50
39.2398493
51
57.7203686
0
ARC
8
DEFAULT_255_2_778
10
4.2323016
20
3.8909132
40
4.103339
50
57.7138371
51
89.9650994
0
ARC
8
DEFAULT_255_2_778
10
4.234694
20
3.9320577
40
4.0621938
50
89.9984897
51
95.3446895
0
ARC
8
DEFAULT_255_2_778
10
4.2340259
20
3.9401209
40
4.0541035
50
95.3459034
51
104.4831061
0
ARC
8
DEFAULT_255_2_778
10
4.2413916
20
3.9129591
40
4.0822442
50
104.4878589
51
111.9401529
0
ARC
8
DEFAULT_255_2_778
10
4.2634437
20
3.8575125
40
4.1419145
50
111.9365274
51
116.4322934
0
ARC
8
DEFAULT_255_2_778
10
4.2369896
20
3.9097829
40
4.0833325
50
116.4263877
51
145.8732749
0
ARC
8
DEFAULT_255_2_778
10
4.2578257
20
3.9097665
40
1.8450247
50
191.8682752
51
197.4811667
0
ARC
8
DEFAULT_255_2_778
10
4.2407339
20
3.9059364
40
1.8275108
50
189.9964934
51
191.8609665
0
ARC
8
DEFAULT_255_2_778
10
4.2272706
20
3.9037437
40
1.8138713
50
181.8649313
51
190.0021054
0
ARC
8
DEFAULT_255_2_778
10
4.2222197
20
3.9034472
40
1.8088134
50
179.9999668
51
181.8607514
0
ARC
8
DEFAULT_255_2_778
10
4.2393114
20
3.9014858
40
1.8259062
50
116.9488811
51
179.9384209
0
ARC
8
DEFAULT_255_2_778
10
4.2401804
20
3.8911066
40
1.8355564
50
107.434745
51
116.8262324
0
ARC
8
DEFAULT_255_2_778
10
4.2370835
20
3.9057405
40
1.8206674
50
90.7890151
51
107.4797478
0
LINE
8
DEFAULT_255_2_778
10
0.8568121
20
6.2006353
11
2.4980121
21
3.3555353
0
ARC
8
DEFAULT_255_2_778
10
4.2778855
20
3.9059846
40
4.1194446
50
146.1447474
51
154.5444427
0
ARC
8
DEFAULT_255_2_778
10
4.2231853
20
3.9325813
40
4.0586233
50
154.551558
51
164.5892346
0
ARC
8
DEFAULT_255_2_778
10
4.2287794
20
3.9318338
40
4.0642148
50
164.6000316
51
177.2239185
0
ARC
8
DEFAULT_255_2_778
10
4.2517567
20
3.9301009
40
4.0872489
50
177.2152548
51
180.0004148
0
ARC
8
DEFAULT_255_2_778
10
4.2628912
20
3.9294437
40
4.0983835
50
179.9912269
51
214.5091772
0
ARC
8
DEFAULT_255_2_778
10
4.2289128
20
3.9109577
40
4.0599132
50
214.5658656
51
228.6693207
0
ARC
8
DEFAULT_255_2_778
10
4.2732748
20
3.9613071
40
4.1270178
50
228.6684754
51
236.162729
0
ARC
8
DEFAULT_255_2_778
10
4.2495401
20
3.9266795
40
4.085039
50
236.1687976
51
265.3799923
0
ARC
8
DEFAULT_255_2_778
10
4.2285953
20
3.9324406
40
1.8229632
50
270.0084085
51
320.5130413
0
ARC
8
DEFAULT_255_2_778
10
4.2289044
20
3.9307702
40
1.8212928
50
262.9040185
51
269.998693
0
ARC
8
DEFAULT_255_2_778
10
4.2296974
20
3.9373928
40
1.8279627
50
259.4529704
51
262.9049968
0
ARC
8
DEFAULT_255_2_778
10
4.2283948
20
3.9322645
40
1.8226826
50
198.4007573
51
259.4637177
0
LINE
8
DEFAULT_255_2_778
10
3.9205025
20
-0.1450864
11
5.6355025
21
2.7732136
0
ARC
8
DEFAULT_255_2_778
10
4.2336308
20
3.9932856
40
4.1508243
50
265.6730388
51
268.6472037
0
ARC
8
DEFAULT_255_2_778
10
4.2327995
20
3.9642215
40
4.1217487
50
268.6492173
51
269.999693
0
ARC
8
DEFAULT_255_2_778
10
4.2348007
20
3.9050658
40
4.0625936
50
269.9714654
51
287.0039694
0
ARC
8
DEFAULT_255_2_778
10
4.2208277
20
3.9357021
40
4.0959793
50
287.0655596
51
338.4569809
0
ARC
8
DEFAULT_255_2_778
10
4.2351544
20
3.9219791
40
4.0776212
50
338.5624165
51
354.0951437
0
ARC
8
DEFAULT_255_2_778
10
4.1532605
20
3.9332093
40
4.1602368
50
354.0573302
51
355.6766901
0
ARC
8
DEFAULT_255_2_778
10
4.2281366
20
3.9282357
40
4.0851989
50
355.6670819
51
356.2770278
0
ARC
8
DEFAULT_255_2_778
10
4.2304942
20
3.9280738
40
4.0828356
50
356.2771466
51
359.9999467
0
ARC
8
DEFAULT_255_2_778
10
4.2284433
20
3.9279127
40
4.0848864
50
0.0022062
51
26.1230874
0
ARC
8
DEFAULT_255_2_778
10
4.2071146
20
3.9099922
40
1.8165098
50
64.0800733
51
89.8124866
0
ARC
8
DEFAULT_255_2_778
10
4.2018024
20
3.9010119
40
1.8269089
50
9.4011892
51
64.0533385
0
ARC
8
DEFAULT_255_2_778
10
4.1887126
20
3.9020281
40
1.8396596
50
359.9789275
51
9.3033737
0
ARC
8
DEFAULT_255_2_778
10
4.1303327
20
3.9014084
40
1.8980394
50
359.7912225
51
359.9982811
0
ARC
8
DEFAULT_255_2_778
10
4.2050631
20
3.9028764
40
1.8233157
50
321.6747203
51
359.7365368
0
LINE
8
DEFAULT_255_2_778
10
7.8960596
20
5.7264923
11
4.2130596
21
5.7264923
0
ARC
8
DEFAULT_255_2_778
10
4.2580344
20
3.8744299
40
1.834822
50
181.0854027
51
196.4166941
0
ARC
8
DEFAULT_255_2_778
10
4.2597082
20
3.8745501
40
1.8364978
50
180.0000743
51
181.0881619
0
ARC
8
DEFAULT_255_2_778
10
4.2596302
20
3.8746247
40
1.8364196
50
156.8711469
51
180.0024009
0
LINE
8
DEFAULT_255_2_778
10
0.856815
20
6.2008708
11
2.498015
21
3.3558708
0
LINE
8
DEFAULT_255_2_778
10
2.570815
20
4.5959708
11
0.929615
21
6.3101708
0
ARC
8
DEFAULT_255_2_778
10
4.238116
20
3.9448513
40
1.8233979
50
280.7258742
51
320.0170807
0
LINE
8
DEFAULT_255_2_778
10
3.9201692
20
-0.1453899
11
5.6352692
21
2.7732101
0
LINE
8
DEFAULT_255_2_778
10
4.5774692
20
2.1533101
11
3.8479692
21
-0.1443899
0
ARC
8
DEFAULT_255_2_778
10
4.2035773
20
3.9013735
40
1.8254202
50
38.345595
51
89.7097908
0
LINE
8
DEFAULT_255_2_778
10
7.8958232
20
5.7267703
11
4.2128232
21
5.7267703
0
LINE
8
DEFAULT_255_2_778
10
5.6352232
20
5.0338703
11
7.9694232
21
5.6174703
0
ENDSEC
0
EOF