0
SECTION
2
HEADER
9
$MEASUREMENT
70
1
0
ENDSEC
0
SECTION
2
TABLES
0
TABLE
2
LTYPE
0
LTYPE
72
65
70
64
2
CONTINUOUS
3
______
73
0
40
0
0
ENDTAB
0
TABLE
2
LAYER
0
LAYER
2
DEFAULT_255_2_778
70
0
62
255
6
CONTINUOUS
0
ENDTAB
0
ENDSEC
0
SECTION
2
ENTITIES
0
ARC
8
DEFAULT_255_2_778
10
19.8218172
20
0.8893762
40
1.1192334
50
12.5803754
51
89.3403512
0
ARC
8
DEFAULT_255_2_778
10
19.8102538
20
0.8872812
40
1.1309756
50
10.6623558
51
12.5563657
0
ARC
8
DEFAULT_255_2_778
10
19.8193135
20
0.8886284
40
1.1218232
50
0.0118923
51
10.6803526
0
ARC
8
DEFAULT_255_2_778
10
19.8217587
20
0.8895787
40
1.1193782
50
291.9899219
51
359.9632739
0
ARC
8
DEFAULT_255_2_778
10
19.8210118
20
0.8890941
40
1.119209
50
277.1110268
51
292.0346694
0
ARC
8
DEFAULT_255_2_778
10
19.8219477
20
0.8839133
40
1.1139522
50
275.2888313
51
277.0962468
0
ARC
8
DEFAULT_255_2_778
10
19.8218493
20
0.8850669
40
1.11511
50
269.9992607
51
275.2883996
0
ARC
8
DEFAULT_255_2_778
10
19.8216209
20
0.8894026
40
1.1194457
50
216.2101573
51
270.0109567
0
ARC
8
DEFAULT_255_2_778
10
19.830136
20
0.8949765
40
1.1296091
50
213.3279109
51
216.1831212
0
ARC
8
DEFAULT_255_2_778
10
19.8188052
20
0.8885417
40
1.1166066
50
191.329835
51
213.3714761
0
ARC
8
DEFAULT_255_2_778
10
19.8210399
20
0.8887297
40
1.1188346
50
181.5615156
51
191.3167887
0
ARC
8
DEFAULT_255_2_778
10
19.8237826
20
0.8888813
40
1.1215806
50
179.9998487
51
181.5654382
0
ARC
8
DEFAULT_255_2_778
10
19.8203353
20
0.8896374
40
1.1181335
50
139.8568711
51
180.0385965
0
ARC
8
DEFAULT_255_2_778
10
19.8264034
20
0.8838679
40
1.1264918
50
134.6379432
51
139.8315239
0
ARC
8
DEFAULT_255_2_778
10
19.8215448
20
0.8896437
40
1.1189684
50
89.9978822
51
134.6687182
0
ARC
8
DEFAULT_255_2_778
10
19.8215824
20
0.8878666
40
1.1207457
50
89.3292358
51
89.9998066
0
ARC
8
DEFAULT_255_2_778
10
15.8426781
20
6.2344687
40
2.244559
50
90.0004086
51
93.4603202
0
ARC
8
DEFAULT_255_2_778
10
15.8424663
20
6.2352902
40
2.2437374
50
48.2303892
51
89.9949991
0
ARC
8
DEFAULT_255_2_778
10
16.0289686
20
6.6619173
40
1.8071443
50
0.0063324
51
43.6252314
0
ARC
8
DEFAULT_255_2_778
10
16.0282123
20
6.6621216
40
1.8079006
50
357.5816297
51
359.9998534
0
ARC
8
DEFAULT_255_2_778
10
16.1367367
20
6.4770294
40
1.701249
50
0.0019738
51
3.6669448
0
ARC
8
DEFAULT_255_2_778
10
16.1470265
20
6.4779042
40
1.6909594
50
293.7856033
51
359.9723439
0
ARC
8
DEFAULT_255_2_778
10
16.143763
20
6.4875372
40
1.7010907
50
289.8220456
51
293.7553299
0
ARC
8
DEFAULT_255_2_778
10
15.6132473
20
6.514381
40
0.6193048
50
356.0792912
51
359.9993674
0
ARC
8
DEFAULT_255_2_778
10
15.6138671
20
6.5143848
40
0.618685
50
359.9990176
51
42.1709155
0
ARC
8
DEFAULT_255_2_778
10
15.5934576
20
6.4198985
40
0.6995156
50
46.7894726
51
73.5797381
0
ARC
8
DEFAULT_255_2_778
10
15.3233659
20
5.5903713
40
1.5717518
50
72.6835147
51
84.2084208
0
ARC
8
DEFAULT_255_2_778
10
15.1414924
20
4.0075661
40
3.1649018
50
83.8241861
51
88.4623771
0
ARC
8
DEFAULT_255_2_778
10
15.0505446
20
1.4671682
40
5.7068707
50
88.2339957
51
89.0385643
0
ARC
8
DEFAULT_255_2_778
10
15.0779491
20
9.1636667
40
3.3934198
50
271.1541851
51
276.187332
0
ARC
8
DEFAULT_255_2_778
10
15.2457376
20
7.6563117
40
1.8767661
50
276.0545605
51
284.0387399
0
ARC
8
DEFAULT_255_2_778
10
15.4671725
20
6.7945059
40
0.9870025
50
283.7040182
51
298.1819744
0
ARC
8
DEFAULT_255_2_778
10
15.6802073
20
6.4075232
40
0.5453081
50
297.6546921
51
355.1388586
0
ARC
8
DEFAULT_255_2_778
10
15.2656239
20
6.4818571
40
0.9654849
50
352.827718
51
0.2004892
0
ARC
8
DEFAULT_255_2_778
10
6.9997034
20
10.0940641
40
1.1219714
50
22.3349121
51
89.994932
0
ARC
8
DEFAULT_255_2_778
10
7.0007704
20
10.0943755
40
1.1208662
50
3.4364569
51
22.3409121
0
ARC
8
DEFAULT_255_2_778
10
7.0005101
20
10.0944586
40
1.1211208
50
359.9999189
51
3.4314229
0
ARC
8
DEFAULT_255_2_778
10
6.9999255
20
10.0941606
40
1.1217054
50
314.6551404
51
0.0151389
0
ARC
8
DEFAULT_255_2_778
10
6.9997444
20
10.0939929
40
1.1217134
50
269.9839628
51
314.6677442
0
ARC
8
DEFAULT_255_2_778
10
6.9994236
20
10.0935237
40
1.1212443
50
266.811262
51
270.0003476
0
ARC
8
DEFAULT_255_2_778
10
6.9994522
20
10.0927844
40
1.1205076
50
246.9759789
51
266.8076991
0
ARC
8
DEFAULT_255_2_778
10
6.9999044
20
10.0941935
40
1.1219812
50
180.0081846
51
246.982869
0
ARC
8
DEFAULT_255_2_778
10
7.0073022
20
10.0940437
40
1.1293791
50
179.3205896
51
180.0005321
0
ARC
8
DEFAULT_255_2_778
10
6.9949113
20
10.0960163
40
1.116967
50
141.4061999
51
179.4142344
0
ARC
8
DEFAULT_255_2_778
10
6.9988848
20
10.0958217
40
1.1201964
50
93.5477552
51
141.5252013
0
ARC
8
DEFAULT_255_2_778
10
6.9997277
20
10.0775744
40
1.138461
50
89.9962239
51
93.5332637
0
ARC
8
DEFAULT_255_2_778
10
3.3032306
20
5.3023367
40
1.5587172
50
32.4477433
51
90.0012921
0
ARC
8
DEFAULT_255_2_778
10
3.3031967
20
5.2939481
40
1.5671058
50
90.0000448
51
90.2776505
0
ARC
8
DEFAULT_255_2_778
10
3.3265751
20
5.5385361
40
1.322862
50
91.3415974
51
136.7144973
0
ARC
8
DEFAULT_255_2_778
10
3.3262266
20
5.5385428
40
1.3226037
50
136.7043567
51
179.9942261
0
ARC
8
DEFAULT_255_2_778
10
3.3267754
20
5.538679
40
1.3231525
50
180.0001296
51
182.089529
0
ARC
8
DEFAULT_255_2_778
10
3.3280159
20
5.4530043
40
1.3240425
50
178.380012
51
179.9995113
0
ARC
8
DEFAULT_255_2_778
10
3.3268332
20
5.4531639
40
1.3228596
50
180.0064229
51
223.747222
0
ARC
8
DEFAULT_255_2_778
10
3.3267408
20
5.4531805
40
1.3228044
50
223.7505096
51
269.1103792
0
ARC
8
DEFAULT_255_2_778
10
3.314125
20
5.7154054
40
1.5848898
50
269.7135961
51
269.9984948
0
ARC
8
DEFAULT_255_2_778
10
3.3140644
20
5.6887392
40
1.5582235
50
270.000697
51
327.5579317
0
ARC
8
DEFAULT_255_2_778
10
3.3080159
20
5.4807859
40
3.1228192
50
298.0439548
51
316.4406942
0
ARC
8
DEFAULT_255_2_778
10
3.3047497
20
5.4888256
40
3.1314506
50
270.0039353
51
298.0275396
0
ARC
8
DEFAULT_255_2_778
10
3.3049482
20
5.4810646
40
3.1236896
50
266.3033461
51
270.0003047
0
ARC
8
DEFAULT_255_2_778
10
3.3047419
20
5.4777595
40
3.1203783
50
253.9602107
51
266.303213
0
ARC
8
DEFAULT_255_2_778
10
3.3094042
20
5.4939998
40
3.1372745
50
248.2763247
51
253.9603304
0
ARC
8
DEFAULT_255_2_778
10
3.3030056
20
5.481019
40
3.1228475
50
224.1793304
51
248.2972313
0
ARC
8
DEFAULT_255_2_778
10
3.3057655
20
5.4849226
40
3.1275473
50
185.7896039
51
224.195381
0
ARC
8
DEFAULT_255_2_778
10
3.315028
20
5.4846393
40
3.1367341
50
180.1352386
51
185.7673882
0
ARC
8
DEFAULT_255_2_778
10
3.291264
20
5.4850471
40
3.1129711
50
179.9985621
51
180.1437768
0
ARC
8
DEFAULT_255_2_778
10
3.3004589
20
5.486331
40
3.1221664
50
155.6898641
51
180.0221286
0
ARC
8
DEFAULT_255_2_778
10
3.3054375
20
5.4850871
40
3.1272158
50
117.6038846
51
155.7066446
0
ARC
8
DEFAULT_255_2_778
10
3.3088764
20
5.4760117
40
3.1368517
50
111.995832
51
117.5827406
0
ARC
8
DEFAULT_255_2_778
10
3.3070486
20
5.483423
40
3.1292955
50
101.5919602
51
112.0156257
0
ARC
8
DEFAULT_255_2_778
10
3.3046903
20
5.4931182
40
3.1193242
50
93.5913973
51
101.5853097
0
ARC
8
DEFAULT_255_2_778
10
3.3049819
20
5.4889583
40
3.1234941
50
89.9996003
51
93.5919563
0
ARC
8
DEFAULT_255_2_778
10
3.3052363
20
5.4834415
40
3.129011
50
52.7200791
51
90.0042577
0
ARC
8
DEFAULT_255_2_778
10
3.3020951
20
5.4818653
40
3.1321682
50
43.859878
51
52.6918232
0
LINE
8
DEFAULT_255_2_778
10
27.5024027
20
8.4749355
11
25.5286027
21
5.7312355
0
LINE
8
DEFAULT_255_2_778
10
25.5286027
20
5.7312355
11
27.6029027
21
2.5112355
0
LINE
8
DEFAULT_255_2_778
10
27.6029027
20
2.5112355
11
25.4598027
21
2.5112355
0
LINE
8
DEFAULT_255_2_778
10
25.4598027
20
2.5112355
11
24.4649027
21
4.2680355
0
LINE
8
DEFAULT_255_2_778
10
24.4649027
20
4.2680355
11
23.2055027
21
2.5112355
0
LINE
8
DEFAULT_255_2_778
10
23.2055027
20
2.5112355
11
21.0360027
21
2.5112355
0
LINE
8
DEFAULT_255_2_778
10
21.0360027
20
2.5112355
11
23.4251027
21
5.7391355
0
LINE
8
DEFAULT_255_2_778
10
23.4251027
20
5.7391355
11
21.5942027
21
8.4749355
0
LINE
8
DEFAULT_255_2_778
10
21.5942027
20
8.4749355
11
23.7823027
21
8.4749355
0
LINE
8
DEFAULT_255_2_778
10
23.7823027
20
8.4749355
11
24.4888027
21
7.2102355
0
LINE
8
DEFAULT_255_2_778
10
24.4888027
20
7.2102355
11
25.3090027
21
8.4749355
0
LINE
8
DEFAULT_255_2_778
10
25.3090027
20
8.4749355
11
27.5024027
21
8.4749355
0
LINE
8
DEFAULT_255_2_778
10
18.9351027
20
8.4749355
11
20.7264027
21
8.4749355
0
LINE
8
DEFAULT_255_2_778
10
20.7264027
20
8.4749355
11
18.9351027
21
8.4749355
0
LINE
8
DEFAULT_255_2_778
10
19.8347027
20
2.0085355
11
19.8347027
21
2.0085355
0
LINE
8
DEFAULT_255_2_778
10
16.7179027
20
4.8845355
11
18.5436027
21
2.5033355
0
LINE
8
DEFAULT_255_2_778
10
18.5436027
20
2.5033355
11
16.2893027
21
2.5033355
0
LINE
8
DEFAULT_255_2_778
10
16.2893027
20
2.5033355
11
15.1516027
21
4.2839355
0
LINE
8
DEFAULT_255_2_778
10
15.1516027
20
4.2839355
11
15.1516027
21
2.5033355
0
LINE
8
DEFAULT_255_2_778
10
15.1516027
20
2.5033355
11
13.3630027
21
2.5033355
0
LINE
8
DEFAULT_255_2_778
10
13.3630027
20
2.5033355
11
13.3630027
21
8.4749355
0
LINE
8
DEFAULT_255_2_778
10
13.3630027
20
8.4749355
11
15.7072027
21
8.4749355
0
LINE
8
DEFAULT_255_2_778
10
16.7206027
20
4.8872355
11
16.7179027
21
4.8845355
0
LINE
8
DEFAULT_255_2_778
10
15.1463027
20
7.1732355
11
15.1463027
21
5.7709355
0
LINE
8
DEFAULT_255_2_778
10
16.2311027
20
6.4852355
11
16.2311027
21
6.4720355
0
LINE
8
DEFAULT_255_2_778
10
11.5162027
20
2.5112355
11
9.7356027
21
2.5112355
0
LINE
8
DEFAULT_255_2_778
10
9.7356027
20
2.5112355
11
9.7356027
21
6.9165355
0
LINE
8
DEFAULT_255_2_778
10
9.7356027
20
6.9165355
11
8.3756027
21
6.9165355
0
LINE
8
DEFAULT_255_2_778
10
8.3756027
20
6.9165355
11
8.3756027
21
8.4776355
0
LINE
8
DEFAULT_255_2_778
10
8.3756027
20
8.4776355
11
12.8735027
21
8.4776355
0
LINE
8
DEFAULT_255_2_778
10
12.8735027
20
8.4776355
11
12.8735027
21
6.9165355
0
LINE
8
DEFAULT_255_2_778
10
12.8735027
20
6.9165355
11
11.5136027
21
6.9165355
0
LINE
8
DEFAULT_255_2_778
10
11.5136027
20
6.9165355
11
11.5162027
21
2.5112355
0
LINE
8
DEFAULT_255_2_778
10
6.1055027
20
8.4749355
11
7.8941027
21
8.4749355
0
LINE
8
DEFAULT_255_2_778
10
7.8941027
20
8.4749355
11
7.8941027
21
2.5112355
0
LINE
8
DEFAULT_255_2_778
10
7.8941027
20
2.5112355
11
6.1055027
21
2.5112355
0
LINE
8
DEFAULT_255_2_778
10
6.1055027
20
2.5112355
11
6.1055027
21
7.6521355
0
LINE
8
DEFAULT_255_2_778
10
6.1055027
20
7.6521355
11
6.1055027
21
8.4749355
0
LINE
8
DEFAULT_255_2_778
10
6.9998027
20
11.2160355
11
6.9998027
21
11.2160355
0
LINE
8
DEFAULT_255_2_778
10
5.5605027
20
7.6521355
11
4.6186027
21
6.1386355
0
LINE
8
DEFAULT_255_2_778
10
4.6291027
20
4.8528355
11
5.5710027
21
3.3288355
0
LINE
8
DEFAULT_255_2_778
10
5.5605027
20
7.6521355
11
5.5605027
21
7.6521355
0
LINE
8
DEFAULT_255_2_778
10
20.7264071
20
2.5112552
11
18.9378071
21
2.5112552
0
LINE
8
DEFAULT_255_2_778
10
18.9378071
20
2.5112552
11
18.9378071
21
8.4749552
0
LINE
8
DEFAULT_255_2_778
10
18.9378071
20
8.4749552
11
20.7264071
21
8.4749552
0
LINE
8
DEFAULT_255_2_778
10
20.7264071
20
8.4749552
11
20.7264071
21
2.5112552
0
ENDSEC
0
EOF