0
SECTION
2
HEADER
9
$MEASUREMENT
70
1
0
ENDSEC
0
SECTION
2
TABLES
0
TABLE
2
LTYPE
0
LTYPE
72
65
70
64
2
CONTINUOUS
3
______
73
0
40
0
0
ENDTAB
0
TABLE
2
LAYER
0
LAYER
2
DEFAULT_255_2_778
70
0
62
255
6
CONTINUOUS
0
ENDTAB
0
ENDSEC
0
SECTION
2
ENTITIES
0
ARC
8
DEFAULT_255_2_778
10
8.7009263
20
7.7122099
40
4.2151199
50
32.4331187
51
55.8935869
0
ARC
8
DEFAULT_255_2_778
10
8.6982705
20
7.7097157
40
4.2186742
50
55.882716
51
87.0154351
0
ARC
8
DEFAULT_255_2_778
10
8.6979555
20
7.6989295
40
4.2294621
50
87.0187812
51
90.0007713
0
ARC
8
DEFAULT_255_2_778
10
8.6978612
20
7.6952838
40
4.2331079
50
89.9994938
51
90.2801454
0
ARC
8
DEFAULT_255_2_778
10
8.7600885
20
8.3487263
40
3.580575
50
91.3270687
51
136.7111997
0
ARC
8
DEFAULT_255_2_778
10
8.7615279
20
8.3475677
40
3.5824171
50
136.7134967
51
179.9977146
0
ARC
8
DEFAULT_255_2_778
10
8.7652001
20
8.3477277
40
3.5860893
50
180.0002734
51
182.0756862
0
ARC
8
DEFAULT_255_2_778
10
8.7638413
20
8.1167944
40
3.5838025
50
178.3843134
51
179.9998112
0
ARC
8
DEFAULT_255_2_778
10
8.7612699
20
8.1171614
40
3.581231
50
180.0056823
51
223.7533778
0
ARC
8
DEFAULT_255_2_778
10
8.7609611
20
8.1157365
40
3.5800227
50
223.7403222
51
269.1149666
0
ARC
8
DEFAULT_255_2_778
10
8.7263626
20
8.7697334
40
4.2336431
50
269.7198708
51
270.0005062
0
ARC
8
DEFAULT_255_2_778
10
8.727147
20
8.7529706
40
4.2168806
50
269.9898494
51
293.8802603
0
ARC
8
DEFAULT_255_2_778
10
8.7279697
20
8.7534462
40
4.2169824
50
293.8674242
51
324.3434149
0
ARC
8
DEFAULT_255_2_778
10
8.7193112
20
8.7592256
40
4.2273867
50
324.3481763
51
327.5608605
0
ARC
8
DEFAULT_255_2_778
10
8.7018303
20
8.2060471
40
8.4730812
50
306.1136443
51
316.4251703
0
ARC
8
DEFAULT_255_2_778
10
8.7157325
20
8.1892765
40
8.4513395
50
291.6164722
51
306.1045161
0
ARC
8
DEFAULT_255_2_778
10
8.7047681
20
8.2156705
40
8.4799163
50
270.0061032
51
291.6196477
0
ARC
8
DEFAULT_255_2_778
10
8.70562
20
8.1915194
40
8.4557651
50
266.3073202
51
270.0003478
0
ARC
8
DEFAULT_255_2_778
10
8.7048789
20
8.1808695
40
8.4450896
50
258.4784413
51
266.3076844
0
ARC
8
DEFAULT_255_2_778
10
8.7078803
20
8.1942151
40
8.4587658
50
252.116104
51
258.4765762
0
ARC
8
DEFAULT_255_2_778
10
8.7211899
20
8.2358632
40
8.5024889
50
248.2741886
51
252.1169344
0
ARC
8
DEFAULT_255_2_778
10
8.7051705
20
8.2024497
40
8.4655194
50
235.4609659
51
248.2911963
0
ARC
8
DEFAULT_255_2_778
10
8.7090443
20
8.2028413
40
8.4680389
50
211.8171575
51
235.4408778
0
ARC
8
DEFAULT_255_2_778
10
8.701657
20
8.2016178
40
8.461117
50
191.6959953
51
211.8364902
0
ARC
8
DEFAULT_255_2_778
10
8.7098695
20
8.2009636
40
8.4690267
50
180.1273418
51
191.6803982
0
ARC
8
DEFAULT_255_2_778
10
8.7544706
20
8.202773
40
8.5136319
50
179.9994613
51
180.1388523
0
ARC
8
DEFAULT_255_2_778
10
8.7053231
20
8.2048148
40
8.4644849
50
167.1444717
51
180.0132788
0
ARC
8
DEFAULT_255_2_778
10
8.7087972
20
8.2009504
40
8.4687322
50
143.1546143
51
167.1242119
0
ARC
8
DEFAULT_255_2_778
10
8.7037388
20
8.2082357
40
8.460316
50
123.3655463
51
143.1735551
0
ARC
8
DEFAULT_255_2_778
10
8.7070412
20
8.1991826
40
8.4696936
50
111.9910589
51
123.3505225
0
ARC
8
DEFAULT_255_2_778
10
8.7171588
20
8.1810212
40
8.4903227
50
105.9122483
51
112.0084745
0
ARC
8
DEFAULT_255_2_778
10
8.7055531
20
8.2207605
40
8.4489243
50
98.9546129
51
105.9104453
0
ARC
8
DEFAULT_255_2_778
10
8.7050233
20
8.2229477
40
8.4466814
50
93.5948226
51
98.9533723
0
ARC
8
DEFAULT_255_2_778
10
8.7056826
20
8.2128627
40
8.456788
50
89.9996708
51
93.5949964
0
ARC
8
DEFAULT_255_2_778
10
8.7055349
20
8.194304
40
8.4753466
50
58.627409
51
89.998673
0
ARC
8
DEFAULT_255_2_778
10
8.7155963
20
8.2163906
40
8.4512515
50
47.5746676
51
58.6076941
0
ARC
8
DEFAULT_255_2_778
10
8.6808894
20
8.177572
40
8.5033199
50
43.8630859
51
47.5785021
0
LINE
8
DEFAULT_255_2_778
10
14.8082636
20
14.0672409
11
12.2585636
21
9.9728409
0
LINE
8
DEFAULT_255_2_778
10
12.2870636
20
6.4916409
11
14.8403636
21
2.3655409
0
LINE
8
DEFAULT_255_2_778
10
14.8117636
20
14.0698409
11
14.8082636
21
14.0672409
0
ENDSEC
0
EOF