0
SECTION
2
HEADER
9
$MEASUREMENT
70
1
0
ENDSEC
0
SECTION
2
TABLES
0
TABLE
2
LTYPE
0
LTYPE
72
65
70
64
2
CONTINUOUS
3
______
73
0
40
0
0
ENDTAB
0
TABLE
2
LAYER
0
LAYER
2
DEFAULT_255_2_778
70
0
62
255
6
CONTINUOUS
0
ENDTAB
0
ENDSEC
0
SECTION
2
ENTITIES
0
ARC
8
DEFAULT_255_2_778
10
13.1487964
20
5.4927184
40
1.0263446
50
270.1805121
51
343.6488776
0
ARC
8
DEFAULT_255_2_778
10
13.1501954
20
5.4809336
40
1.0145565
50
229.8481676
51
270.103603
0
ARC
8
DEFAULT_255_2_778
10
13.1499399
20
5.4829221
40
1.0159128
50
195.9483656
51
229.9314949
0
ARC
8
DEFAULT_255_2_778
10
8.3132818
20
7.7408281
40
0.7210483
50
270.9494674
51
359.9960837
0
ARC
8
DEFAULT_255_2_778
10
8.3128024
20
7.7406582
40
0.7215276
50
0.0095801
51
89.0130885
0
ARC
8
DEFAULT_255_2_778
10
8.0678943
20
5.8630276
40
4.7064524
50
89.9593927
51
104.3441735
0
ARC
8
DEFAULT_255_2_778
10
8.0636165
20
5.8933394
40
4.6760271
50
104.3854065
51
126.686412
0
ARC
8
DEFAULT_255_2_778
10
8.0728619
20
5.8757077
40
4.6956907
50
126.6483459
51
151.5224749
0
ARC
8
DEFAULT_255_2_778
10
3.6330693
20
4.7097051
40
3.419262
50
84.7602195
51
89.0143811
0
ARC
8
DEFAULT_255_2_778
10
3.6308061
20
4.6278384
40
3.5011556
50
89.0003958
51
89.831052
0
ARC
8
DEFAULT_255_2_778
10
3.6379291
20
4.7505182
40
3.3784621
50
89.9457163
51
107.2476722
0
ARC
8
DEFAULT_255_2_778
10
3.6465104
20
4.7443368
40
3.386916
50
107.3553072
51
162.9531648
0
ARC
8
DEFAULT_255_2_778
10
3.6409931
20
4.7528054
40
3.3791647
50
163.0630225
51
180.0530135
0
ARC
8
DEFAULT_255_2_778
10
3.6396359
20
4.7464647
40
3.3778075
50
179.945482
51
197.2492425
0
ARC
8
DEFAULT_255_2_778
10
3.6458759
20
4.7551547
40
3.3863499
50
197.3583539
51
252.9578922
0
ARC
8
DEFAULT_255_2_778
10
3.637706
20
4.7502362
40
3.3792589
50
253.0658917
51
270.0529676
0
ARC
8
DEFAULT_255_2_778
10
3.6455288
20
5.0464797
40
3.6755039
50
269.9267516
51
269.997471
0
ARC
8
DEFAULT_255_2_778
10
3.6453991
20
4.7362937
40
3.3653179
50
269.999446
51
303.7942477
0
ARC
8
DEFAULT_255_2_778
10
8.0654673
20
5.8531211
40
4.6700458
50
236.9305123
51
270.001142
0
ARC
8
DEFAULT_255_2_778
10
8.0657178
20
5.6476534
40
4.464578
50
269.997981
51
270.0707403
0
ARC
8
DEFAULT_255_2_778
10
8.0772971
20
5.7843788
40
4.601304
50
269.9244519
51
269.9999976
0
ARC
8
DEFAULT_255_2_778
10
8.0772585
20
5.8561135
40
4.6730386
50
270.0004709
51
309.2312402
0
ARC
8
DEFAULT_255_2_778
10
13.2844094
20
4.7341452
40
3.3628704
50
227.9660609
51
269.9994913
0
ARC
8
DEFAULT_255_2_778
10
13.2843793
20
4.8175176
40
3.4462429
50
270.0000033
51
270.0872945
0
ARC
8
DEFAULT_255_2_778
10
13.2928068
20
4.7479758
40
3.3766985
50
269.946096
51
287.2544279
0
ARC
8
DEFAULT_255_2_778
10
13.2834624
20
4.756072
40
3.3872083
50
287.3647569
51
342.9494917
0
ARC
8
DEFAULT_255_2_778
10
13.291163
20
4.7469181
40
3.3771682
50
343.0596599
51
0.0519266
0
ARC
8
DEFAULT_255_2_778
10
13.214262
20
4.7434482
40
3.4540742
50
0.1083294
51
7.6704136
0
ARC
8
DEFAULT_255_2_778
10
13.0360114
20
3.4578179
40
1.7082398
50
269.9830271
51
270.0509332
0
ARC
8
DEFAULT_255_2_778
10
13.035407
20
4.7075977
40
2.9580196
50
228.0110587
51
270.0019045
0
ARC
8
DEFAULT_255_2_778
10
8.063253
20
5.7975275
40
4.2262502
50
270.0512046
51
309.0874785
0
ARC
8
DEFAULT_255_2_778
10
8.0625556
20
5.4158653
40
3.8445891
50
269.9975307
51
270.0666808
0
ARC
8
DEFAULT_255_2_778
10
8.0625788
20
5.7704885
40
4.1992123
50
236.9512788
51
269.9974234
0
ARC
8
DEFAULT_255_2_778
10
3.8511915
20
4.7012279
40
2.9513518
50
269.9230919
51
303.81669
0
ARC
8
DEFAULT_255_2_778
10
3.8444325
20
4.702754
40
2.9528765
50
250.7592007
51
270.05428
0
ARC
8
DEFAULT_255_2_778
10
3.856525
20
4.7237609
40
2.9766986
50
192.1681109
51
250.6726921
0
ARC
8
DEFAULT_255_2_778
10
3.8479963
20
4.7137717
40
2.9662668
50
179.970889
51
192.0142189
0
ARC
8
DEFAULT_255_2_778
10
3.8375368
20
4.7180629
40
2.9558081
50
160.7624704
51
180.0539667
0
ARC
8
DEFAULT_255_2_778
10
3.8630562
20
4.7062545
40
2.9837947
50
143.3351126
51
160.7098418
0
ARC
8
DEFAULT_255_2_778
10
4.0479838
20
5.0071241
40
2.9733549
50
150.1294763
51
180.001137
0
ARC
8
DEFAULT_255_2_778
10
4.3417377
20
5.0070651
40
3.2671086
50
180.0000001
51
180.0400951
0
ARC
8
DEFAULT_255_2_778
10
4.0691345
20
5.003109
40
2.994505
50
179.9680503
51
198.6722755
0
ARC
8
DEFAULT_255_2_778
10
4.0761986
20
5.0105037
40
3.0035684
50
198.7627695
51
256.4684867
0
ARC
8
DEFAULT_255_2_778
10
4.070474
20
5.0144858
40
3.0061076
50
256.5923276
51
269.9648533
0
ARC
8
DEFAULT_255_2_778
10
4.0730364
20
4.8614845
40
2.8531091
50
269.9115106
51
270.0025249
0
ARC
8
DEFAULT_255_2_778
10
4.073144
20
4.9871257
40
2.9787504
50
270.0003491
51
303.8120427
0
ARC
8
DEFAULT_255_2_778
10
8.3240944
20
6.0665886
40
4.2387119
50
236.9436278
51
270.0028167
0
ARC
8
DEFAULT_255_2_778
10
8.3240963
20
6.0863482
40
4.2584714
50
270.0027767
51
270.0583067
0
ARC
8
DEFAULT_255_2_778
10
8.325051
20
6.101694
40
4.2738165
50
270.045299
51
309.0013644
0
ARC
8
DEFAULT_255_2_778
10
13.3450421
20
4.9941081
40
2.98863
50
228.0327985
51
270.0342763
0
ARC
8
DEFAULT_255_2_778
10
13.3486512
20
3.8482374
40
1.8427595
50
269.9433724
51
270.0188796
0
ARC
8
DEFAULT_255_2_778
10
13.3491584
20
4.9815776
40
2.9760998
50
270.0019257
51
305.0764374
0
ARC
8
DEFAULT_255_2_778
10
13.0338886
20
4.7106549
40
2.9645641
50
282.1785018
51
313.0982112
0
ARC
8
DEFAULT_255_2_778
10
13.0390732
20
4.7015699
40
2.9545914
50
269.9797691
51
282.1173905
0
LINE
8
DEFAULT_255_2_778
10
12.17313
20
5.2037788
11
8.32473
21
5.2037788
0
LINE
8
DEFAULT_255_2_778
10
8.32473
20
5.2037788
11
8.32473
21
5.4852788
0
LINE
8
DEFAULT_255_2_778
10
8.32473
20
5.4852788
11
8.32523
21
5.4852788
0
LINE
8
DEFAULT_255_2_778
10
8.32523
20
5.4852788
11
8.32523
21
7.0198788
0
LINE
8
DEFAULT_255_2_778
10
8.32523
20
8.4620788
11
8.32523
21
10.5615788
0
LINE
8
DEFAULT_255_2_778
10
8.32523
20
10.5615788
11
8.07123
21
10.5694788
0
LINE
8
DEFAULT_255_2_778
10
16.63743
20
5.2044788
11
14.13363
21
5.2037788
0
LINE
8
DEFAULT_255_2_778
10
11.05653
20
2.5089788
11
10.89573
21
2.6536788
0
LINE
8
DEFAULT_255_2_778
10
10.89573
20
2.6536788
11
10.72793
21
2.5171788
0
LINE
8
DEFAULT_255_2_778
10
5.77253
20
2.2506788
11
5.63233
21
2.3417788
0
LINE
8
DEFAULT_255_2_778
10
5.63233
20
2.3417788
11
5.49373
21
2.2491788
0
LINE
8
DEFAULT_255_2_778
10
5.73073
20
2.5121788
11
5.87103
21
2.6057788
0
LINE
8
DEFAULT_255_2_778
10
5.87103
20
2.6057788
11
6.01203
21
2.5139788
0
LINE
8
DEFAULT_255_2_778
10
11.01473
20
2.7803788
11
11.18413
21
2.9179788
0
LINE
8
DEFAULT_255_2_778
10
11.18413
20
2.9179788
11
11.34653
21
2.7719788
0
LINE
8
DEFAULT_255_2_778
10
13.03803
20
1.7469788
11
13.03753
21
1.7495788
0
ARC
8
DEFAULT_255_2_778
10
8.3290169
20
6.0961042
40
4.262582
50
269.9918814
51
309.0547849
0
ARC
8
DEFAULT_255_2_778
10
8.3240806
20
6.0894882
40
4.2559681
50
270.0027776
51
270.0583236
0
ARC
8
DEFAULT_255_2_778
10
8.3241238
20
6.0713524
40
4.2378322
50
236.9351389
51
270.0022054
0
ARC
8
DEFAULT_255_2_778
10
4.0731752
20
4.9933015
40
2.9790827
50
269.9122563
51
303.8066458
0
ARC
8
DEFAULT_255_2_778
10
4.0693463
20
5.0087463
40
2.9945241
50
251.3186279
51
269.9859692
0
ARC
8
DEFAULT_255_2_778
10
4.0765896
20
5.0157121
40
3.0034466
50
193.5559555
51
251.2302918
0
ARC
8
DEFAULT_255_2_778
10
4.080297
20
5.0098974
40
3.0056949
50
180.1539314
51
193.4316357
0
ARC
8
DEFAULT_255_2_778
10
4.0471074
20
5.0043104
40
2.9724954
50
161.1271173
51
180.0479585
0
ARC
8
DEFAULT_255_2_778
10
4.064738
20
4.996857
40
2.9915894
50
150.1663765
51
161.1012686
0
ARC
8
DEFAULT_255_2_778
10
3.8321179
20
4.717789
40
2.9504062
50
143.2007194
51
179.9998239
0
ARC
8
DEFAULT_255_2_778
10
4.0927186
20
4.7180297
40
3.211007
50
180.0041318
51
180.0536622
0
ARC
8
DEFAULT_255_2_778
10
3.8342979
20
4.7122283
40
2.9525863
50
179.9457823
51
199.2417998
0
ARC
8
DEFAULT_255_2_778
10
3.8555935
20
4.7244606
40
2.976727
50
199.3290101
51
257.8333354
0
ARC
8
DEFAULT_255_2_778
10
3.8457044
20
4.7162078
40
2.9665859
50
257.9864481
51
270.0291357
0
ARC
8
DEFAULT_255_2_778
10
3.8514693
20
4.6995034
40
2.9498842
50
269.9173282
51
303.8218803
0
ARC
8
DEFAULT_255_2_778
10
8.0625618
20
5.770532
40
4.1992123
50
236.9512788
51
269.9974234
0
ARC
8
DEFAULT_255_2_778
10
8.0625386
20
5.4159088
40
3.8445891
50
269.9975307
51
270.0666808
0
ARC
8
DEFAULT_255_2_778
10
8.0629679
20
5.798671
40
4.2273507
50
270.0548244
51
309.0800435
0
ARC
8
DEFAULT_255_2_778
10
13.0357116
20
4.7086796
40
2.9588579
50
228.0172912
51
270.0348808
0
LINE
8
DEFAULT_255_2_778
10
13.037513
20
1.7498223
11
13.0390878
21
1.7498219
0
ARC
8
DEFAULT_255_2_778
10
13.0391519
20
4.702394
40
2.9525721
50
269.9987548
51
313.1676977
0
ARC
8
DEFAULT_255_2_778
10
13.3484379
20
4.9852497
40
2.976928
50
270.000364
51
305.0747348
0
LINE
8
DEFAULT_255_2_778
10
13.3484568
20
2.0083216
11
13.346513
21
2.0083223
0
LINE
8
DEFAULT_255_2_778
10
13.346513
20
2.0083223
11
13.3452972
21
2.008322
0
ARC
8
DEFAULT_255_2_778
10
13.3453635
20
4.9986183
40
2.9902963
50
228.0450583
51
269.9987291
0
ARC
8
DEFAULT_255_2_778
10
13.7620273
20
6.348536
40
0.7222146
50
180.0407589
51
269.5969169
0
ARC
8
DEFAULT_255_2_778
10
13.7619577
20
6.3614194
40
0.7350971
50
269.6094109
51
269.9731318
0
ARC
8
DEFAULT_255_2_778
10
13.7612
20
6.3485354
40
0.7222133
50
270.0327608
51
359.5890814
0
ARC
8
DEFAULT_255_2_778
10
13.7483547
20
6.3485559
40
0.7350584
50
359.5946673
51
359.9584077
0
ARC
8
DEFAULT_255_2_778
10
13.9067176
20
5.6146622
40
3.3747093
50
12.5563388
51
39.621183
0
ARC
8
DEFAULT_255_2_778
10
13.8982646
20
5.6148199
40
3.3811242
50
39.5277768
51
74.3132654
0
ARC
8
DEFAULT_255_2_778
10
13.9056656
20
5.6195297
40
3.3745938
50
74.4126224
51
90.0467354
0
ARC
8
DEFAULT_255_2_778
10
13.9007187
20
6.8540795
40
2.1400439
50
89.9412524
51
90.0195895
0
ARC
8
DEFAULT_255_2_778
10
13.8999648
20
5.6212932
40
3.3728303
50
89.9996225
51
107.5449306
0
ARC
8
DEFAULT_255_2_778
10
8.6739208
20
6.7288641
40
4.707793
50
26.6054592
51
72.4304
0
ARC
8
DEFAULT_255_2_778
10
8.6835079
20
6.7425799
40
4.6918257
50
72.4914543
51
83.4437624
0
ARC
8
DEFAULT_255_2_778
10
8.9203518
20
8.6091766
40
1.0230708
50
1.2215744
51
73.0149826
0
ARC
8
DEFAULT_255_2_778
10
8.9003079
20
8.6094291
40
1.0431052
50
359.9996268
51
1.1842396
0
ARC
8
DEFAULT_255_2_778
10
8.9263165
20
8.6077294
40
1.0170979
50
319.608056
51
0.0953642
0
ARC
8
DEFAULT_255_2_778
10
8.9180682
20
8.6128918
40
1.0267263
50
287.0559688
51
319.6869136
0
ARC
8
DEFAULT_255_2_778
10
8.6022935
20
6.5709043
40
4.4502492
50
26.5219631
51
46.1803776
0
ARC
8
DEFAULT_255_2_778
10
8.6407052
20
6.6077411
40
4.3970753
50
46.2091683
51
78.9654021
0
ARC
8
DEFAULT_255_2_778
10
8.6945439
20
6.7594327
40
4.4051991
50
33.9934078
51
79.6985503
0
ARC
8
DEFAULT_255_2_778
10
8.6217139
20
6.704529
40
4.4962817
50
26.5678299
51
34.0545959
0
ARC
8
DEFAULT_255_2_778
10
13.8976373
20
5.6178788
40
3.1077447
50
90.004524
51
107.5407449
0
ARC
8
DEFAULT_255_2_778
10
13.898122
20
6.5921074
40
2.1335163
50
89.9411612
51
90.0196055
0
ARC
8
DEFAULT_255_2_778
10
13.897793
20
5.6475403
40
3.078083
50
64.9786289
51
89.9530926
0
ARC
8
DEFAULT_255_2_778
10
13.8769742
20
5.5842965
40
3.1442067
50
19.1209254
51
65.1223036
0
ARC
8
DEFAULT_255_2_778
10
13.8127491
20
5.4252947
40
3.1450493
50
22.2118001
51
83.9032279
0
ARC
8
DEFAULT_255_2_778
10
13.836041
20
5.5177219
40
3.0507004
50
84.1538377
51
90.0005259
0
ARC
8
DEFAULT_255_2_778
10
13.8358924
20
5.4387522
40
3.1296701
50
89.9977925
51
107.4725421
0
LINE
8
DEFAULT_255_2_778
10
11.346513
20
2.7775223
11
11.184113
21
2.9235223
0
LINE
8
DEFAULT_255_2_778
10
11.184113
20
2.9235223
11
11.014713
21
2.7860223
0
LINE
8
DEFAULT_255_2_778
10
6.012013
20
2.5198223
11
5.871013
21
2.6116223
0
LINE
8
DEFAULT_255_2_778
10
5.871013
20
2.6116223
11
5.730713
21
2.5179223
0
LINE
8
DEFAULT_255_2_778
10
5.493413
20
2.2488223
11
5.632313
21
2.3415223
0
LINE
8
DEFAULT_255_2_778
10
5.632313
20
2.3415223
11
5.772513
21
2.2507223
0
LINE
8
DEFAULT_255_2_778
10
10.727913
20
2.5171223
11
10.895613
21
2.6539223
0
LINE
8
DEFAULT_255_2_778
10
10.895613
20
2.6539223
11
11.056513
21
2.5092223
0
LINE
8
DEFAULT_255_2_778
10
11.346213
20
2.7748223
11
11.346513
21
2.7775223
0
LINE
8
DEFAULT_255_2_778
10
14.483413
20
6.3480223
11
17.200713
21
6.3483223
0
LINE
8
DEFAULT_255_2_778
10
9.219213
20
11.4037223
11
9.219213
21
9.5876223
0
LINE
8
DEFAULT_255_2_778
10
9.219213
20
7.6313223
11
9.219213
21
6.3507223
0
LINE
8
DEFAULT_255_2_778
10
9.219213
20
6.3507223
11
13.042513
21
6.3507223
0
LINE
8
DEFAULT_255_2_778
10
13.042513
20
6.3507223
11
13.039813
21
6.3480223
0
LINE
8
DEFAULT_255_2_778
10
12.901713
20
8.4240223
11
12.685613
21
8.3552223
0
LINE
8
DEFAULT_255_2_778
10
12.685613
20
8.3552223
11
12.584213
21
8.5581223
0
LINE
8
DEFAULT_255_2_778
10
9.482313
20
10.9235223
11
9.482313
21
11.0936223
0
LINE
8
DEFAULT_255_2_778
10
12.643213
20
8.7155223
11
12.744813
21
8.5129223
0
LINE
8
DEFAULT_255_2_778
10
12.744813
20
8.5129223
11
12.961013
21
8.5811223
0
LINE
8
DEFAULT_255_2_778
10
16.847713
20
6.6142223
11
16.724413
21
6.6142223
0
LINE
8
DEFAULT_255_2_778
10
12.896213
20
8.4240223
11
12.901713
21
8.4240223
0
ARC
8
DEFAULT_255_2_778
10
8.4607688
20
-152.132249
40
152.6861653
50
89.9980346
51
90.4475801
0
ARC
8
DEFAULT_255_2_778
10
8.3693784
20
-140.6867278
40
141.2402795
50
90.4467773
51
90.867501
0
ARC
8
DEFAULT_255_2_778
10
8.1378127
20
-125.4751605
40
126.0269498
50
90.8669403
51
91.2722269
0
ARC
8
DEFAULT_255_2_778
10
7.76052
20
-108.5214113
40
109.069003
50
91.271817
51
91.6719673
0
ARC
8
DEFAULT_255_2_778
10
7.2623132
20
-91.4721441
40
92.0124582
50
91.6716279
51
92.074928
0
ARC
8
DEFAULT_255_2_778
10
6.6309997
20
-74.1515416
40
74.6803548
50
92.0720259
51
92.5599772
0
ARC
8
DEFAULT_255_2_778
10
5.8692764
20
-57.1635221
40
57.6752666
50
92.5578012
51
93.1099776
0
ARC
8
DEFAULT_255_2_778
10
5.0568081
20
-42.2460021
40
42.7356378
50
93.1073552
51
93.7428818
0
ARC
8
DEFAULT_255_2_778
10
4.2732191
20
-30.2737403
40
30.7377601
50
93.7421764
51
94.4368951
0
ARC
8
DEFAULT_255_2_778
10
3.5818216
20
-21.3666741
40
21.8038999
50
94.4361975
51
95.2035093
0
ARC
8
DEFAULT_255_2_778
10
2.8925308
20
-13.8669146
40
14.2725352
50
95.1783388
51
96.410222
0
ARC
8
DEFAULT_255_2_778
10
2.2272686
20
-7.9649292
40
8.3331752
50
96.3953115
51
98.0004328
0
ARC
8
DEFAULT_255_2_778
10
1.6515384
20
-3.9128914
40
4.2404499
50
97.9171786
51
100.6711637
0
ARC
8
DEFAULT_255_2_778
10
1.1701714
20
-1.3901982
40
1.6722586
50
100.4686703
51
105.568987
0
ARC
8
DEFAULT_255_2_778
10
0.8301396
20
-0.1970132
40
0.4316517
50
104.5991278
51
117.485092
0
ARC
8
DEFAULT_255_2_778
10
0.647981
20
0.1387498
40
0.0501577
50
109.8801625
51
168.0724016
0
ARC
8
DEFAULT_255_2_778
10
0.6533231
20
0.1625972
40
0.0560618
50
193.9140956
51
253.1210908
0
ARC
8
DEFAULT_255_2_778
10
0.849597
20
0.5481544
40
0.4879326
50
244.1754732
51
255.5079378
0
ARC
8
DEFAULT_255_2_778
10
1.1933681
20
1.7886121
40
1.7750906
50
254.7844573
51
259.7249635
0
ARC
8
DEFAULT_255_2_778
10
1.6734383
20
4.3477868
40
4.3788841
50
259.5171512
51
262.1113391
0
ARC
8
DEFAULT_255_2_778
10
2.2342647
20
8.3194853
40
8.3899761
50
262.0402525
51
263.6026847
0
ARC
8
DEFAULT_255_2_778
10
2.8295089
20
13.5689878
40
13.6731159
50
263.5749203
51
264.6252949
0
ARC
8
DEFAULT_255_2_778
10
3.4288631
20
19.891688
40
20.024159
50
264.6124779
51
265.3720152
0
ARC
8
DEFAULT_255_2_778
10
4.0096844
20
27.0272409
40
27.1833113
50
265.3652913
51
265.943866
0
ARC
8
DEFAULT_255_2_778
10
4.6908418
20
36.6912528
40
36.8712981
50
265.9502694
51
266.6122042
0
ARC
8
DEFAULT_255_2_778
10
5.4814437
20
50.003647
40
50.2071479
50
266.6093044
51
267.1779243
0
ARC
8
DEFAULT_255_2_778
10
6.2350961
20
65.2273613
40
65.4495054
50
267.1751187
51
267.6603088
0
ARC
8
DEFAULT_255_2_778
10
6.8588784
20
80.364416
40
80.5994067
50
267.6565357
51
268.0269502
0
ARC
8
DEFAULT_255_2_778
10
7.4171071
20
96.6577025
40
96.9022529
50
268.0287657
51
268.4608652
0
ARC
8
DEFAULT_255_2_778
10
7.909107
20
114.9117911
40
115.1629705
50
268.4601077
51
268.8809312
0
ARC
8
DEFAULT_255_2_778
10
8.202933
20
129.6078799
40
129.861995
50
268.877952
51
269.1723379
0
ARC
8
DEFAULT_255_2_778
10
8.3837543
20
142.3601795
40
142.6155762
50
269.1737053
51
269.5941499
0
ARC
8
DEFAULT_255_2_778
10
8.4618354
20
152.9588367
40
153.2145205
50
269.5930262
51
270.0015597
0
ARC
8
DEFAULT_255_2_778
10
8.4711617
20
152.3167693
40
152.5724532
50
269.998064
51
270.4479774
0
ARC
8
DEFAULT_255_2_778
10
8.5624205
20
140.8903393
40
141.1456589
50
270.4471991
51
270.8682212
0
ARC
8
DEFAULT_255_2_778
10
8.7937462
20
125.7047891
40
125.9583469
50
270.867677
51
271.2731888
0
ARC
8
DEFAULT_255_2_778
10
9.1703661
20
108.79157
40
109.040935
50
271.2728087
51
271.6730572
0
ARC
8
DEFAULT_255_2_778
10
9.6684141
20
91.7556354
40
91.9977218
50
271.6727763
51
272.0761283
0
ARC
8
DEFAULT_255_2_778
10
10.2997328
20
74.4440062
40
74.6745855
50
272.0732511
51
272.5612161
0
ARC
8
DEFAULT_255_2_778
10
11.0613926
20
57.4648908
40
57.6783953
50
272.5590732
51
273.1111832
0
ARC
8
DEFAULT_255_2_778
10
11.874178
20
42.5477527
40
42.7391309
50
273.1085302
51
273.7439535
0
ARC
8
DEFAULT_255_2_778
10
12.6574848
20
30.5830296
40
30.7487943
50
273.7432739
51
274.4376781
0
ARC
8
DEFAULT_255_2_778
10
13.3493328
20
21.6717298
40
21.8106784
50
274.4369823
51
275.2039751
0
ARC
8
DEFAULT_255_2_778
10
14.0386248
20
14.1724818
40
14.279823
50
275.1788719
51
276.4099833
0
ARC
8
DEFAULT_255_2_778
10
14.7043389
20
8.2662915
40
8.3362338
50
276.3950485
51
277.9993747
0
ARC
8
DEFAULT_255_2_778
10
15.2800906
20
4.2135231
40
4.2427819
50
277.9162306
51
280.6683095
0
ARC
8
DEFAULT_255_2_778
10
15.7616296
20
1.6892291
40
1.672986
50
280.4658845
51
285.5631445
0
ARC
8
DEFAULT_255_2_778
10
16.1016905
20
0.4954677
40
0.4318168
50
284.5936598
51
297.4718503
0
ARC
8
DEFAULT_255_2_778
10
16.2838638
20
0.15949
40
0.0501277
50
289.8598019
51
348.0564469
0
ARC
8
DEFAULT_255_2_778
10
16.2785356
20
0.1356162
40
0.0560215
50
13.9442768
51
73.1545793
0
ARC
8
DEFAULT_255_2_778
10
16.0822038
20
-0.2504321
40
0.4883551
50
64.1975206
51
75.5180845
0
ARC
8
DEFAULT_255_2_778
10
15.7383099
20
-1.4922577
40
1.7768642
50
74.7951744
51
79.7302192
0
ARC
8
DEFAULT_255_2_778
10
15.2579608
20
-4.0543042
40
4.3835317
50
79.5226102
51
82.1138335
0
ARC
8
DEFAULT_255_2_778
10
14.6967991
20
-8.0297217
40
8.3983531
50
82.042842
51
83.6036045
0
ARC
8
DEFAULT_255_2_778
10
14.1010838
20
-13.2845086
40
13.6867967
50
83.5760172
51
84.6252743
0
ARC
8
DEFAULT_255_2_778
10
13.5015454
20
-19.6092841
40
20.0399233
50
84.6125053
51
85.3714002
0
ARC
8
DEFAULT_255_2_778
10
12.9199385
20
-26.7539792
40
27.2082515
50
85.364749
51
85.9427617
0
ARC
8
DEFAULT_255_2_778
10
12.2390709
20
-36.4112304
40
36.8894739
50
85.9491581
51
86.6107336
0
ARC
8
DEFAULT_255_2_778
10
11.4483497
20
-49.7198366
40
50.2215492
50
86.6078338
51
87.1762656
0
ARC
8
DEFAULT_255_2_778
10
10.6945223
20
-64.9373468
40
65.457719
50
87.173426
51
87.6585368
0
ARC
8
DEFAULT_255_2_778
10
10.0710538
20
-80.0548806
40
80.5881028
50
87.6547522
51
88.0252069
0
ARC
8
DEFAULT_255_2_778
10
9.5126442
20
-96.339678
40
96.8824711
50
88.0270362
51
88.459213
0
ARC
8
DEFAULT_255_2_778
10
9.0213753
20
-114.551237
40
115.1006548
50
88.4585118
51
88.8795563
0
ARC
8
DEFAULT_255_2_778
10
8.7277643
20
-129.222365
40
129.7747193
50
88.8766102
51
89.1711918
0
ARC
8
DEFAULT_255_2_778
10
8.547924
20
-141.8976168
40
142.4512464
50
89.1726097
51
89.5935403
0
ARC
8
DEFAULT_255_2_778
10
8.4701629
20
-152.424095
40
152.9780114
50
89.5923852
51
90.0015568
0
LINE
8
DEFAULT_255_2_778
10
8.4660063
20
0.5539162
11
8.4660063
21
0.5539162
0
ENDSEC
0
EOF