0
SECTION
2
HEADER
9
$MEASUREMENT
70
1
0
ENDSEC
0
SECTION
2
TABLES
0
TABLE
2
LTYPE
0
LTYPE
72
65
70
64
2
CONTINUOUS
3
______
73
0
40
0
0
ENDTAB
0
TABLE
2
LAYER
0
LAYER
2
DEFAULT_255_2_778
70
0
62
255
6
CONTINUOUS
0
ENDTAB
0
ENDSEC
0
SECTION
2
ENTITIES
0
ARC
8
DEFAULT_255_2_778
10
17.2774828
20
5.2640969
40
0.572989
50
315.4112855
51
358.7954102
0
ARC
8
DEFAULT_255_2_778
10
17.2830574
20
5.2701463
40
0.5733247
50
271.2180886
51
314.5896208
0
ARC
8
DEFAULT_255_2_778
10
11.7505704
20
5.2556765
40
0.5587383
50
180.3922621
51
269.6077357
0
ARC
8
DEFAULT_255_2_778
10
11.750484
20
11.3519117
40
0.5586521
50
90.3834645
51
179.6062091
0
ARC
8
DEFAULT_255_2_778
10
14.5214557
20
11.9106148
40
1.1100106
50
120.0062777
51
180.0032784
0
ARC
8
DEFAULT_255_2_778
10
14.5207631
20
11.9125527
40
1.107986
50
89.9856722
51
120.025375
0
LINE
8
DEFAULT_255_2_778
10
14.5210401
20
13.0205388
11
14.521619
21
13.0205386
0
ARC
8
DEFAULT_255_2_778
10
14.5210988
20
11.9098339
40
1.1107049
50
60.0122698
51
89.9731666
0
ARC
8
DEFAULT_255_2_778
10
14.5214026
20
11.9108848
40
1.1096427
50
359.998267
51
59.9987312
0
ARC
8
DEFAULT_255_2_778
10
17.292027
20
11.352233
40
0.5586313
50
0.391618
51
89.6083871
0
ARC
8
DEFAULT_255_2_778
10
16.1823922
20
10.7971983
40
0.5585655
50
0.3849657
51
89.6150343
0
ARC
8
DEFAULT_255_2_778
10
15.6351491
20
11.9144559
40
0.5587176
50
180.4004204
51
269.6099111
0
ARC
8
DEFAULT_255_2_778
10
14.5178055
20
11.9068124
40
0.5586522
50
0.3834682
51
89.6062002
0
ARC
8
DEFAULT_255_2_778
10
14.5254846
20
11.9068126
40
0.5586518
50
90.3937784
51
179.6165583
0
ARC
8
DEFAULT_255_2_778
10
13.4081619
20
11.9144345
40
0.5586968
50
270.398243
51
359.601757
0
ARC
8
DEFAULT_255_2_778
10
12.8603983
20
10.7971982
40
0.5585657
50
90.3849886
51
179.6150218
0
ARC
8
DEFAULT_255_2_778
10
2.1708363
20
3.1922247
40
0.3462961
50
308.1908283
51
324.2397911
0
ARC
8
DEFAULT_255_2_778
10
2.300162
20
3.0686322
40
0.1710687
50
266.6766946
51
299.7099035
0
ARC
8
DEFAULT_255_2_778
10
2.2919904
20
3.1118186
40
0.2139744
50
238.9249182
51
269.5326762
0
ARC
8
DEFAULT_255_2_778
10
1.3703029
20
1.6987081
40
1.4733052
50
56.5899317
51
61.9000877
0
ARC
8
DEFAULT_255_2_778
10
1.643888
20
2.254469
40
0.8544361
50
60.5298351
51
72.188727
0
ARC
8
DEFAULT_255_2_778
10
1.7078801
20
2.4885962
40
0.6120501
50
71.1878985
51
88.2780436
0
ARC
8
DEFAULT_255_2_778
10
1.6773937
20
2.0900839
40
1.0114678
50
87.2301682
51
90.0424017
0
ARC
8
DEFAULT_255_2_778
10
1.6632053
20
2.4169594
40
0.6847238
50
88.8753186
51
112.6249206
0
ARC
8
DEFAULT_255_2_778
10
1.6159282
20
2.5551273
40
0.5390854
50
113.6361435
51
116.5052579
0
ARC
8
DEFAULT_255_2_778
10
1.6184877
20
2.5406758
40
0.5531758
50
116.0744913
51
144.8751269
0
ARC
8
DEFAULT_255_2_778
10
1.8445737
20
2.3905222
40
0.8245161
50
145.3803453
51
166.3142894
0
ARC
8
DEFAULT_255_2_778
10
2.1237733
20
2.3037909
40
1.1164576
50
165.3796551
51
165.9648351
0
ARC
8
DEFAULT_255_2_778
10
2.5840332
20
2.2270514
40
1.5820249
50
167.3112221
51
178.7214721
0
ARC
8
DEFAULT_255_2_778
10
3.1282853
20
2.1985532
40
2.1268402
50
178.2810802
51
180.0135224
0
ARC
8
DEFAULT_255_2_778
10
2.7014827
20
2.1854256
40
1.7000845
50
179.5744901
51
189.6874665
0
ARC
8
DEFAULT_255_2_778
10
1.9929802
20
2.0592477
40
0.9804661
50
189.3861444
51
206.413741
0
ARC
8
DEFAULT_255_2_778
10
1.7354998
20
1.9400447
40
0.6968812
50
207.0535195
51
216.7533126
0
ARC
8
DEFAULT_255_2_778
10
1.6419651
20
1.865839
40
0.5775474
50
216.4074184
51
272.0222282
0
ARC
8
DEFAULT_255_2_778
10
1.6741336
20
2.1684076
40
0.8798353
50
269.2323
51
280.4770577
0
ARC
8
DEFAULT_255_2_778
10
1.7282094
20
1.8284842
40
0.5358156
50
281.4007844
51
282.4413101
0
ARC
8
DEFAULT_255_2_778
10
1.6892603
20
1.9541988
40
0.6670589
50
283.381928
51
295.6055419
0
ARC
8
DEFAULT_255_2_778
10
1.7603754
20
1.8210661
40
0.5163092
50
294.8737167
51
307.9715772
0
ARC
8
DEFAULT_255_2_778
10
4.89908
20
-2.0894297
40
4.4980681
50
127.5768572
51
128.8413339
0
ARC
8
DEFAULT_255_2_778
10
2.4409351
20
1.0803725
40
0.4870826
50
115.4603164
51
125.7952445
0
ARC
8
DEFAULT_255_2_778
10
2.3156873
20
1.3494835
40
0.1902824
50
89.290005
51
116.2440798
0
ARC
8
DEFAULT_255_2_778
10
2.3248306
20
1.3753514
40
0.1645398
50
36.2957258
51
92.3634839
0
ARC
8
DEFAULT_255_2_778
10
1.6503632
20
2.0666765
40
1.3480981
50
304.5882747
51
319.6560094
0
ARC
8
DEFAULT_255_2_778
10
1.6296027
20
2.1398472
40
1.4203317
50
290.4410866
51
303.6020766
0
ARC
8
DEFAULT_255_2_778
10
1.6422652
20
2.1554809
40
1.4306636
50
277.3118389
51
289.7472248
0
ARC
8
DEFAULT_255_2_778
10
1.5182199
20
2.8358948
40
2.1216446
50
270.0573922
51
278.2959791
0
ARC
8
DEFAULT_255_2_778
10
1.5135422
20
2.0200799
40
1.3058464
50
247.7054234
51
270.2984884
0
ARC
8
DEFAULT_255_2_778
10
1.4925584
20
1.9342663
40
1.218558
50
223.074657
51
247.087588
0
ARC
8
DEFAULT_255_2_778
10
1.6020734
20
2.0286125
40
1.3630012
50
202.8065036
51
222.8276158
0
ARC
8
DEFAULT_255_2_778
10
1.9145332
20
2.1784885
40
1.7092127
50
200.9249822
51
203.377818
0
ARC
8
DEFAULT_255_2_778
10
1.8535669
20
2.1302126
40
1.6351918
50
185.1293589
51
200.1079044
0
ARC
8
DEFAULT_255_2_778
10
2.4103609
20
2.1941734
40
2.1955187
50
179.9066282
51
185.4927472
0
ARC
8
DEFAULT_255_2_778
10
2.0399503
20
2.21194
40
1.8251602
50
163.0098691
51
180.4454201
0
ARC
8
DEFAULT_255_2_778
10
1.8387569
20
2.2624071
40
1.6180354
50
161.2109653
51
162.6371469
0
ARC
8
DEFAULT_255_2_778
10
1.5707422
20
2.3661839
40
1.3309315
50
138.2658967
51
161.7242616
0
ARC
8
DEFAULT_255_2_778
10
1.4896273
20
2.421785
40
1.2334513
50
112.4628385
51
137.685041
0
ARC
8
DEFAULT_255_2_778
10
1.5679237
20
2.255818
40
1.41677
50
95.1313744
51
112.8244866
0
ARC
8
DEFAULT_255_2_778
10
1.6263953
20
1.7753996
40
1.9005541
50
89.9110702
51
95.5916837
0
ARC
8
DEFAULT_255_2_778
10
1.6425189
20
2.0352324
40
1.6407717
50
77.1673446
51
90.4600339
0
ARC
8
DEFAULT_255_2_778
10
1.729068
20
2.4449752
40
1.222058
50
66.9958739
51
76.8570466
0
ARC
8
DEFAULT_255_2_778
10
1.6564214
20
2.2917459
40
1.3915098
50
44.2628251
51
66.7081431
0
ARC
8
DEFAULT_255_2_778
10
4.9470222
20
4.4448799
40
0.4214389
50
335.0868549
51
0.4991451
0
ARC
8
DEFAULT_255_2_778
10
4.8808842
20
4.4769881
40
0.4949496
50
313.7494887
51
334.9409671
0
ARC
8
DEFAULT_255_2_778
10
4.899923
20
4.4452296
40
0.4589163
50
291.7052948
51
314.7743357
0
ARC
8
DEFAULT_255_2_778
10
4.8869394
20
4.4615886
40
0.4789548
50
269.5102104
51
292.4246173
0
ARC
8
DEFAULT_255_2_778
10
4.8814729
20
4.4473828
40
0.4647336
50
247.2352742
51
270.1691851
0
ARC
8
DEFAULT_255_2_778
10
4.8898769
20
4.4546054
40
0.4746713
50
224.9165551
51
246.6372073
0
ARC
8
DEFAULT_255_2_778
10
4.9192498
20
4.4844439
40
0.5165397
50
204.8524254
51
224.9598371
0
ARC
8
DEFAULT_255_2_778
10
4.8653932
20
4.4444453
40
0.4510667
50
179.478441
51
203.1170997
0
ARC
8
DEFAULT_255_2_778
10
4.8653932
20
4.4526572
40
0.4510667
50
156.8829003
51
180.521559
0
ARC
8
DEFAULT_255_2_778
10
4.9123181
20
4.4239766
40
0.5055467
50
135.1761662
51
155.9813517
0
ARC
8
DEFAULT_255_2_778
10
4.8901311
20
4.4443896
40
0.4754217
50
113.357097
51
135.0361525
0
ARC
8
DEFAULT_255_2_778
10
4.8814872
20
4.4535284
40
0.4636248
50
89.8321842
51
112.8241632
0
ARC
8
DEFAULT_255_2_778
10
4.8872027
20
4.4407885
40
0.4763827
50
67.4819486
51
90.5241054
0
ARC
8
DEFAULT_255_2_778
10
4.900814
20
4.4555096
40
0.4576238
50
45.2222576
51
68.3503497
0
ARC
8
DEFAULT_255_2_778
10
4.8908618
20
4.433578
40
0.4802748
50
24.1081544
51
46.2224063
0
ARC
8
DEFAULT_255_2_778
10
4.9470222
20
4.4522227
40
0.4214389
50
359.5008549
51
24.9131451
0
ARC
8
DEFAULT_255_2_778
10
6.4207678
20
3.445349
40
0.186379
50
16.2013271
51
94.0990776
0
ARC
8
DEFAULT_255_2_778
10
7.8626303
20
2.156957
40
1.6296306
50
128.7572618
51
137.6508985
0
ARC
8
DEFAULT_255_2_778
10
7.5396876
20
2.5898589
40
1.0900507
50
116.5977836
51
129.7651429
0
ARC
8
DEFAULT_255_2_778
10
7.5309208
20
2.6458805
40
1.0361762
50
103.3513475
51
117.5513001
0
ARC
8
DEFAULT_255_2_778
10
7.5613949
20
2.5793922
40
1.1079969
50
89.5268236
51
104.0906722
0
ARC
8
DEFAULT_255_2_778
10
7.5805727
20
2.7853841
40
0.9020229
50
62.6742611
51
90.6369559
0
ARC
8
DEFAULT_255_2_778
10
7.5747728
20
2.7589964
40
0.9281546
50
35.6117504
51
63.103944
0
ARC
8
DEFAULT_255_2_778
10
7.2754252
20
2.5290872
40
1.3054532
50
19.8132516
51
36.1649819
0
ARC
8
DEFAULT_255_2_778
10
6.8246603
20
2.3492732
40
1.7905578
50
15.8846363
51
20.3374053
0
ARC
8
DEFAULT_255_2_778
10
6.5990632
20
2.2963995
40
2.0220414
50
4.8460364
51
15.5760189
0
ARC
8
DEFAULT_255_2_778
10
5.8301125
20
2.2197998
40
2.7947375
50
359.8944473
51
5.0790549
0
ARC
8
DEFAULT_255_2_778
10
6.6369364
20
2.2008932
40
1.9879564
50
345.2116768
51
0.3965311
0
ARC
8
DEFAULT_255_2_778
10
6.8994613
20
2.1424997
40
1.719255
50
342.1271718
51
344.860087
0
ARC
8
DEFAULT_255_2_778
10
7.1450519
20
2.0398761
40
1.4541918
50
323.1487521
51
343.0057552
0
ARC
8
DEFAULT_255_2_778
10
7.2883032
20
1.9453836
40
1.2829333
50
321.157497
51
322.6887045
0
ARC
8
DEFAULT_255_2_778
10
7.3793985
20
1.867179
40
1.1629392
50
296.4144649
51
321.3436376
0
ARC
8
DEFAULT_255_2_778
10
7.4091721
20
1.8368982
40
1.1226522
50
269.5649496
51
295.7410541
0
ARC
8
DEFAULT_255_2_778
10
7.3919515
20
2.1044673
40
1.3902161
50
269.9997371
51
270.3584083
0
ARC
8
DEFAULT_255_2_778
10
7.3791171
20
1.8925168
40
1.1783354
50
257.0152779
51
270.6237685
0
ARC
8
DEFAULT_255_2_778
10
7.2971067
20
1.5079768
40
0.7852276
50
247.2100061
51
256.541764
0
ARC
8
DEFAULT_255_2_778
10
7.3912565
20
1.7094774
40
1.0075046
50
226.907017
51
246.7125409
0
ARC
8
DEFAULT_255_2_778
10
7.2924489
20
2.3440138
40
0.7436545
50
88.9832222
51
109.5510723
0
ARC
8
DEFAULT_255_2_778
10
7.2302193
20
2.5442749
40
0.5341805
50
110.449414
51
120.0723346
0
ARC
8
DEFAULT_255_2_778
10
7.4569328
20
2.195841
40
0.9495632
50
121.3756884
51
139.5730333
0
ARC
8
DEFAULT_255_2_778
10
7.7202417
20
1.9482535
40
1.3106778
50
138.7983129
51
140.889582
0
ARC
8
DEFAULT_255_2_778
10
7.1941077
20
1.9221652
40
0.6381678
50
219.7201697
51
243.5995829
0
ARC
8
DEFAULT_255_2_778
10
7.1197976
20
1.7936228
40
0.4900802
50
244.6991836
51
248.1808069
0
ARC
8
DEFAULT_255_2_778
10
7.2062275
20
2.0303422
40
0.7420059
50
248.7789009
51
270.3642909
0
ARC
8
DEFAULT_255_2_778
10
7.2188838
20
1.8850814
40
0.596783
50
269.2378103
51
294.3186078
0
ARC
8
DEFAULT_255_2_778
10
7.251363
20
1.7924763
40
0.4990925
50
295.2988697
51
324.9499069
0
ARC
8
DEFAULT_255_2_778
10
7.0200488
20
1.9576583
40
0.7833243
50
324.7755105
51
343.6590742
0
ARC
8
DEFAULT_255_2_778
10
6.6648414
20
2.0809205
40
1.1590083
50
342.7521651
51
345.7614495
0
ARC
8
DEFAULT_255_2_778
10
6.3573594
20
2.1459763
40
1.4730993
50
346.250398
51
356.4697312
0
ARC
8
DEFAULT_255_2_778
10
5.5534962
20
2.2103992
40
2.2794519
50
356.097666
51
0.094312
0
ARC
8
DEFAULT_255_2_778
10
5.6238755
20
2.2264607
40
2.2091039
50
359.6807381
51
6.580394
0
ARC
8
DEFAULT_255_2_778
10
6.4977551
20
2.3235742
40
1.3298574
50
6.7385322
51
12.9391747
0
ARC
8
DEFAULT_255_2_778
10
6.9225441
20
2.4450738
40
0.8889541
50
11.4374279
51
25.5811981
0
ARC
8
DEFAULT_255_2_778
10
7.2311367
20
2.5850807
40
0.5502019
50
26.3064665
51
33.9123064
0
ARC
8
DEFAULT_255_2_778
10
7.3552401
20
2.6875445
40
0.3903622
50
31.5935327
51
64.5244207
0
ARC
8
DEFAULT_255_2_778
10
7.3125188
20
2.5951424
40
0.4921569
50
64.6614622
51
90.8002412
0
ARC
8
DEFAULT_255_2_778
10
10.9231301
20
2.2716385
40
1.4609705
50
117.0536319
51
135.2904041
0
ARC
8
DEFAULT_255_2_778
10
10.7052984
20
2.6562338
40
1.0195604
50
90.0479548
51
115.9817073
0
ARC
8
DEFAULT_255_2_778
10
10.7246051
20
2.3864413
40
1.2895101
50
89.998222
51
90.8957923
0
ARC
8
DEFAULT_255_2_778
10
10.7400001
20
2.7025658
40
0.9735066
50
63.9286338
51
90.9037514
0
ARC
8
DEFAULT_255_2_778
10
10.7701011
20
2.7853017
40
0.8860092
50
63.1012486
51
63.3256967
0
ARC
8
DEFAULT_255_2_778
10
10.7602748
20
2.7331561
40
0.937076
50
36.7362354
51
64.0079388
0
ARC
8
DEFAULT_255_2_778
10
10.504226
20
2.5313092
40
1.2630332
50
18.3642485
51
37.126757
0
ARC
8
DEFAULT_255_2_778
10
10.1450663
20
2.3937706
40
1.6473262
50
15.9788727
51
18.9686983
0
ARC
8
DEFAULT_255_2_778
10
9.9290277
20
2.3195317
40
1.8754922
50
3.7166649
51
16.3423813
0
ARC
8
DEFAULT_255_2_778
10
9.3350873
20
2.2665578
40
2.4716589
50
359.944214
51
4.0495873
0
ARC
8
DEFAULT_255_2_778
10
9.5219233
20
2.2509206
40
2.2848601
50
348.6006467
51
0.3317782
0
ARC
8
DEFAULT_255_2_778
10
9.9561763
20
2.1725516
40
1.8437064
50
342.8227224
51
348.3207896
0
ARC
8
DEFAULT_255_2_778
10
10.258163
20
2.058142
40
1.5215341
50
326.8462591
51
343.5804299
0
ARC
8
DEFAULT_255_2_778
10
10.4743991
20
1.928813
40
1.2698108
50
321.5930008
51
326.3958611
0
ARC
8
DEFAULT_255_2_778
10
10.582594
20
1.8349136
40
1.1267109
50
296.3021548
51
321.9167204
0
ARC
8
DEFAULT_255_2_778
10
10.5997106
20
1.8124203
40
1.0989751
50
269.5543816
51
296.0217844
0
ARC
8
DEFAULT_255_2_778
10
10.5825515
20
2.0768141
40
1.3633629
50
269.9997318
51
270.3619206
0
ARC
8
DEFAULT_255_2_778
10
10.5708096
20
1.6620081
40
0.9486294
50
256.0765399
51
270.7088297
0
ARC
8
DEFAULT_255_2_778
10
10.525074
20
1.5317241
40
0.8112731
50
242.2509316
51
256.997672
0
ARC
8
DEFAULT_255_2_778
10
10.5762943
20
1.6254804
40
0.9180967
50
229.7217972
51
242.1462914
0
ARC
8
DEFAULT_255_2_778
10
10.8775746
20
1.9291067
40
1.3449339
50
219.5371279
51
228.2920896
0
ARC
8
DEFAULT_255_2_778
10
9.6111481
20
0.9352359
40
0.2017073
50
313.9718169
51
349.9254178
0
ARC
8
DEFAULT_255_2_778
10
9.674851
20
0.8802257
40
0.1181361
50
306.816879
51
310.2580263
0
ARC
8
DEFAULT_255_2_778
10
9.6362077
20
0.9635075
40
0.2088287
50
267.0732713
51
301.6045656
0
ARC
8
DEFAULT_255_2_778
10
10.4420541
20
2.4905522
40
0.5971774
50
88.5999335
51
120.2240748
0
ARC
8
DEFAULT_255_2_778
10
10.6829867
20
2.1560514
40
1.0082744
50
122.4862663
51
137.9616113
0
ARC
8
DEFAULT_255_2_778
10
11.0121074
20
1.8353708
40
1.4675556
50
137.2674416
51
140.1855735
0
ARC
8
DEFAULT_255_2_778
10
10.3757077
20
1.9221652
40
0.6381678
50
219.7201697
51
243.5995829
0
ARC
8
DEFAULT_255_2_778
10
10.3013976
20
1.7936228
40
0.4900802
50
244.6991836
51
248.1808069
0
ARC
8
DEFAULT_255_2_778
10
10.383662
20
2.0084891
40
0.7201382
50
248.4584972
51
270.0543566
0
ARC
8
DEFAULT_255_2_778
10
10.3940241
20
1.9191249
40
0.6308479
50
269.1208939
51
293.0522226
0
ARC
8
DEFAULT_255_2_778
10
10.4268808
20
1.8046968
40
0.5128984
50
294.6804458
51
324.0039478
0
ARC
8
DEFAULT_255_2_778
10
10.2190205
20
1.9423725
40
0.7620617
50
324.8143276
51
343.2443756
0
ARC
8
DEFAULT_255_2_778
10
9.8297171
20
2.0787723
40
1.1743031
50
342.3477367
51
346.2044995
0
ARC
8
DEFAULT_255_2_778
10
9.4652563
20
2.1554521
40
1.5465853
50
346.6653831
51
356.2664423
0
ARC
8
DEFAULT_255_2_778
10
8.5246648
20
2.2316366
40
2.4901853
50
355.926498
51
0.1153805
0
ARC
8
DEFAULT_255_2_778
10
8.8698528
20
2.2490111
40
2.1450279
50
359.6698548
51
6.5908379
0
ARC
8
DEFAULT_255_2_778
10
9.725128
20
2.3435538
40
1.2845607
50
6.7803674
51
12.6219055
0
ARC
8
DEFAULT_255_2_778
10
10.1839208
20
2.4585518
40
0.8118147
50
11.7774012
51
28.131839
0
ARC
8
DEFAULT_255_2_778
10
10.4238441
20
2.577508
40
0.5442087
50
28.9974009
51
34.9611857
0
ARC
8
DEFAULT_255_2_778
10
10.5189745
20
2.6609586
40
0.4186567
50
33.0613637
51
64.8581756
0
ARC
8
DEFAULT_255_2_778
10
10.4690313
20
2.5165544
40
0.570827
50
66.4784263
51
91.2232588
0
ARC
8
DEFAULT_255_2_778
10
13.6073111
20
1.9922
40
1.6838059
50
74.5882041
51
90.461619
0
ARC
8
DEFAULT_255_2_778
10
13.6706815
20
2.2587461
40
1.4100372
50
68.7320111
51
74.1922543
0
ARC
8
DEFAULT_255_2_778
10
13.7269695
20
2.3750743
40
1.2812553
50
44.7597245
51
69.1907684
0
ARC
8
DEFAULT_255_2_778
10
13.7167692
20
2.3711159
40
1.2912927
50
20.0702388
51
44.5657477
0
ARC
8
DEFAULT_255_2_778
10
13.3996697
20
2.2497191
40
1.6308039
50
4.0529822
51
20.2531132
0
ARC
8
DEFAULT_255_2_778
10
12.9148264
20
2.1997994
40
2.1180198
50
359.9445959
51
4.4730074
0
ARC
8
DEFAULT_255_2_778
10
13.1423277
20
2.1845419
40
1.8905636
50
346.9503355
51
0.400328
0
ARC
8
DEFAULT_255_2_778
10
13.5089545
20
2.1083411
40
1.5162235
50
339.5525505
51
346.6272513
0
ARC
8
DEFAULT_255_2_778
10
13.6926124
20
2.031127
40
1.317188
50
315.7891868
51
339.908741
0
ARC
8
DEFAULT_255_2_778
10
13.7225962
20
2.0203346
40
1.2882381
50
290.8993096
51
315.2033413
0
ARC
8
DEFAULT_255_2_778
10
13.6276334
20
2.2720351
40
1.5572551
50
272.4217316
51
290.8598214
0
ARC
8
DEFAULT_255_2_778
10
13.5944356
20
2.6598816
40
1.9462303
50
269.9796733
51
272.9157256
0
ARC
8
DEFAULT_255_2_778
10
13.5801468
20
2.4301638
40
1.7165664
50
254.7369643
51
270.4538923
0
ARC
8
DEFAULT_255_2_778
10
13.5162784
20
2.1589419
40
1.4381309
50
248.9422395
51
254.3471712
0
ARC
8
DEFAULT_255_2_778
10
13.4560521
20
2.0156595
40
1.2827859
50
224.7442157
51
249.1531334
0
ARC
8
DEFAULT_255_2_778
10
13.5140878
20
2.0538954
40
1.3509915
50
200.5958808
51
224.1633358
0
ARC
8
DEFAULT_255_2_778
10
13.8158345
20
2.1507606
40
1.6675985
50
183.6087027
51
200.0642579
0
ARC
8
DEFAULT_255_2_778
10
14.2819577
20
2.1961381
40
2.1357133
50
179.956722
51
184.0365696
0
ARC
8
DEFAULT_255_2_778
10
14.0287865
20
2.2109531
40
1.8825877
50
167.2207636
51
180.401796
0
ARC
8
DEFAULT_255_2_778
10
13.643116
20
2.2900311
40
1.4890013
50
159.3865403
51
166.9056473
0
ARC
8
DEFAULT_255_2_778
10
13.4882831
20
2.3493874
40
1.3231847
50
135.4738005
51
159.431805
0
ARC
8
DEFAULT_255_2_778
10
13.4577631
20
2.3716136
40
1.2858523
50
110.8764175
51
135.2262334
0
ARC
8
DEFAULT_255_2_778
10
13.5597272
20
2.0869889
40
1.5881389
50
92.4026491
51
110.6542993
0
ARC
8
DEFAULT_255_2_778
10
13.5930544
20
1.6942567
40
1.9819946
50
89.9800311
51
92.8892903
0
ARC
8
DEFAULT_255_2_778
10
13.6069788
20
1.9869532
40
0.6960277
50
268.9105602
51
291.0638433
0
ARC
8
DEFAULT_255_2_778
10
13.6707504
20
1.8013646
40
0.4999719
50
291.8880183
51
325.329337
0
ARC
8
DEFAULT_255_2_778
10
13.4293026
20
1.9552695
40
0.7861712
50
326.1144773
51
345.5595827
0
ARC
8
DEFAULT_255_2_778
10
12.810919
20
2.1245203
40
1.4272579
50
345.1703658
51
356.1766539
0
ARC
8
DEFAULT_255_2_778
10
12.0428651
20
2.1909488
40
2.1980836
50
355.7839226
51
0.1017217
0
ARC
8
DEFAULT_255_2_778
10
12.3088815
20
2.2066074
40
1.9320994
50
359.6513722
51
8.0044104
0
ARC
8
DEFAULT_255_2_778
10
13.1361512
20
2.3282083
40
1.0959691
50
7.7315446
51
21.5622082
0
ARC
8
DEFAULT_255_2_778
10
13.5150229
20
2.4733116
40
0.6902973
50
21.9183548
51
34.787627
0
ARC
8
DEFAULT_255_2_778
10
13.6494994
20
2.5643957
40
0.5278923
50
34.9958931
51
86.3729906
0
ARC
8
DEFAULT_255_2_778
10
13.5952917
20
2.2449489
40
0.8508037
50
84.0900897
51
90.1041504
0
ARC
8
DEFAULT_255_2_778
10
13.5805423
20
2.3733072
40
0.7225647
50
88.953019
51
110.069453
0
ARC
8
DEFAULT_255_2_778
10
13.5088935
20
2.5857293
40
0.4984859
50
110.7127264
51
145.6286962
0
ARC
8
DEFAULT_255_2_778
10
13.7355313
20
2.4328566
40
0.7718587
50
145.7599815
51
165.4141144
0
ARC
8
DEFAULT_255_2_778
10
14.3429427
20
2.264933
40
1.4020148
50
165.0239736
51
176.1444077
0
ARC
8
DEFAULT_255_2_778
10
15.1013752
20
2.1987452
40
2.1632337
50
175.7460648
51
180.1031342
0
ARC
8
DEFAULT_255_2_778
10
14.8936196
20
2.1830982
40
1.9555097
50
179.6556363
51
187.963673
0
ARC
8
DEFAULT_255_2_778
10
14.0610139
20
2.061365
40
1.1140801
50
187.6959499
51
201.4120209
0
ARC
8
DEFAULT_255_2_778
10
13.6774574
20
1.9155757
40
0.7037865
50
201.7620045
51
214.4995338
0
ARC
8
DEFAULT_255_2_778
10
13.5249976
20
1.8215204
40
0.5249414
50
215.4643642
51
264.1343854
0
ARC
8
DEFAULT_255_2_778
10
13.5910952
20
2.1609254
40
0.8698792
50
262.0877558
51
270.1943042
0
ARC
8
DEFAULT_255_2_778
10
17.412486
20
1.1967492
40
0.4414599
50
253.5519116
51
271.5523304
0
ARC
8
DEFAULT_255_2_778
10
17.3515999
20
0.9692344
40
0.2061041
50
242.6608606
51
251.876617
0
ARC
8
DEFAULT_255_2_778
10
17.3634945
20
0.9534457
40
0.1983436
50
201.6501393
51
237.5070746
0
ARC
8
DEFAULT_255_2_778
10
17.5851482
20
1.0697245
40
0.4480328
50
200.2638208
51
205.0152944
0
ARC
8
DEFAULT_255_2_778
10
15.411901
20
3.0178962
40
2.5604614
50
305.3016997
51
311.3487283
0
ARC
8
DEFAULT_255_2_778
10
16.1322373
20
2.0209616
40
1.3306255
50
294.2922662
51
304.794849
0
ARC
8
DEFAULT_255_2_778
10
16.225141
20
1.862744
40
1.148364
50
281.0450348
51
293.3148823
0
ARC
8
DEFAULT_255_2_778
10
16.1840416
20
2.0782066
40
1.3677097
50
269.4890607
51
281.0056413
0
ARC
8
DEFAULT_255_2_778
10
16.158918
20
1.8376155
40
1.1271384
50
252.8229367
51
270.6571404
0
ARC
8
DEFAULT_255_2_778
10
16.0583105
20
1.5075442
40
0.7820786
50
229.975616
51
252.7234157
0
ARC
8
DEFAULT_255_2_778
10
16.0174433
20
1.4151344
40
0.6856091
50
202.1306983
51
227.6237249
0
ARC
8
DEFAULT_255_2_778
10
16.179273
20
1.4744603
40
0.8578867
50
180.8677957
51
201.7293494
0
ARC
8
DEFAULT_255_2_778
10
16.4884767
20
1.4969668
40
1.1675317
50
179.9909459
51
181.7423755
0
ARC
8
DEFAULT_255_2_778
10
15.99883
20
1.4908543
40
0.6779141
50
151.6994368
51
179.4677886
0
ARC
8
DEFAULT_255_2_778
10
16.0096748
20
1.489788
40
0.687981
50
128.9331898
51
152.0494385
0
ARC
8
DEFAULT_255_2_778
10
16.2645533
20
1.2016943
40
1.0723906
50
123.1493481
51
129.8534022
0
ARC
8
DEFAULT_255_2_778
10
16.4330447
20
0.9324173
40
1.3899911
50
111.4447919
51
122.8946948
0
ARC
8
DEFAULT_255_2_778
10
16.7976732
20
0.0287286
40
2.3644446
50
104.5780667
51
111.6627059
0
ARC
8
DEFAULT_255_2_778
10
16.8512561
20
-0.2054582
40
2.6045882
50
97.5388914
51
104.4221713
0
ARC
8
DEFAULT_255_2_778
10
17.0617191
20
-1.7435663
40
4.1570192
50
92.8862857
51
97.6332404
0
ARC
8
DEFAULT_255_2_778
10
17.1494904
20
-3.2189551
40
5.6349719
50
91.2613799
51
93.0222135
0
ARC
8
DEFAULT_255_2_778
10
16.135412
20
2.5748669
40
0.8901184
50
359.2072355
51
12.9821665
0
ARC
8
DEFAULT_255_2_778
10
16.5968581
20
2.6872309
40
0.4152656
50
12.1778704
51
40.8141081
0
ARC
8
DEFAULT_255_2_778
10
16.6228191
20
2.6918223
40
0.3928481
50
42.7824567
51
86.9784097
0
ARC
8
DEFAULT_255_2_778
10
16.5829755
20
2.4372493
40
0.6497029
50
84.6523433
51
90.0908634
0
ARC
8
DEFAULT_255_2_778
10
16.5699817
20
2.1939562
40
0.8930752
50
89.2324539
51
102.2333576
0
ARC
8
DEFAULT_255_2_778
10
16.4988232
20
2.5529751
40
0.5271711
50
102.9432279
51
110.1591108
0
ARC
8
DEFAULT_255_2_778
10
16.6847079
20
1.9442915
40
1.1631623
50
108.4213729
51
118.4635546
0
ARC
8
DEFAULT_255_2_778
10
20.2777043
20
-4.7909242
40
8.7967987
50
118.1292611
51
119.2272823
0
ARC
8
DEFAULT_255_2_778
10
15.8280242
20
3.1955264
40
0.3459518
50
268.7943715
51
296.5107415
0
ARC
8
DEFAULT_255_2_778
10
15.8132551
20
3.0818147
40
0.2322842
50
236.1728942
51
271.8478263
0
ARC
8
DEFAULT_255_2_778
10
15.9373218
20
3.2096314
40
0.4087782
50
213.0908926
51
231.6956307
0
ARC
8
DEFAULT_255_2_778
10
16.6048858
20
1.9745882
40
1.7018242
50
110.1499232
51
132.3679384
0
ARC
8
DEFAULT_255_2_778
10
16.6626636
20
1.8117318
40
1.8746169
50
90.4119171
51
110.0931047
0
ARC
8
DEFAULT_255_2_778
10
16.682491
20
1.4786526
40
2.2078987
50
89.9985943
51
90.8642967
0
ARC
8
DEFAULT_255_2_778
10
16.6960251
20
2.4388896
40
1.2477345
50
73.5666493
51
90.619011
0
ARC
8
DEFAULT_255_2_778
10
16.7591732
20
2.6869049
40
0.9920325
50
67.4288636
51
73.0124676
0
ARC
8
DEFAULT_255_2_778
10
16.788873
20
2.721362
40
0.9489211
50
43.0021981
51
68.2862455
0
ARC
8
DEFAULT_255_2_778
10
16.7639479
20
2.6833198
40
0.9931543
50
19.4638822
51
43.6265251
0
ARC
8
DEFAULT_255_2_778
10
16.4679925
20
2.5763916
40
1.307828
50
359.3848823
51
19.5603218
0
ARC
8
DEFAULT_255_2_778
10
16.4253404
20
2.0304589
40
0.8009214
50
269.0345373
51
290.6249165
0
ARC
8
DEFAULT_255_2_778
10
16.4771003
20
1.8654218
40
0.6283043
50
291.5087569
51
295.1220065
0
ARC
8
DEFAULT_255_2_778
10
16.2988983
20
2.1737215
40
0.9835676
50
296.8965179
51
313.2854072
0
ARC
8
DEFAULT_255_2_778
10
16.0238879
20
2.4906888
40
1.4029639
50
312.5858123
51
315.5636923
0
ARC
8
DEFAULT_255_2_778
10
17.177128
20
-2.203446
40
4.1610555
50
92.0863085
51
95.8492007
0
ARC
8
DEFAULT_255_2_778
10
16.9864855
20
-0.3568606
40
2.3046564
50
95.8128209
51
100.7365008
0
ARC
8
DEFAULT_255_2_778
10
16.8308341
20
0.4309053
40
1.5016969
50
100.5010246
51
108.5546284
0
ARC
8
DEFAULT_255_2_778
10
16.6078613
20
1.1061353
40
0.7906207
50
108.8069117
51
116.2123159
0
ARC
8
DEFAULT_255_2_778
10
16.4260067
20
1.4426697
40
0.408627
50
114.1778558
51
138.6878509
0
ARC
8
DEFAULT_255_2_778
10
16.315867
20
1.5503769
40
0.254926
50
140.5292614
51
146.8036757
0
ARC
8
DEFAULT_255_2_778
10
16.3365773
20
1.5385428
40
0.2787393
50
147.098912
51
180.4093659
0
ARC
8
DEFAULT_255_2_778
10
16.4289049
20
1.5240986
40
0.3712686
50
178.0778946
51
203.5766361
0
ARC
8
DEFAULT_255_2_778
10
16.2740324
20
1.4621319
40
0.2046036
50
205.0192468
51
232.6648437
0
ARC
8
DEFAULT_255_2_778
10
16.3640542
20
1.6096156
40
0.376888
50
235.3823559
51
265.265313
0
ARC
8
DEFAULT_255_2_778
10
16.4100482
20
1.9127066
40
0.6830585
50
263.5186884
51
270.1758953
0
ARC
8
DEFAULT_255_2_778
10
18.8431398
20
3.2842941
40
0.3474541
50
71.9732008
51
91.9288336
0
ARC
8
DEFAULT_255_2_778
10
18.9096545
20
3.4973027
40
0.1243466
50
47.8220446
51
70.7435567
0
ARC
8
DEFAULT_255_2_778
10
18.8347427
20
3.4399509
40
0.2178112
50
12.3839855
51
43.3439325
0
ARC
8
DEFAULT_255_2_778
10
18.5562574
20
3.3520457
40
0.5093402
50
10.4526041
51
15.32523
0
ARC
8
DEFAULT_255_2_778
10
20.354905
20
2.4719177
40
1.4330101
50
137.7816839
51
151.4335438
0
ARC
8
DEFAULT_255_2_778
10
20.0696382
20
2.7211472
40
1.0542967
50
128.630519
51
137.3952719
0
ARC
8
DEFAULT_255_2_778
10
19.8216117
20
3.0251726
40
0.6619657
50
89.0709351
51
128.2883186
0
ARC
8
DEFAULT_255_2_778
10
19.8456575
20
3.1072442
40
0.5799599
50
67.1506974
51
91.315279
0
ARC
8
DEFAULT_255_2_778
10
19.90232
20
3.2629047
40
0.4145931
50
53.238973
51
66.013503
0
ARC
8
DEFAULT_255_2_778
10
19.9702991
20
3.0484548
40
0.1317988
50
310.2430069
51
350.1249397
0
ARC
8
DEFAULT_255_2_778
10
19.985276
20
3.0620514
40
0.134035
50
266.6078166
51
301.5682169
0
ARC
8
DEFAULT_255_2_778
10
19.991184
20
3.7618129
40
0.8336765
50
262.9189434
51
269.048857
0
ARC
8
DEFAULT_255_2_778
10
20.1147211
20
4.9311555
40
2.0094447
50
262.4024736
51
263.5335306
0
ARC
8
DEFAULT_255_2_778
10
19.6865696
20
2.0050065
40
0.9483662
50
80.1353362
51
89.6148171
0
ARC
8
DEFAULT_255_2_778
10
19.6794231
20
2.4179668
40
0.5355552
50
88.5532082
51
115.4209551
0
ARC
8
DEFAULT_255_2_778
10
19.6302532
20
2.541417
40
0.4030419
50
116.641292
51
133.0066483
0
ARC
8
DEFAULT_255_2_778
10
19.9134058
20
2.2560303
40
0.8049671
50
133.8896247
51
152.6642152
0
ARC
8
DEFAULT_255_2_778
10
20.3150582
20
2.028449
40
1.2663977
50
151.8621716
51
157.3837465
0
ARC
8
DEFAULT_255_2_778
10
22.4708501
20
0.9337164
40
0.1789903
50
194.3511266
51
275.1591009
0
ARC
8
DEFAULT_255_2_778
10
21.1186006
20
2.1527387
40
1.5058567
50
298.6261468
51
317.760311
0
ARC
8
DEFAULT_255_2_778
10
21.3758228
20
1.7158738
40
0.9992948
50
274.807741
51
297.6810984
0
ARC
8
DEFAULT_255_2_778
10
21.3262049
20
2.0968655
40
1.3832157
50
269.9146821
51
275.5331242
0
ARC
8
DEFAULT_255_2_778
10
21.3134733
20
1.6358052
40
0.9222157
50
243.3793159
51
270.6630412
0
ARC
8
DEFAULT_255_2_778
10
21.3464347
20
1.6756036
40
0.9726341
50
216.5958651
51
242.693947
0
ARC
8
DEFAULT_255_2_778
10
21.6495943
20
1.8787118
40
1.3372321
50
199.7329259
51
215.8389081
0
ARC
8
DEFAULT_255_2_778
10
22.0902591
20
2.0534707
40
1.8110928
50
195.8524367
51
200.2300002
0
ARC
8
DEFAULT_255_2_778
10
22.2958271
20
2.1017031
40
2.0220414
50
184.8460364
51
195.5760189
0
ARC
8
DEFAULT_255_2_778
10
23.0647778
20
2.1783027
40
2.7947375
50
179.8944473
51
185.0790549
0
ARC
8
DEFAULT_255_2_778
10
22.2902252
20
2.1971919
40
2.0202268
50
165.0195212
51
180.3897026
0
ARC
8
DEFAULT_255_2_778
10
22.0413462
20
2.2528205
40
1.7654584
50
162.6140574
51
164.6756815
0
ARC
8
DEFAULT_255_2_778
10
21.7905354
20
2.3325059
40
1.502296
50
144.5264165
51
162.6560447
0
ARC
8
DEFAULT_255_2_778
10
21.6139927
20
2.4456144
40
1.2929239
50
141.1097685
51
144.0682427
0
ARC
8
DEFAULT_255_2_778
10
21.5150142
20
2.532382
40
1.1614212
50
116.4143402
51
141.3758609
0
ARC
8
DEFAULT_255_2_778
10
21.4916089
20
2.5662812
40
1.1206644
50
89.2567902
51
116.1136421
0
ARC
8
DEFAULT_255_2_778
10
21.5188494
20
2.519755
40
1.1671654
50
77.59332
51
90.6236583
0
ARC
8
DEFAULT_255_2_778
10
21.6055286
20
2.9381447
40
0.7399417
50
66.6041956
51
77.1878998
0
ARC
8
DEFAULT_255_2_778
10
21.4857244
20
2.6576425
40
1.0449551
50
47.4583856
51
66.6824766
0
ARC
8
DEFAULT_255_2_778
10
21.6016258
20
2.0766059
40
0.7661646
50
269.0292247
51
288.0891878
0
ARC
8
DEFAULT_255_2_778
10
21.6691346
20
1.8452924
40
0.5253784
50
288.9235037
51
299.638146
0
ARC
8
DEFAULT_255_2_778
10
21.441107
20
2.2026145
40
0.9489585
50
300.9358105
51
319.9913325
0
ARC
8
DEFAULT_255_2_778
10
21.1931854
20
2.4342033
40
1.2878683
50
319.1907228
51
320.7953134
0
ARC
8
DEFAULT_255_2_778
10
21.7123972
20
2.4869229
40
0.6218298
50
39.6549173
51
65.5262543
0
ARC
8
DEFAULT_255_2_778
10
21.773892
20
2.5990519
40
0.4943913
50
66.6292933
51
68.6297169
0
ARC
8
DEFAULT_255_2_778
10
21.6910851
20
2.3974687
40
0.7122983
50
68.3354836
51
90.3812724
0
ARC
8
DEFAULT_255_2_778
10
21.67836
20
2.5127797
40
0.5970249
50
89.2336519
51
114.3137438
0
ARC
8
DEFAULT_255_2_778
10
21.6522946
20
2.5965602
40
0.5100566
50
115.5204714
51
144.9678175
0
ARC
8
DEFAULT_255_2_778
10
21.8570692
20
2.4533583
40
0.7599352
50
144.9896895
51
162.9700977
0
ARC
8
DEFAULT_255_2_778
10
22.2429552
20
2.3165044
40
1.1691174
50
162.0958451
51
165.8629952
0
ARC
8
DEFAULT_255_2_778
10
22.5401309
20
2.2519263
40
1.4730993
50
166.250398
51
176.4697312
0
ARC
8
DEFAULT_255_2_778
10
23.3439941
20
2.1875034
40
2.2794519
50
176.097666
51
180.094312
0
ARC
8
DEFAULT_255_2_778
10
23.4421754
20
2.1714029
40
2.3776623
50
179.7024331
51
186.1111035
0
ARC
8
DEFAULT_255_2_778
10
22.4930439
20
2.0734121
40
1.4234971
50
186.2563071
51
192.0370025
0
ARC
8
DEFAULT_255_2_778
10
22.0207159
20
1.9625676
40
0.9384904
50
191.4321898
51
204.7951823
0
ARC
8
DEFAULT_255_2_778
10
21.6819055
20
1.8137309
40
0.5685383
50
205.4979191
51
212.7877342
0
ARC
8
DEFAULT_255_2_778
10
21.5648391
20
1.7386647
40
0.4294724
50
212.8261459
51
243.1918566
0
ARC
8
DEFAULT_255_2_778
10
21.5815008
20
1.8262376
40
0.5157358
50
245.9285978
51
270.7937284
0
ARC
8
DEFAULT_255_2_778
10
23.9358643
20
1.1631248
40
0.4488296
50
157.7530699
51
180.392358
0
ARC
8
DEFAULT_255_2_778
10
23.9186832
20
1.1647488
40
0.4323416
50
134.0568306
51
157.0902163
0
ARC
8
DEFAULT_255_2_778
10
23.923503
20
1.170721
40
0.4314684
50
112.2188523
51
135.0683154
0
ARC
8
DEFAULT_255_2_778
10
23.9374916
20
1.1550521
40
0.4513182
50
89.4726924
51
113.1107055
0
ARC
8
DEFAULT_255_2_778
10
23.9445023
20
1.1617678
40
0.4445926
50
66.715956
51
90.3682049
0
ARC
8
DEFAULT_255_2_778
10
23.9619695
20
1.1694489
40
0.4308289
50
45.256415
51
68.4462015
0
ARC
8
DEFAULT_255_2_778
10
23.9885595
20
1.1882367
40
0.3988072
50
21.2918853
51
46.0696773
0
ARC
8
DEFAULT_255_2_778
10
23.9787368
20
1.1627133
40
0.4177168
50
359.6348622
51
24.0656633
0
ARC
8
DEFAULT_255_2_778
10
23.9718108
20
1.1561818
40
0.424652
50
336.131525
51
0.5220882
0
ARC
8
DEFAULT_255_2_778
10
23.9565884
20
1.1502552
40
0.436328
50
315.0606119
51
337.6522204
0
ARC
8
DEFAULT_255_2_778
10
23.95493
20
1.1707266
40
0.4521584
50
291.4725751
51
313.3725983
0
ARC
8
DEFAULT_255_2_778
10
23.9450604
20
1.1907325
40
0.4743921
50
269.6116632
51
291.6973691
0
ARC
8
DEFAULT_255_2_778
10
23.9373905
20
1.197721
40
0.4813904
50
248.4596705
51
270.5302018
0
ARC
8
DEFAULT_255_2_778
10
23.9308746
20
1.1692863
40
0.4525703
50
226.3076099
51
247.9052637
0
ARC
8
DEFAULT_255_2_778
10
23.952728
20
1.1760854
40
0.472713
50
203.9289592
51
224.9615381
0
ARC
8
DEFAULT_255_2_778
10
23.9410395
20
1.1558082
40
0.4540142
50
179.4645185
51
202.187981
0
ARC
8
DEFAULT_255_2_778
10
24.4346439
20
0.69039
40
1.2829369
50
343.8971402
51
0.4270094
0
ARC
8
DEFAULT_255_2_778
10
24.9270131
20
0.5431599
40
0.7690651
50
318.4591348
51
344.2613585
0
ARC
8
DEFAULT_255_2_778
10
24.9367676
20
0.5393624
40
0.7592543
50
292.2489034
51
318.1854728
0
ARC
8
DEFAULT_255_2_778
10
24.822108
20
0.7697423
40
1.0160713
50
292.2684711
51
293.3143883
0
ARC
8
DEFAULT_255_2_778
10
24.8419444
20
0.7414111
40
0.9823657
50
276.1255526
51
291.8239825
0
ARC
8
DEFAULT_255_2_778
10
24.7637344
20
1.3376891
40
1.5836478
50
269.7977812
51
276.6369958
0
ARC
8
DEFAULT_255_2_778
10
24.7516969
20
0.9212366
40
1.1672031
50
261.1112615
51
270.316532
0
ARC
8
DEFAULT_255_2_778
10
24.8293098
20
1.3999942
40
1.6522056
50
254.5816052
51
261.0174573
0
ARC
8
DEFAULT_255_2_778
10
24.5139919
20
0.2131267
40
0.0961559
50
124.4157832
51
179.2107304
0
ARC
8
DEFAULT_255_2_778
10
24.5361678
20
0.1499687
40
0.1617313
50
92.6327331
51
118.238769
0
ARC
8
DEFAULT_255_2_778
10
24.5920374
20
-0.3255262
40
0.6401925
50
89.6055097
51
95.6743397
0
ARC
8
DEFAULT_255_2_778
10
24.6082692
20
0.9797698
40
0.6652236
50
268.9815434
51
282.2357417
0
ARC
8
DEFAULT_255_2_778
10
24.6648197
20
0.682324
40
0.3626329
50
283.4639764
51
286.2911819
0
ARC
8
DEFAULT_255_2_778
10
24.7236609
20
0.5307269
40
0.2011013
50
282.3127041
51
317.8031723
0
ARC
8
DEFAULT_255_2_778
10
24.6851377
20
0.5612825
40
0.2501854
50
318.5448176
51
349.5143036
0
ARC
8
DEFAULT_255_2_778
10
24.1813014
20
0.6730691
40
0.7661688
50
348.1511527
51
359.4715036
0
ARC
8
DEFAULT_255_2_778
10
23.5727146
20
0.6994923
40
1.3751307
50
358.6044657
51
0.0191216
0
ARC
8
DEFAULT_255_2_778
10
25.3869827
20
4.4451168
40
0.422579
50
335.1531058
51
0.5063463
0
ARC
8
DEFAULT_255_2_778
10
25.3278117
20
4.4730793
40
0.4880227
50
313.5973184
51
335.0931374
0
ARC
8
DEFAULT_255_2_778
10
25.3401049
20
4.4474087
40
0.4610387
50
291.7364744
51
314.6909183
0
ARC
8
DEFAULT_255_2_778
10
25.3281259
20
4.4606388
40
0.477805
50
269.5106569
51
292.483289
0
ARC
8
DEFAULT_255_2_778
10
25.3226872
20
4.4464741
40
0.4636248
50
247.1758368
51
270.1678158
0
ARC
8
DEFAULT_255_2_778
10
25.3300864
20
4.4537812
40
0.4732467
50
224.9134239
51
246.6933266
0
ARC
8
DEFAULT_255_2_778
10
25.3554728
20
4.4811711
40
0.5105652
50
204.7335345
51
225.078728
0
ARC
8
DEFAULT_255_2_778
10
25.3056704
20
4.4447116
40
0.4502443
50
179.4732053
51
203.1709685
0
ARC
8
DEFAULT_255_2_778
10
25.30542
20
4.4529433
40
0.4499935
50
156.8226231
51
180.5210295
0
ARC
8
DEFAULT_255_2_778
10
25.351691
20
4.4252927
40
0.5034642
50
135.1196815
51
156.0023399
0
ARC
8
DEFAULT_255_2_778
10
25.3310226
20
4.4454771
40
0.4745764
50
113.3605941
51
135.0856435
0
ARC
8
DEFAULT_255_2_778
10
25.3226729
20
4.4526197
40
0.4647336
50
89.8308149
51
112.7647258
0
ARC
8
DEFAULT_255_2_778
10
25.3284163
20
4.4398425
40
0.4775288
50
67.5407034
51
90.5244689
0
ARC
8
DEFAULT_255_2_778
10
25.3411459
20
4.4548078
40
0.4588753
50
45.2246216
51
68.2957479
0
ARC
8
DEFAULT_255_2_778
10
25.3318644
20
4.4335085
40
0.480606
50
24.1387538
51
46.2276479
0
ARC
8
DEFAULT_255_2_778
10
25.3872142
20
4.4525377
40
0.422347
50
359.4998874
51
24.8536928
0
ARC
8
DEFAULT_255_2_778
10
27.9572794
20
3.1643219
40
0.2399007
50
306.0459549
51
328.8291592
0
ARC
8
DEFAULT_255_2_778
10
28.0211596
20
3.1107592
40
0.160273
50
266.7041185
51
298.8299663
0
ARC
8
DEFAULT_255_2_778
10
28.0159166
20
3.2159526
40
0.265231
50
243.5178874
51
269.1420566
0
ARC
8
DEFAULT_255_2_778
10
26.5316217
20
0.086252
40
3.1986583
50
64.7187878
51
67.2914201
0
ARC
8
DEFAULT_255_2_778
10
27.2750258
20
1.955524
40
1.1878459
50
65.5621274
51
74.1753169
0
ARC
8
DEFAULT_255_2_778
10
27.3969314
20
2.3809852
40
0.7452675
50
74.2725205
51
90.9462001
0
LINE
8
DEFAULT_255_2_778
10
27.3846243
20
3.1261512
11
27.3841452
21
3.1261513
0
ARC
8
DEFAULT_255_2_778
10
27.3715921
20
2.5295271
40
0.5967562
50
88.7946631
51
107.9654567
0
ARC
8
DEFAULT_255_2_778
10
27.2967939
20
2.775669
40
0.3395779
50
108.7702493
51
126.6386749
0
ARC
8
DEFAULT_255_2_778
10
27.2277693
20
2.8525538
40
0.2368835
50
124.3392809
51
181.2826392
0
ARC
8
DEFAULT_255_2_778
10
27.1874612
20
2.842331
40
0.1965776
50
178.5657635
51
225.4047276
0
ARC
8
DEFAULT_255_2_778
10
27.4220447
20
3.0905865
40
0.538105
50
226.1772992
51
245.9612359
0
ARC
8
DEFAULT_255_2_778
10
28.1700983
20
4.8906824
40
2.4873065
50
247.1154366
51
252.5264291
0
ARC
8
DEFAULT_255_2_778
10
25.9045098
20
-2.6196334
40
5.3575544
50
70.71035
51
73.5322568
0
ARC
8
DEFAULT_255_2_778
10
26.9261628
20
0.2344302
40
2.3263183
50
64.4897271
51
71.2392892
0
ARC
8
DEFAULT_255_2_778
10
27.5712898
20
1.5754345
40
0.8382256
50
46.7577414
51
64.8108543
0
ARC
8
DEFAULT_255_2_778
10
27.7187624
20
1.7079319
40
0.6408913
50
24.5438329
51
48.2470036
0
ARC
8
DEFAULT_255_2_778
10
27.7147165
20
1.7087897
40
0.64422
50
2.2945787
51
24.3249662
0
ARC
8
DEFAULT_255_2_778
10
27.3817209
20
1.6765036
40
0.9784244
50
359.9559429
51
3.4030532
0
ARC
8
DEFAULT_255_2_778
10
27.4037694
20
1.6665625
40
0.9564199
50
336.6932401
51
0.5504765
0
ARC
8
DEFAULT_255_2_778
10
27.5146011
20
1.6173649
40
0.8351679
50
310.6848323
51
336.7846249
0
ARC
8
DEFAULT_255_2_778
10
27.3970183
20
1.7660407
40
1.0245912
50
289.8372197
51
310.2510221
0
ARC
8
DEFAULT_255_2_778
10
27.2644321
20
2.0805009
40
1.3655033
50
288.1919916
51
290.5927978
0
ARC
8
DEFAULT_255_2_778
10
27.2407848
20
2.1937649
40
1.4805449
50
273.8988969
51
287.6929237
0
ARC
8
DEFAULT_255_2_778
10
27.1856179
20
2.7729077
40
2.062158
50
269.9285186
51
274.3339981
0
ARC
8
DEFAULT_255_2_778
10
27.1825856
20
2.2628022
40
1.552051
50
259.1392966
51
270.0169656
0
ARC
8
DEFAULT_255_2_778
10
27.1640268
20
2.3443094
40
1.6289476
50
250.2637133
51
260.3206493
0
ARC
8
DEFAULT_255_2_778
10
27.2799956
20
2.5632291
40
1.8745
50
240.8994821
51
249.1868398
0
ARC
8
DEFAULT_255_2_778
10
26.894674
20
1.8837711
40
1.0934306
50
228.5070135
51
241.2260333
0
ARC
8
DEFAULT_255_2_778
10
26.5487149
20
1.2341309
40
0.2321997
50
122.4148763
51
149.4512707
0
ARC
8
DEFAULT_255_2_778
10
26.5352604
20
1.2238741
40
0.2342534
50
87.7774108
51
118.2884633
0
ARC
8
DEFAULT_255_2_778
10
26.5459448
20
1.2181604
40
0.2397962
50
58.1048305
51
90.3822156
0
ARC
8
DEFAULT_255_2_778
10
-140.0724188
20
-288.8753534
40
334.7780239
50
60.1012786
51
60.1271768
0
ARC
8
DEFAULT_255_2_778
10
27.4283596
20
2.5262684
40
1.3349992
50
242.1083279
51
250.104199
0
ARC
8
DEFAULT_255_2_778
10
27.1879007
20
1.9529977
40
0.7147877
50
252.5911949
51
268.2671234
0
ARC
8
DEFAULT_255_2_778
10
27.2212785
20
2.4137922
40
1.1765413
50
267.3209536
51
270.0422042
0
ARC
8
DEFAULT_255_2_778
10
27.2345447
20
1.8904163
40
0.6532828
50
268.9124417
51
285.8781293
0
ARC
8
DEFAULT_255_2_778
10
27.2641765
20
1.7461256
40
0.5065093
50
287.1197701
51
287.2698537
0
ARC
8
DEFAULT_255_2_778
10
27.3119167
20
1.6258202
40
0.3775839
50
285.7715922
51
308.2632532
0
ARC
8
DEFAULT_255_2_778
10
27.3691044
20
1.5361806
40
0.2719932
50
310.4986888
51
336.3454888
0
ARC
8
DEFAULT_255_2_778
10
27.3684144
20
1.54206
40
0.2750317
50
335.2811796
51
359.85235
0
ARC
8
DEFAULT_255_2_778
10
27.4410314
20
1.549321
40
0.2025706
50
357.7452344
51
45.8833413
0
ARC
8
DEFAULT_255_2_778
10
27.2277856
20
1.3414269
40
0.5003379
50
44.9242696
51
66.6684245
0
ARC
8
DEFAULT_255_2_778
10
26.8062479
20
0.4550155
40
1.481654
50
65.2760407
51
74.365825
0
ARC
8
DEFAULT_255_2_778
10
28.7955071
20
7.3745963
40
5.7182363
50
251.1590276
51
253.8560773
0
ARC
8
DEFAULT_255_2_778
10
27.7138951
20
4.1484593
40
2.3157334
50
243.9008779
51
250.7087362
0
ARC
8
DEFAULT_255_2_778
10
27.1027283
20
2.8890501
40
0.9158876
50
226.7128432
51
243.5757448
0
ARC
8
DEFAULT_255_2_778
10
27.0227424
20
2.7602437
40
0.7678732
50
203.5165756
51
224.4668471
0
ARC
8
DEFAULT_255_2_778
10
27.0289651
20
2.7432519
40
0.7670119
50
183.1983032
51
202.1671053
0
ARC
8
DEFAULT_255_2_778
10
27.4380999
20
2.7845289
40
1.1779558
50
179.9308182
51
184.0926525
0
ARC
8
DEFAULT_255_2_778
10
27.0897485
20
2.7902185
40
0.8296144
50
156.3097181
51
180.294708
0
ARC
8
DEFAULT_255_2_778
10
27.0611257
20
2.8047389
40
0.7975713
50
130.8599056
51
156.4387668
0
ARC
8
DEFAULT_255_2_778
10
27.1979665
20
2.6417446
40
1.0103736
50
110.3240584
51
130.6819265
0
ARC
8
DEFAULT_255_2_778
10
27.3270651
20
2.3445535
40
1.3340214
50
109.3458138
51
111.0902212
0
ARC
8
DEFAULT_255_2_778
10
27.3151717
20
2.3205803
40
1.3528369
50
93.7356044
51
108.5341749
0
ARC
8
DEFAULT_255_2_778
10
27.3655981
20
1.7941384
40
1.881514
50
89.9346178
51
94.2234584
0
ARC
8
DEFAULT_255_2_778
10
27.3816045
20
2.1304336
40
1.5452798
50
73.3048902
51
90.5138833
0
ARC
8
DEFAULT_255_2_778
10
27.4404096
20
2.361601
40
1.3070023
50
68.20203
51
72.8628603
0
ARC
8
DEFAULT_255_2_778
10
27.4584193
20
2.3714357
40
1.2912492
50
52.1563172
51
68.7819903
0
ARC
8
DEFAULT_255_2_778
10
27.6176157
20
2.591429
40
1.0198968
50
45.0275234
51
51.6365225
0
LINE
8
DEFAULT_255_2_778
10
12.3018452
20
6.3617513
11
14.5214452
21
6.3617513
0
LINE
8
DEFAULT_255_2_778
10
14.5214452
20
6.3617513
11
14.5214452
21
5.8069513
0
LINE
8
DEFAULT_255_2_778
10
14.5214452
20
5.8069513
11
12.3018452
21
5.8069513
0
LINE
8
DEFAULT_255_2_778
10
12.3018452
20
5.8069513
11
12.3018452
21
6.3617513
0
LINE
8
DEFAULT_255_2_778
10
12.3018452
20
6.3617513
11
12.3018452
21
6.3617513
0
LINE
8
DEFAULT_255_2_778
10
15.0762452
20
9.6912513
11
12.3018452
21
9.6912513
0
LINE
8
DEFAULT_255_2_778
10
12.3018452
20
9.6912513
11
12.3018452
21
9.1364513
0
LINE
8
DEFAULT_255_2_778
10
12.3018452
20
9.1364513
11
15.0762452
21
9.1364513
0
LINE
8
DEFAULT_255_2_778
10
15.0762452
20
9.1364513
11
15.0762452
21
9.6912513
0
LINE
8
DEFAULT_255_2_778
10
15.0762452
20
9.6912513
11
15.0762452
21
9.6912513
0
LINE
8
DEFAULT_255_2_778
10
16.1858452
20
8.0265513
11
16.1858452
21
9.1364513
0
LINE
8
DEFAULT_255_2_778
10
16.1858452
20
9.1364513
11
14.5211452
21
7.4716513
0
LINE
8
DEFAULT_255_2_778
10
14.5211452
20
7.4716513
11
16.1858452
21
5.8069513
0
LINE
8
DEFAULT_255_2_778
10
16.1858452
20
5.8069513
11
16.1858452
21
6.9165513
0
LINE
8
DEFAULT_255_2_778
10
16.1858452
20
6.9165513
11
18.9605452
21
6.9165513
0
LINE
8
DEFAULT_255_2_778
10
18.9605452
20
6.9165513
11
18.9605452
21
8.0265513
0
LINE
8
DEFAULT_255_2_778
10
18.9605452
20
8.0265513
11
16.1858452
21
8.0265513
0
LINE
8
DEFAULT_255_2_778
10
16.1858452
20
8.0265513
11
16.1858452
21
8.0265513
0
LINE
8
DEFAULT_255_2_778
10
13.6887452
20
8.5813513
11
12.3015452
21
8.5813513
0
LINE
8
DEFAULT_255_2_778
10
12.3015452
20
8.5813513
11
12.3015452
21
8.0265513
0
LINE
8
DEFAULT_255_2_778
10
12.3015452
20
8.0265513
11
13.6887452
21
8.0265513
0
LINE
8
DEFAULT_255_2_778
10
13.6887452
20
8.0265513
11
13.6887452
21
8.5813513
0
LINE
8
DEFAULT_255_2_778
10
13.6887452
20
8.5813513
11
13.6887452
21
8.5813513
0
LINE
8
DEFAULT_255_2_778
10
12.3015452
20
6.9165513
11
13.6887452
21
6.9165513
0
LINE
8
DEFAULT_255_2_778
10
13.6887452
20
6.9165513
11
13.6887452
21
7.4714513
0
LINE
8
DEFAULT_255_2_778
10
13.6887452
20
7.4714513
11
12.3015452
21
7.4714513
0
LINE
8
DEFAULT_255_2_778
10
12.3015452
20
7.4714513
11
12.3015452
21
6.9165513
0
LINE
8
DEFAULT_255_2_778
10
12.3015452
20
6.9165513
11
12.3015452
21
6.9165513
0
LINE
8
DEFAULT_255_2_778
10
17.2955452
20
6.3617513
11
17.8503452
21
6.3617513
0
LINE
8
DEFAULT_255_2_778
10
17.8503452
20
6.3617513
11
17.8503452
21
5.2520513
0
LINE
8
DEFAULT_255_2_778
10
17.2952452
20
4.6969513
11
11.7467452
21
4.6969513
0
LINE
8
DEFAULT_255_2_778
10
11.1918452
20
5.2518513
11
11.1918452
21
11.3557513
0
LINE
8
DEFAULT_255_2_778
10
11.7467452
20
11.9105513
11
13.4114452
21
11.9105513
0
LINE
8
DEFAULT_255_2_778
10
15.6310452
20
11.9108513
11
17.2958452
21
11.9108513
0
LINE
8
DEFAULT_255_2_778
10
17.8506452
20
11.3560513
11
17.8506452
21
8.5816513
0
LINE
8
DEFAULT_255_2_778
10
17.8506452
20
8.5816513
11
17.2958452
21
8.5816513
0
LINE
8
DEFAULT_255_2_778
10
17.2958452
20
8.5816513
11
17.2958452
21
10.2463513
0
LINE
8
DEFAULT_255_2_778
10
17.2958452
20
10.2463513
11
11.7467452
21
10.2463513
0
LINE
8
DEFAULT_255_2_778
10
11.7467452
20
10.2463513
11
11.7467452
21
5.2520513
0
LINE
8
DEFAULT_255_2_778
10
11.7467452
20
5.2520513
11
17.2958452
21
5.2520513
0
LINE
8
DEFAULT_255_2_778
10
17.2958452
20
5.2520513
11
17.2958452
21
6.3617513
0
LINE
8
DEFAULT_255_2_778
10
17.2958452
20
6.3617513
11
17.2955452
21
6.3617513
0
LINE
8
DEFAULT_255_2_778
10
12.3018452
20
10.8009513
11
16.7409452
21
10.8009513
0
LINE
8
DEFAULT_255_2_778
10
16.1861452
20
11.3557513
11
15.6313452
21
11.3557513
0
LINE
8
DEFAULT_255_2_778
10
13.4120452
20
11.3557513
11
12.8566452
21
11.3557513
0
LINE
8
DEFAULT_255_2_778
10
12.3018452
20
10.8009513
11
12.3018452
21
10.8009513
0
LINE
8
DEFAULT_255_2_778
10
2.4574452
20
1.4727513
11
2.6778452
21
1.1939513
0
LINE
8
DEFAULT_255_2_778
10
2.6529452
20
3.2629513
11
2.4521452
21
2.9896513
0
LINE
8
DEFAULT_255_2_778
10
2.4521452
20
2.9896513
11
2.4518452
21
2.9898513
0
LINE
8
DEFAULT_255_2_778
10
3.8430452
20
4.9144513
11
3.8430452
21
0.7554513
0
LINE
8
DEFAULT_255_2_778
10
3.8430452
20
0.7554513
11
3.0731452
21
0.7554513
0
LINE
8
DEFAULT_255_2_778
10
3.0731452
20
0.7554513
11
3.0731452
21
4.9144513
0
LINE
8
DEFAULT_255_2_778
10
3.0731452
20
4.9144513
11
3.8430452
21
4.9144513
0
LINE
8
DEFAULT_255_2_778
10
3.8430452
20
4.9144513
11
3.8430452
21
4.9144513
0
LINE
8
DEFAULT_255_2_778
10
5.2763452
20
3.6312513
11
5.2763452
21
0.7554513
0
LINE
8
DEFAULT_255_2_778
10
5.2763452
20
0.7554513
11
4.5063452
21
0.7554513
0
LINE
8
DEFAULT_255_2_778
10
4.5063452
20
0.7554513
11
4.5063452
21
3.6315513
0
LINE
8
DEFAULT_255_2_778
10
4.5063452
20
3.6315513
11
5.2763452
21
3.6315513
0
LINE
8
DEFAULT_255_2_778
10
5.2763452
20
3.6315513
11
5.2763452
21
3.6312513
0
LINE
8
DEFAULT_255_2_778
10
5.3684452
20
4.4485513
11
5.3684452
21
4.4485513
0
LINE
8
DEFAULT_255_2_778
10
5.9332452
20
-0.1734487
11
5.9332452
21
3.6312513
0
LINE
8
DEFAULT_255_2_778
10
5.9332452
20
3.6312513
11
6.4074452
21
3.6312513
0
LINE
8
DEFAULT_255_2_778
10
6.5997452
20
3.4973513
11
6.6582452
21
3.2547513
0
LINE
8
DEFAULT_255_2_778
10
6.7029452
20
0.9737513
11
6.7029452
21
-0.1726487
0
LINE
8
DEFAULT_255_2_778
10
6.7029452
20
-0.1726487
11
5.9332452
21
-0.1726487
0
LINE
8
DEFAULT_255_2_778
10
5.9332452
20
-0.1726487
11
5.9332452
21
-0.1734487
0
LINE
8
DEFAULT_255_2_778
10
6.7032452
20
2.7750513
11
6.7032452
21
1.5143513
0
LINE
8
DEFAULT_255_2_778
10
7.3056452
20
3.0872513
11
7.3056452
21
3.0875513
0
LINE
8
DEFAULT_255_2_778
10
9.1149452
20
0.7554513
11
9.1149452
21
4.9144513
0
LINE
8
DEFAULT_255_2_778
10
9.1149452
20
4.9144513
11
9.8848452
21
4.9144513
0
LINE
8
DEFAULT_255_2_778
10
9.8848452
20
4.9144513
11
9.8848452
21
3.2994513
0
LINE
8
DEFAULT_255_2_778
10
9.8403452
20
1.0729513
11
9.8097452
21
0.8999513
0
LINE
8
DEFAULT_255_2_778
10
9.6255452
20
0.7549513
11
9.1151452
21
0.7549513
0
LINE
8
DEFAULT_255_2_778
10
9.1151452
20
0.7549513
11
9.1149452
21
0.7554513
0
LINE
8
DEFAULT_255_2_778
10
9.8848452
20
2.7750513
11
9.8848452
21
1.5143513
0
LINE
8
DEFAULT_255_2_778
10
10.4568452
20
3.0872513
11
10.4566452
21
3.0875513
0
LINE
8
DEFAULT_255_2_778
10
13.5937452
20
3.6762513
11
13.5937452
21
3.6759513
0
LINE
8
DEFAULT_255_2_778
10
13.5940452
20
1.2910513
11
13.5937452
21
1.2910513
0
LINE
8
DEFAULT_255_2_778
10
17.1648452
20
0.9145513
11
17.1034452
21
1.0957513
0
LINE
8
DEFAULT_255_2_778
10
17.0254452
20
2.4146513
11
17.0254452
21
2.5625513
0
LINE
8
DEFAULT_255_2_778
10
15.5948452
20
2.9864513
11
15.4580452
21
3.2319513
0
LINE
8
DEFAULT_255_2_778
10
17.7757452
20
2.5623513
11
17.7757452
21
0.7549513
0
LINE
8
DEFAULT_255_2_778
10
17.7757452
20
0.7549513
11
17.4241452
21
0.7549513
0
LINE
8
DEFAULT_255_2_778
10
17.4241452
20
0.7549513
11
17.4244452
21
0.7554513
0
LINE
8
DEFAULT_255_2_778
10
17.0256452
20
1.5084513
11
17.0256452
21
1.9548513
0
LINE
8
DEFAULT_255_2_778
10
16.4121452
20
1.2296513
11
16.4118452
21
1.2296513
0
LINE
8
DEFAULT_255_2_778
10
18.3769452
20
0.7554513
11
18.3769452
21
3.6315513
0
LINE
8
DEFAULT_255_2_778
10
18.3769452
20
3.6315513
11
18.8314452
21
3.6315513
0
LINE
8
DEFAULT_255_2_778
10
19.0571452
20
3.4444513
11
19.0963452
21
3.1571513
0
LINE
8
DEFAULT_255_2_778
10
20.1504452
20
3.5950513
11
20.1001452
21
3.0258513
0
LINE
8
DEFAULT_255_2_778
10
19.1460452
20
2.5154513
11
19.1460452
21
0.7554513
0
LINE
8
DEFAULT_255_2_778
10
19.1460452
20
0.7554513
11
18.3761452
21
0.7554513
0
LINE
8
DEFAULT_255_2_778
10
18.3761452
20
0.7554513
11
18.3769452
21
0.7554513
0
LINE
8
DEFAULT_255_2_778
10
22.2974452
20
0.8893513
11
22.2334452
21
1.1404513
0
LINE
8
DEFAULT_255_2_778
10
22.1922452
20
3.4275513
11
22.1922452
21
4.9142513
0
LINE
8
DEFAULT_255_2_778
10
22.1922452
20
4.9142513
11
22.9621452
21
4.9142513
0
LINE
8
DEFAULT_255_2_778
10
22.9621452
20
4.9142513
11
22.9621452
21
0.7552513
0
LINE
8
DEFAULT_255_2_778
10
22.9621452
20
0.7552513
11
22.4880452
21
0.7552513
0
LINE
8
DEFAULT_255_2_778
10
22.4880452
20
0.7552513
11
22.4869452
21
0.7554513
0
LINE
8
DEFAULT_255_2_778
10
22.1911452
20
1.6201513
11
22.1911452
21
2.8837513
0
LINE
8
DEFAULT_255_2_778
10
21.5886452
20
1.3105513
11
21.5886452
21
1.3105513
0
LINE
8
DEFAULT_255_2_778
10
23.4870452
20
1.1600513
11
23.4870452
21
1.1600513
0
LINE
8
DEFAULT_255_2_778
10
25.7175452
20
3.6315513
11
25.7175452
21
0.6999513
0
LINE
8
DEFAULT_255_2_778
10
24.3900452
20
-0.1927487
11
24.4178452
21
0.2144513
0
LINE
8
DEFAULT_255_2_778
10
24.9478452
20
0.6999513
11
24.9478452
21
3.6315513
0
LINE
8
DEFAULT_255_2_778
10
24.9478452
20
3.6315513
11
25.7177452
21
3.6315513
0
LINE
8
DEFAULT_255_2_778
10
25.7177452
20
3.6315513
11
25.7175452
21
3.6315513
0
LINE
8
DEFAULT_255_2_778
10
25.8095452
20
4.4488513
11
25.8095452
21
4.4488513
0
LINE
8
DEFAULT_255_2_778
10
26.1702452
20
1.0647513
11
26.3487452
21
1.3521513
0
LINE
8
DEFAULT_255_2_778
10
28.3384452
20
3.3129513
11
28.1627452
21
3.0396513
0
LINE
8
DEFAULT_255_2_778
10
28.1627452
20
3.0396513
11
28.1625452
21
3.0401513
0
ENDSEC
0
EOF