0
SECTION
2
HEADER
9
$MEASUREMENT
70
1
0
ENDSEC
0
SECTION
2
TABLES
0
TABLE
2
LTYPE
0
LTYPE
72
65
70
64
2
CONTINUOUS
3
______
73
0
40
0
0
ENDTAB
0
TABLE
2
LAYER
0
LAYER
2
DEFAULT_255_2_778
70
0
62
255
6
CONTINUOUS
0
ENDTAB
0
ENDSEC
0
SECTION
2
ENTITIES
0
LINE
8
DEFAULT_255_2_778
10
0.2645337
20
6.3169229
11
26.7228337
21
6.3169229
0
LINE
8
DEFAULT_255_2_778
10
26.7228337
20
6.3169229
11
26.7228337
21
-0.1872771
0
LINE
8
DEFAULT_255_2_778
10
26.7228337
20
-0.1872771
11
0.2645337
21
-0.1872771
0
LINE
8
DEFAULT_255_2_778
10
0.2645337
20
-0.1872771
11
0.2645337
21
6.3169229
0
ARC
8
DEFAULT_255_2_778
10
2.6857736
20
3.6354754
40
0.3975422
50
180.006088
51
269.993915
0
ARC
8
DEFAULT_255_2_778
10
2.6857953
20
3.6354691
40
0.3975639
50
90.0092128
51
180.0051893
0
ARC
8
DEFAULT_255_2_778
10
2.6857604
20
3.6355382
40
0.3974949
50
29.9912615
51
90.0041854
0
ARC
8
DEFAULT_255_2_778
10
2.6859799
20
3.635545
40
0.3973014
50
359.9910704
51
30.0062264
0
ARC
8
DEFAULT_255_2_778
10
2.685981
20
3.6354207
40
0.3973003
50
329.9937494
51
0.0089998
0
ARC
8
DEFAULT_255_2_778
10
2.6857604
20
3.6354281
40
0.3974949
50
269.9958219
51
330.0087358
0
LINE
8
DEFAULT_255_2_778
10
3.1387314
20
4.3801331
11
4.2566314
21
5.4977331
0
LINE
8
DEFAULT_255_2_778
10
4.2566314
20
5.4977331
11
4.5762314
21
5.1781331
0
LINE
8
DEFAULT_255_2_778
10
4.5762314
20
5.1781331
11
3.4583314
21
4.0605331
0
LINE
8
DEFAULT_255_2_778
10
3.4583314
20
4.0605331
11
3.1387314
21
4.3801331
0
LINE
8
DEFAULT_255_2_778
10
2.6857314
20
3.2379331
11
2.6857314
21
3.2379331
0
LINE
8
DEFAULT_255_2_778
10
4.5817314
20
2.0835331
11
4.2621314
21
1.7636331
0
LINE
8
DEFAULT_255_2_778
10
4.2621314
20
1.7636331
11
3.1443314
21
2.8812331
0
LINE
8
DEFAULT_255_2_778
10
3.1443314
20
2.8812331
11
3.4639314
21
3.2011331
0
LINE
8
DEFAULT_255_2_778
10
3.4639314
20
3.2011331
11
4.5817314
21
2.0835331
0
ARC
8
DEFAULT_255_2_778
10
23.7796156
20
1.0839079
40
1.3217111
50
311.9835697
51
336.7875311
0
ARC
8
DEFAULT_255_2_778
10
23.8553151
20
1.014882
40
1.2198067
50
304.8433905
51
311.5092712
0
ARC
8
DEFAULT_255_2_778
10
23.9221325
20
0.9002451
40
1.0875994
50
270.0091002
51
305.4048699
0
ARC
8
DEFAULT_255_2_778
10
23.9223388
20
0.903859
40
1.0912134
50
269.6479366
51
269.998239
0
ARC
8
DEFAULT_255_2_778
10
23.915554
20
1.0811822
40
1.268516
50
230.360136
51
270.0035981
0
ARC
8
DEFAULT_255_2_778
10
24.1362666
20
1.3957743
40
1.6518654
50
228.0224418
51
231.426193
0
ARC
8
DEFAULT_255_2_778
10
23.9980074
20
1.4211107
40
0.8970781
50
225.856803
51
243.9737698
0
ARC
8
DEFAULT_255_2_778
10
23.8618799
20
1.1489764
40
0.5928171
50
244.2555477
51
269.7249139
0
ARC
8
DEFAULT_255_2_778
10
23.8745862
20
1.073376
40
0.5174437
50
268.2776359
51
319.4625507
0
ARC
8
DEFAULT_255_2_778
10
23.8277507
20
1.1423744
40
0.5982874
50
317.3555024
51
354.5695385
0
ARC
8
DEFAULT_255_2_778
10
23.855588
20
1.1320061
40
0.5696457
50
355.3427676
51
0.0161026
0
ARC
8
DEFAULT_255_2_778
10
24.3038223
20
1.1184887
40
0.1221793
50
6.427494
51
18.6202273
0
ARC
8
DEFAULT_255_2_778
10
23.2829157
20
0.820321
40
1.1856455
50
16.5220396
51
18.9786907
0
ARC
8
DEFAULT_255_2_778
10
19.7045324
20
-0.4024756
40
4.9671856
50
18.893052
51
20.2207605
0
ARC
8
DEFAULT_255_2_778
10
10.8375238
20
-3.6469981
40
14.4091464
50
20.140353
51
20.7304521
0
ARC
8
DEFAULT_255_2_778
10
-4.7259588
20
-9.5292773
40
31.0471502
50
20.7164274
51
21.0901641
0
ARC
8
DEFAULT_255_2_778
10
-30.1824201
20
-19.3393957
40
58.3284593
50
21.0831143
51
21.3329051
0
ARC
8
DEFAULT_255_2_778
10
-64.9753863
20
-32.918032
40
95.6772185
50
21.3275509
51
21.4846668
0
ARC
8
DEFAULT_255_2_778
10
-105.5949039
20
-48.8999208
40
139.3277162
50
21.4823675
51
21.5893239
0
ARC
8
DEFAULT_255_2_778
10
-161.1857467
20
-70.9013435
40
199.1140389
50
21.5902422
51
21.7009113
0
ARC
8
DEFAULT_255_2_778
10
-242.231436
20
-103.1508326
40
286.3403727
50
21.7001674
51
21.7883773
0
ARC
8
DEFAULT_255_2_778
10
-334.9090981
20
-140.1893321
40
386.1451796
50
21.7872593
51
21.8462499
0
ARC
8
DEFAULT_255_2_778
10
-440.7678726
20
-182.6295829
40
500.194533
50
21.8463147
51
21.9021702
0
ARC
8
DEFAULT_255_2_778
10
-561.9671035
20
-231.3509944
40
630.8200645
50
21.9016899
51
21.9415625
0
ARC
8
DEFAULT_255_2_778
10
-689.592022
20
-282.7622818
40
768.4109083
50
21.9414814
51
21.9764273
0
ARC
8
DEFAULT_255_2_778
10
22.2163502
20
5.1032484
40
0.5441873
50
88.5696916
51
115.9125703
0
ARC
8
DEFAULT_255_2_778
10
22.1702009
20
5.2188669
40
0.4201224
50
117.1422029
51
138.6059319
0
ARC
8
DEFAULT_255_2_778
10
22.2668584
20
5.1441015
40
0.5421267
50
139.4330453
51
174.3058615
0
ARC
8
DEFAULT_255_2_778
10
22.5602761
20
5.0938281
40
0.8393453
50
172.878141
51
180.1475828
0
ARC
8
DEFAULT_255_2_778
10
22.4784444
20
5.0845745
40
1.5081694
50
165.5556716
51
180.505595
0
ARC
8
DEFAULT_255_2_778
10
22.0666684
20
5.1923489
40
1.0825275
50
134.4392598
51
165.6432461
0
ARC
8
DEFAULT_255_2_778
10
22.1067994
20
5.1719287
40
1.1252969
50
89.0358933
51
135.1702318
0
ARC
8
DEFAULT_255_2_778
10
22.1234789
20
5.0546633
40
1.2424048
50
52.4386645
51
89.8960177
0
ARC
8
DEFAULT_255_2_778
10
21.8988513
20
4.7171883
40
1.6470895
50
48.0391011
51
53.401091
0
ARC
8
DEFAULT_255_2_778
10
22.0574154
20
4.8327012
40
0.8597702
50
42.4378966
51
59.9582345
0
ARC
8
DEFAULT_255_2_778
10
22.2257228
20
5.1235431
40
0.52374
50
59.9683673
51
89.5393336
0
ARC
8
DEFAULT_255_2_778
10
19.3507615
20
5.8253534
40
0.4594153
50
270.0001826
51
270.6325902
0
ARC
8
DEFAULT_255_2_778
10
19.3509014
20
5.8238559
40
0.4579179
50
223.8251508
51
269.9826764
0
ARC
8
DEFAULT_255_2_778
10
19.3373931
20
5.8368927
40
0.4575843
50
179.4022826
51
226.1747444
0
ARC
8
DEFAULT_255_2_778
10
19.3379389
20
5.846309
40
0.4581287
50
133.8545267
51
180.5806619
0
ARC
8
DEFAULT_255_2_778
10
19.3502781
20
5.8600811
40
0.4571187
50
89.3036354
51
136.1663851
0
ARC
8
DEFAULT_255_2_778
10
19.3611223
20
5.861057
40
0.4561398
50
43.7295728
51
90.66432
0
ARC
8
DEFAULT_255_2_778
10
19.373778
20
5.8460626
40
0.4577787
50
359.4246955
51
46.1813905
0
ARC
8
DEFAULT_255_2_778
10
19.3737182
20
5.8367963
40
0.4578393
50
313.8217015
51
0.5844085
0
ARC
8
DEFAULT_255_2_778
10
19.3606346
20
5.8232637
40
0.4575217
50
269.9901813
51
316.1779608
0
ARC
8
DEFAULT_255_2_778
10
19.360538
20
5.8229871
40
0.4572452
50
269.4105067
51
270.0022705
0
ARC
8
DEFAULT_255_2_778
10
13.2390907
20
2.9713696
40
1.1087234
50
270.3432918
51
298.0485221
0
ARC
8
DEFAULT_255_2_778
10
13.1408386
20
3.1504973
40
1.9712706
50
269.9989476
51
303.8659885
0
ARC
8
DEFAULT_255_2_778
10
13.1407724
20
3.1426693
40
1.9634426
50
269.6370217
51
270.0008768
0
ARC
8
DEFAULT_255_2_778
10
13.1131343
20
3.0573553
40
1.8781507
50
250.1902152
51
270.4636847
0
ARC
8
DEFAULT_255_2_778
10
13.1142299
20
3.0020498
40
1.8265962
50
226.1465131
51
249.5699506
0
ARC
8
DEFAULT_255_2_778
10
12.9918258
20
2.9040845
40
1.6712728
50
186.5906359
51
226.845736
0
ARC
8
DEFAULT_255_2_778
10
13.5603445
20
3.0028929
40
2.2476161
50
179.8757727
51
187.4294446
0
ARC
8
DEFAULT_255_2_778
10
13.3305515
20
3.0214225
40
2.017864
50
165.624487
51
180.3877656
0
ARC
8
DEFAULT_255_2_778
10
12.9814107
20
3.1037351
40
1.6592336
50
131.9597267
51
165.3845656
0
ARC
8
DEFAULT_255_2_778
10
13.1737233
20
2.9305525
40
1.9167898
50
92.9608467
51
132.773257
0
ARC
8
DEFAULT_255_2_778
10
13.2342581
20
2.4383089
40
2.4117575
50
89.9720702
51
93.7930278
0
ARC
8
DEFAULT_255_2_778
10
13.2496216
20
2.8605089
40
1.9896078
50
72.6728947
51
90.4085812
0
ARC
8
DEFAULT_255_2_778
10
13.3006479
20
3.0567353
40
1.7871156
50
59.3675942
51
72.3609214
0
ARC
8
DEFAULT_255_2_778
10
13.2129836
20
2.9834498
40
1.1699492
50
66.7596004
51
89.5714771
0
ARC
8
DEFAULT_255_2_778
10
13.2045404
20
2.9747649
40
1.1787266
50
89.1642363
51
89.999035
0
ARC
8
DEFAULT_255_2_778
10
13.2046572
20
2.9786663
40
1.1748253
50
90.0047263
51
132.7069285
0
ARC
8
DEFAULT_255_2_778
10
13.0898384
20
3.074535
40
1.0266845
50
131.6270163
51
180.3213985
0
ARC
8
DEFAULT_255_2_778
10
13.4477003
20
3.0382622
40
1.3848664
50
178.737464
51
180.0039742
0
ARC
8
DEFAULT_255_2_778
10
13.1979945
20
3.0161609
40
1.1353741
50
178.889454
51
225.6578054
0
ARC
8
DEFAULT_255_2_778
10
13.2195967
20
3.0043509
40
1.1422725
50
224.4687414
51
271.2860441
0
ARC
8
DEFAULT_255_2_778
10
8.8193653
20
3.2478123
40
2.0685933
50
254.8565259
51
270.3868993
0
ARC
8
DEFAULT_255_2_778
10
8.751842
20
2.958449
40
1.7716694
50
224.7318637
51
254.5197389
0
ARC
8
DEFAULT_255_2_778
10
8.7065182
20
2.9681637
40
1.7467389
50
185.0595702
51
226.0046631
0
ARC
8
DEFAULT_255_2_778
10
9.0489061
20
3.0127524
40
2.0917733
50
179.9475818
51
185.449055
0
ARC
8
DEFAULT_255_2_778
10
8.849977
20
3.0292144
40
1.8928992
50
162.0692987
51
180.440361
0
ARC
8
DEFAULT_255_2_778
10
8.7177637
20
3.0530761
40
1.7598534
50
134.9808395
51
161.4832192
0
ARC
8
DEFAULT_255_2_778
10
8.950648
20
2.8489047
40
2.0689924
50
134.7817199
51
135.5459551
0
ARC
8
DEFAULT_255_2_778
10
8.7639189
20
3.0552331
40
1.7910536
50
94.4655907
51
135.1911914
0
ARC
8
DEFAULT_255_2_778
10
8.8311741
20
2.5770017
40
2.2732654
50
89.9455678
51
95.2170929
0
ARC
8
DEFAULT_255_2_778
10
8.8473163
20
2.7828455
40
2.0674679
50
74.849759
51
90.3875044
0
ARC
8
DEFAULT_255_2_778
10
8.9149578
20
3.0725243
40
1.7702096
50
44.690248
51
74.5125824
0
ARC
8
DEFAULT_255_2_778
10
8.9584845
20
3.0600541
40
1.7484812
50
5.0858533
51
45.983958
0
ARC
8
DEFAULT_255_2_778
10
8.6211677
20
3.0165801
40
2.0883669
50
359.947489
51
5.4535022
0
ARC
8
DEFAULT_255_2_778
10
8.8186536
20
2.9999832
40
1.8909371
50
341.8892213
51
0.444902
0
ARC
8
DEFAULT_255_2_778
10
8.9461737
20
2.9774349
40
1.7628197
50
315.004039
51
341.2973712
0
ARC
8
DEFAULT_255_2_778
10
8.7134973
20
3.1814223
40
2.0716881
50
314.8060082
51
315.5644925
0
ARC
8
DEFAULT_255_2_778
10
8.9052231
20
2.9706236
40
1.7870601
50
274.7807109
51
315.2075113
0
ARC
8
DEFAULT_255_2_778
10
8.8357627
20
3.4524122
40
2.2731474
50
269.9387763
51
275.5133363
0
ARC
8
DEFAULT_255_2_778
10
8.872532
20
3.1078774
40
1.0719964
50
44.2171637
51
89.4626004
0
ARC
8
DEFAULT_255_2_778
10
8.8335477
20
2.7474785
40
1.4331875
50
88.0391509
51
90.0085563
0
ARC
8
DEFAULT_255_2_778
10
8.8190285
20
2.9894776
40
1.1912744
50
89.311958
51
110.6192198
0
ARC
8
DEFAULT_255_2_778
10
8.7798451
20
3.1293032
40
1.0466825
50
111.3071572
51
136.070259
0
ARC
8
DEFAULT_255_2_778
10
8.818437
20
3.0840933
40
1.1058567
50
135.7704949
51
174.4933536
0
ARC
8
DEFAULT_255_2_778
10
9.2261269
20
3.0175267
40
1.5182956
50
173.4692324
51
180.1003993
0
ARC
8
DEFAULT_255_2_778
10
9.0588528
20
3.0012728
40
1.3510875
50
179.4235364
51
196.9698782
0
ARC
8
DEFAULT_255_2_778
10
8.7868735
20
2.9247791
40
1.0686426
50
197.3033273
51
224.6046956
0
ARC
8
DEFAULT_255_2_778
10
8.7945174
20
2.9223786
40
1.0724225
50
224.226608
51
269.442482
0
ARC
8
DEFAULT_255_2_778
10
8.8331189
20
3.2794927
40
1.4303266
50
268.0353173
51
270.0086036
0
ARC
8
DEFAULT_255_2_778
10
8.8476239
20
3.0405645
40
1.1914841
50
269.312799
51
290.6173623
0
ARC
8
DEFAULT_255_2_778
10
8.8863667
20
2.901784
40
1.0480255
50
291.3065926
51
316.0457159
0
ARC
8
DEFAULT_255_2_778
10
8.8505642
20
2.944574
40
1.1035153
50
315.736559
51
354.632121
0
ARC
8
DEFAULT_255_2_778
10
8.432773
20
3.0122096
40
1.526063
50
353.5712461
51
0.0997382
0
ARC
8
DEFAULT_255_2_778
10
8.6076249
20
3.0285511
40
1.3512781
50
359.4197305
51
16.9664774
0
ARC
8
DEFAULT_255_2_778
10
8.8777455
20
3.1041614
40
1.0708699
50
17.3145279
51
44.5541927
0
ARC
8
DEFAULT_255_2_778
10
2.6968537
20
3.6051279
40
1.6887618
50
270.0162854
51
292.1742368
0
ARC
8
DEFAULT_255_2_778
10
2.6995359
20
3.6058124
40
2.4183471
50
269.989438
51
299.2185601
0
LINE
8
DEFAULT_255_2_778
10
2.6990901
20
1.1874655
11
2.6973337
21
1.1874661
0
ARC
8
DEFAULT_255_2_778
10
2.6943785
20
3.6142503
40
2.4267859
50
248.5531741
51
270.0697718
0
ARC
8
DEFAULT_255_2_778
10
2.7001426
20
3.6223713
40
2.4364535
50
190.6383449
51
248.4968389
0
ARC
8
DEFAULT_255_2_778
10
2.7097552
20
3.6186594
40
2.4452217
50
179.9740664
51
190.5112819
0
ARC
8
DEFAULT_255_2_778
10
2.689996
20
3.6227147
40
2.425464
50
158.5445862
51
180.0696536
0
ARC
8
DEFAULT_255_2_778
10
2.6994814
20
3.6161923
40
2.4366793
50
100.631445
51
158.4834284
0
ARC
8
DEFAULT_255_2_778
10
2.6960312
20
3.6060361
40
2.4460303
50
89.974175
51
100.5081257
0
ARC
8
DEFAULT_255_2_778
10
2.6993479
20
4.4957381
40
1.5563296
50
89.9728388
51
90.0815152
0
ARC
8
DEFAULT_255_2_778
10
2.7001347
20
3.6331986
40
2.4188693
50
61.091828
51
90.0011621
0
ARC
8
DEFAULT_255_2_778
10
2.696648
20
3.6459735
40
1.6916928
50
67.9171869
51
89.9767774
0
ARC
8
DEFAULT_255_2_778
10
2.6949141
20
3.6477074
40
1.6899604
50
89.9179674
51
117.5718635
0
ARC
8
DEFAULT_255_2_778
10
2.7063484
20
3.6283509
40
1.7124115
50
117.6112226
51
169.8805578
0
ARC
8
DEFAULT_255_2_778
10
2.7232865
20
3.6274079
40
1.7292529
50
169.9484025
51
180.0245757
0
ARC
8
DEFAULT_255_2_778
10
2.7038044
20
3.6239753
40
1.7097728
50
179.9098289
51
206.6547378
0
ARC
8
DEFAULT_255_2_778
10
2.7004523
20
3.6205743
40
1.7052519
50
206.6031361
51
262.1500477
0
ARC
8
DEFAULT_255_2_778
10
2.6968828
20
3.6271515
40
1.7112855
50
262.2985152
51
270.0150971
0
LINE
8
DEFAULT_255_2_778
10
23.0314337
20
0.1677661
11
23.3732337
21
0.7773661
0
LINE
8
DEFAULT_255_2_778
10
22.9845337
20
4.7963661
11
23.7883337
21
4.7963661
0
LINE
8
DEFAULT_255_2_778
10
23.7883337
20
4.7963661
11
24.8536337
21
2.1706661
0
LINE
8
DEFAULT_255_2_778
10
24.8536337
20
2.1706661
11
25.9190337
21
4.7963661
0
LINE
8
DEFAULT_255_2_778
10
25.9190337
20
4.7963661
11
26.7228337
21
4.7963661
0
LINE
8
DEFAULT_255_2_778
10
26.7228337
20
4.7963661
11
24.9943337
21
0.5629661
0
LINE
8
DEFAULT_255_2_778
10
21.7209337
20
5.0916661
11
21.7209337
21
4.7965661
0
LINE
8
DEFAULT_255_2_778
10
21.7209337
20
4.7965661
11
22.6588337
21
4.7965661
0
LINE
8
DEFAULT_255_2_778
10
22.6588337
20
4.7965661
11
22.6588337
21
4.1936661
0
LINE
8
DEFAULT_255_2_778
10
22.6588337
20
4.1936661
11
21.7204337
21
4.1936661
0
LINE
8
DEFAULT_255_2_778
10
21.7204337
20
4.1936661
11
21.7204337
21
1.2326661
0
LINE
8
DEFAULT_255_2_778
10
21.7204337
20
1.2326661
11
20.9700337
21
1.2326661
0
LINE
8
DEFAULT_255_2_778
10
20.9700337
20
1.2326661
11
20.9700337
21
4.1936661
0
LINE
8
DEFAULT_255_2_778
10
20.9700337
20
4.1936661
11
20.5215337
21
4.1936661
0
LINE
8
DEFAULT_255_2_778
10
20.5215337
20
4.1936661
11
20.5215337
21
4.7963661
0
LINE
8
DEFAULT_255_2_778
10
20.5215337
20
4.7963661
11
20.9703337
21
4.7963661
0
LINE
8
DEFAULT_255_2_778
10
20.9703337
20
4.7963661
11
20.9703337
21
5.0712661
0
LINE
8
DEFAULT_255_2_778
10
23.0001337
20
5.9419661
11
22.6919337
21
5.4128661
0
LINE
8
DEFAULT_255_2_778
10
22.2299337
20
5.6472661
11
22.2299337
21
5.6472661
0
LINE
8
DEFAULT_255_2_778
10
19.3558337
20
5.3657661
11
19.3558337
21
5.3659661
0
LINE
8
DEFAULT_255_2_778
10
17.4087337
20
1.2326661
11
16.3504337
21
2.7936661
0
LINE
8
DEFAULT_255_2_778
10
16.3504337
20
2.7936661
11
15.8074337
21
2.2444661
0
LINE
8
DEFAULT_255_2_778
10
15.8074337
20
2.2444661
11
15.8074337
21
1.2326661
0
LINE
8
DEFAULT_255_2_778
10
15.8074337
20
1.2326661
11
15.0571337
21
1.2326661
0
LINE
8
DEFAULT_255_2_778
10
15.0571337
20
1.2326661
11
15.0571337
21
6.2033661
0
LINE
8
DEFAULT_255_2_778
10
15.0571337
20
6.2033661
11
15.8074337
21
6.2033661
0
LINE
8
DEFAULT_255_2_778
10
15.8074337
20
6.2033661
11
15.8074337
21
3.2826661
0
LINE
8
DEFAULT_255_2_778
10
15.8074337
20
3.2826661
11
17.2547337
21
4.7963661
0
LINE
8
DEFAULT_255_2_778
10
17.2547337
20
4.7963661
11
18.2194337
21
4.7963661
0
LINE
8
DEFAULT_255_2_778
10
18.2194337
20
4.7963661
11
16.8660337
21
3.3831661
0
LINE
8
DEFAULT_255_2_778
10
16.8660337
20
3.3831661
11
18.3199337
21
1.2326661
0
LINE
8
DEFAULT_255_2_778
10
18.3199337
20
1.2326661
11
17.4087337
21
1.2326661
0
LINE
8
DEFAULT_255_2_778
10
13.7604337
20
1.9928661
11
14.2393337
21
1.5136661
0
LINE
8
DEFAULT_255_2_778
10
14.2112337
20
4.5944661
11
13.6746337
21
4.0584661
0
LINE
8
DEFAULT_255_2_778
10
13.2452337
20
1.8623661
11
13.2457337
21
1.8626661
0
LINE
8
DEFAULT_255_2_778
10
8.8333337
20
1.1792661
11
8.8333337
21
1.1792661
0
LINE
8
DEFAULT_255_2_778
10
9.6408337
20
3.8554661
11
9.6408337
21
3.8554661
0
LINE
8
DEFAULT_255_2_778
10
5.4265337
20
6.2033661
11
6.1769337
21
6.2033661
0
LINE
8
DEFAULT_255_2_778
10
6.1769337
20
6.2033661
11
6.1769337
21
1.2326661
0
LINE
8
DEFAULT_255_2_778
10
6.1769337
20
1.2326661
11
5.4265337
21
1.2326661
0
LINE
8
DEFAULT_255_2_778
10
5.4265337
20
1.2326661
11
5.4265337
21
6.2033661
0
LINE
8
DEFAULT_255_2_778
10
3.3342337
20
2.0412661
11
3.8800337
21
1.4951661
0
LINE
8
DEFAULT_255_2_778
10
3.8694337
20
5.7506661
11
3.3326337
21
5.2135661
0
LINE
8
DEFAULT_255_2_778
10
2.6973337
20
1.9158661
11
2.6973337
21
1.9163661
0
LINE
8
DEFAULT_255_2_778
10
19.7246337
20
1.2323661
11
18.9742337
21
1.2323661
0
LINE
8
DEFAULT_255_2_778
10
18.9742337
20
1.2323661
11
18.9742337
21
4.7963661
0
LINE
8
DEFAULT_255_2_778
10
18.9742337
20
4.7963661
11
19.7246337
21
4.7963661
0
LINE
8
DEFAULT_255_2_778
10
19.7246337
20
4.7963661
11
19.7246337
21
1.2323661
0
ENDSEC
0
EOF