0
SECTION
2
HEADER
9
$MEASUREMENT
70
1
0
ENDSEC
0
SECTION
2
TABLES
0
TABLE
2
LTYPE
0
LTYPE
72
65
70
64
2
CONTINUOUS
3
______
73
0
40
0
0
ENDTAB
0
TABLE
2
LAYER
0
LAYER
2
DEFAULT_255_2_778
70
0
62
255
6
CONTINUOUS
0
ENDTAB
0
ENDSEC
0
SECTION
2
ENTITIES
0
ARC
8
DEFAULT_255_2_778
10
13.7751039
20
8.3288455
40
0.531808
50
30.6279339
51
89.9921359
0
ARC
8
DEFAULT_255_2_778
10
13.7751765
20
8.3269865
40
0.5336671
50
89.9999652
51
91.8314029
0
ARC
8
DEFAULT_255_2_778
10
13.7478165
20
8.3187035
40
0.5417754
50
88.9101475
51
131.5964047
0
ARC
8
DEFAULT_255_2_778
10
13.7654039
20
8.3187129
40
0.5536007
50
132.9584263
51
172.8851052
0
ARC
8
DEFAULT_255_2_778
10
13.9073191
20
8.2890452
40
0.6981986
50
171.9116546
51
180.0791311
0
ARC
8
DEFAULT_255_2_778
10
13.8529388
20
8.279212
40
0.6438786
50
179.2107785
51
203.0199915
0
ARC
8
DEFAULT_255_2_778
10
13.741846
20
8.2430958
40
0.5276077
50
204.128041
51
271.908952
0
ARC
8
DEFAULT_255_2_778
10
13.7700591
20
8.2759432
40
0.5602633
50
268.9120501
51
270.0003844
0
ARC
8
DEFAULT_255_2_778
10
13.7704606
20
8.2720038
40
0.5563241
50
269.95904
51
327.7426543
0
ARC
8
DEFAULT_255_2_778
10
13.8232715
20
8.2468852
40
0.9750538
50
282.958983
51
326.0098366
0
ARC
8
DEFAULT_255_2_778
10
13.7672816
20
8.4484988
40
1.1841253
50
269.798695
51
283.4114659
0
ARC
8
DEFAULT_255_2_778
10
13.7538313
20
8.4399373
40
1.1755932
50
249.3433712
51
270.4527764
0
ARC
8
DEFAULT_255_2_778
10
13.6781783
20
8.2392327
40
0.9611037
50
186.8658647
51
249.3426277
0
ARC
8
DEFAULT_255_2_778
10
13.8939985
20
8.2869532
40
1.1812781
50
179.9307509
51
187.9125196
0
ARC
8
DEFAULT_255_2_778
10
13.8009973
20
8.2977176
40
1.0883161
50
157.0560629
51
180.4915521
0
ARC
8
DEFAULT_255_2_778
10
13.6824204
20
8.3377147
40
0.9635738
50
103.2275231
51
156.4975846
0
ARC
8
DEFAULT_255_2_778
10
13.7584317
20
8.0919392
40
1.2203507
50
89.779822
51
104.0612324
0
ARC
8
DEFAULT_255_2_778
10
13.7730156
20
8.1946745
40
1.1176502
50
63.651095
51
90.5072332
0
ARC
8
DEFAULT_255_2_778
10
13.864628
20
8.3816931
40
0.9094008
50
30.0718572
51
63.5936955
0
ARC
8
DEFAULT_255_2_778
10
21.9562264
20
8.2776183
40
1.0879452
50
339.6776574
51
0.5510096
0
ARC
8
DEFAULT_255_2_778
10
22.1344519
20
8.2206143
40
0.9010555
50
284.7053445
51
339.140834
0
ARC
8
DEFAULT_255_2_778
10
22.016642
20
8.5780607
40
1.2769102
50
269.6042067
51
285.7470217
0
ARC
8
DEFAULT_255_2_778
10
22.0160962
20
8.0061623
40
1.2664611
50
72.8567764
51
90.4693733
0
ARC
8
DEFAULT_255_2_778
10
22.1250283
20
8.3365209
40
0.9186954
50
37.1253906
51
73.2756018
0
ARC
8
DEFAULT_255_2_778
10
22.0922196
20
8.332259
40
0.9475685
50
7.6371068
51
36.1334542
0
ARC
8
DEFAULT_255_2_778
10
21.8516283
20
8.287806
40
1.1919947
50
359.8978498
51
8.2179836
0
ARC
8
DEFAULT_255_2_778
10
22.0093219
20
8.4095623
40
0.6729602
50
269.1229724
51
289.2804438
0
ARC
8
DEFAULT_255_2_778
10
22.0620867
20
8.2258744
40
0.4822743
50
290.5692011
51
358.1520002
0
ARC
8
DEFAULT_255_2_778
10
21.7505972
20
8.287164
40
0.7972247
50
354.4688517
51
0.0658982
0
ARC
8
DEFAULT_255_2_778
10
21.9169419
20
8.3030542
40
0.631057
50
358.6403941
51
27.0483077
0
ARC
8
DEFAULT_255_2_778
10
22.0779695
20
8.372951
40
0.4559891
50
28.427369
51
76.0222918
0
ARC
8
DEFAULT_255_2_778
10
22.0058185
20
8.1284785
40
0.7107349
50
75.1384202
51
90.5479628
0
ARC
8
DEFAULT_255_2_778
10
19.4816032
20
5.4595227
40
0.5611175
50
320.6008357
51
1.5275664
0
ARC
8
DEFAULT_255_2_778
10
19.4555825
20
5.5048599
40
0.6102823
50
288.5759041
51
318.8620091
0
ARC
8
DEFAULT_255_2_778
10
19.3480351
20
5.7804391
40
0.9058756
50
278.6976124
51
289.471277
0
ARC
8
DEFAULT_255_2_778
10
19.3004943
20
4.9211846
40
1.1849481
50
77.2373297
51
90.5354201
0
ARC
8
DEFAULT_255_2_778
10
19.4111656
20
5.3878258
40
0.7054037
50
54.6748927
51
77.6312597
0
ARC
8
DEFAULT_255_2_778
10
19.4863755
20
5.5171553
40
0.55656
50
2.5663682
51
53.293447
0
ARC
8
DEFAULT_255_2_778
10
19.2237563
20
5.4749895
40
0.8213653
50
359.9505709
51
4.6849721
0
ARC
8
DEFAULT_255_2_778
10
19.2931502
20
5.678056
40
0.4108786
50
268.1968026
51
291.4861189
0
ARC
8
DEFAULT_255_2_778
10
19.3770196
20
5.4630184
40
0.1800668
50
291.7158758
51
3.6497339
0
ARC
8
DEFAULT_255_2_778
10
19.3676814
20
5.4811706
40
0.1891582
50
357.9732539
51
86.0200126
0
ARC
8
DEFAULT_255_2_778
10
19.2847616
20
5.1576801
40
0.5211205
50
79.3789584
51
90.499199
0
ARC
8
DEFAULT_255_2_778
10
26.3871854
20
5.1414903
40
0.5566995
50
43.5119106
51
89.850171
0
ARC
8
DEFAULT_255_2_778
10
26.3886376
20
5.1553745
40
0.5428133
50
89.9996282
51
92.2189001
0
ARC
8
DEFAULT_255_2_778
10
26.3571566
20
5.1594736
40
0.538409
50
88.8863154
51
131.294698
0
ARC
8
DEFAULT_255_2_778
10
26.380486
20
5.1537928
40
0.558243
50
132.7090658
51
171.9342949
0
ARC
8
DEFAULT_255_2_778
10
26.5362255
20
5.1191828
40
0.7174055
50
170.9426338
51
180.1039793
0
ARC
8
DEFAULT_255_2_778
10
26.5058683
20
5.1089626
40
0.6871049
50
179.2563116
51
201.9215845
0
ARC
8
DEFAULT_255_2_778
10
26.356441
20
5.052402
40
0.5273761
50
202.2818097
51
271.3886214
0
ARC
8
DEFAULT_255_2_778
10
26.3817118
20
5.2259021
40
0.7008326
50
268.9787982
51
287.4034542
0
ARC
8
DEFAULT_255_2_778
10
26.465075
20
4.9497334
40
0.4123837
50
287.8278535
51
350.6000552
0
ARC
8
DEFAULT_255_2_778
10
26.3721054
20
5.106998
40
0.9780981
50
1.2301798
51
8.1927637
0
ARC
8
DEFAULT_255_2_778
10
26.3125508
20
5.1046621
40
1.0376897
50
359.9982635
51
1.2885314
0
ARC
8
DEFAULT_255_2_778
10
26.3004241
20
5.1046301
40
1.0498165
50
359.6534755
51
0.00003
0
ARC
8
DEFAULT_255_2_778
10
26.2140499
20
5.0899057
40
1.1362022
50
341.9074784
51
0.422343
0
ARC
8
DEFAULT_255_2_778
10
26.4111185
20
5.0254951
40
0.9288745
50
310.2202036
51
341.9090699
0
ARC
8
DEFAULT_255_2_778
10
26.3901164
20
5.0671159
40
0.9742767
50
269.4710032
51
309.5827583
0
ARC
8
DEFAULT_255_2_778
10
26.3716965
20
5.2474111
40
1.1545687
50
245.0375091
51
270.4677146
0
ARC
8
DEFAULT_255_2_778
10
26.2901516
20
5.0732545
40
0.9622671
50
191.295849
51
245.063046
0
ARC
8
DEFAULT_255_2_778
10
26.4531393
20
5.1125888
40
1.1298217
50
179.8533342
51
191.6329371
0
ARC
8
DEFAULT_255_2_778
10
26.3981792
20
5.1245638
40
1.0748963
50
156.6041151
51
180.4841587
0
ARC
8
DEFAULT_255_2_778
10
26.297881
20
5.1564199
40
0.9702527
50
104.5875545
51
155.9787569
0
ARC
8
DEFAULT_255_2_778
10
26.3800166
20
4.9059283
40
1.2334652
50
89.7396568
51
105.3493425
0
ARC
8
DEFAULT_255_2_778
10
26.3873083
20
5.2357856
40
0.9035969
50
89.9643713
51
90.106974
0
ARC
8
DEFAULT_255_2_778
10
26.3978556
20
4.9465937
40
1.1928308
50
73.9382574
51
90.479639
0
ARC
8
DEFAULT_255_2_778
10
26.476573
20
5.2189467
40
0.9093303
50
44.2686663
51
73.9566432
0
ARC
8
DEFAULT_255_2_778
10
13.7751039
20
1.9902455
40
0.531808
50
30.6279339
51
89.9921359
0
ARC
8
DEFAULT_255_2_778
10
13.7751765
20
1.9883865
40
0.5336671
50
89.9999652
51
91.8314029
0
ARC
8
DEFAULT_255_2_778
10
13.7478165
20
1.9801035
40
0.5417754
50
88.9101475
51
131.5964047
0
ARC
8
DEFAULT_255_2_778
10
13.7654039
20
1.9801129
40
0.5536007
50
132.9584263
51
172.8851052
0
ARC
8
DEFAULT_255_2_778
10
13.9073191
20
1.9504452
40
0.6981986
50
171.9116546
51
180.0791311
0
ARC
8
DEFAULT_255_2_778
10
13.8529388
20
1.940612
40
0.6438786
50
179.2107785
51
203.0199915
0
ARC
8
DEFAULT_255_2_778
10
13.741846
20
1.9044958
40
0.5276077
50
204.128041
51
271.908952
0
ARC
8
DEFAULT_255_2_778
10
13.7700493
20
1.9374165
40
0.5603364
50
268.9131974
51
269.9993071
0
ARC
8
DEFAULT_255_2_778
10
13.7702014
20
1.9338748
40
0.5567948
50
269.983649
51
327.7159006
0
ARC
8
DEFAULT_255_2_778
10
13.8232715
20
1.9079852
40
0.9750538
50
282.958983
51
326.0098366
0
ARC
8
DEFAULT_255_2_778
10
13.7672816
20
2.1095988
40
1.1841253
50
269.798695
51
283.4114659
0
ARC
8
DEFAULT_255_2_778
10
13.7538313
20
2.1010373
40
1.1755932
50
249.3433712
51
270.4527764
0
ARC
8
DEFAULT_255_2_778
10
13.6781783
20
1.9003327
40
0.9611037
50
186.8658647
51
249.3426277
0
ARC
8
DEFAULT_255_2_778
10
13.8939985
20
1.9480532
40
1.1812781
50
179.9307509
51
187.9125196
0
ARC
8
DEFAULT_255_2_778
10
13.8009973
20
1.9588176
40
1.0883161
50
157.0560629
51
180.4915521
0
ARC
8
DEFAULT_255_2_778
10
13.6824204
20
1.9988147
40
0.9635738
50
103.2275231
51
156.4975846
0
ARC
8
DEFAULT_255_2_778
10
13.7584317
20
1.7530392
40
1.2203507
50
89.779822
51
104.0612324
0
ARC
8
DEFAULT_255_2_778
10
13.7730156
20
1.8557745
40
1.1176502
50
63.651095
51
90.5072332
0
ARC
8
DEFAULT_255_2_778
10
13.864628
20
2.0427931
40
0.9094008
50
30.0718572
51
63.5936955
0
ARC
8
DEFAULT_255_2_778
10
15.7439747
20
1.9407325
40
1.0637842
50
334.587441
51
0.4819674
0
ARC
8
DEFAULT_255_2_778
10
15.8278308
20
1.911804
40
0.9756774
50
284.6369918
51
334.0086443
0
ARC
8
DEFAULT_255_2_778
10
15.7599859
20
2.1229135
40
1.1971427
50
269.7671774
51
285.225542
0
ARC
8
DEFAULT_255_2_778
10
15.7463581
20
2.0864164
40
1.1606686
50
248.7091312
51
270.4325929
0
ARC
8
DEFAULT_255_2_778
10
15.6799471
20
1.912455
40
0.9744671
50
184.6772208
51
248.6334344
0
ARC
8
DEFAULT_255_2_778
10
15.8661043
20
1.9490486
40
1.163183
50
179.9688572
51
185.7260779
0
ARC
8
DEFAULT_255_2_778
10
15.7695346
20
1.9586022
40
1.0666506
50
154.932994
51
180.4792201
0
ARC
8
DEFAULT_255_2_778
10
15.6818342
20
1.988904
40
0.9744205
50
104.4347674
51
154.3620974
0
ARC
8
DEFAULT_255_2_778
10
15.7502985
20
1.7744659
40
1.1992247
50
89.7695796
51
105.0486416
0
ARC
8
DEFAULT_255_2_778
10
15.763905
20
1.8131765
40
1.1605376
50
68.6978591
51
90.4336541
0
ARC
8
DEFAULT_255_2_778
10
15.830014
20
1.9866351
40
0.9749146
50
4.5404267
51
68.6142417
0
ARC
8
DEFAULT_255_2_778
10
15.6440237
20
1.9502848
40
1.1633976
50
359.9702581
51
5.5999646
0
ARC
8
DEFAULT_255_2_778
10
15.8141405
20
1.9399866
40
0.6151956
50
179.0970961
51
209.343203
0
ARC
8
DEFAULT_255_2_778
10
15.7318948
20
1.9050013
40
0.5264493
50
210.4105985
51
267.2145424
0
ARC
8
DEFAULT_255_2_778
10
15.7548835
20
2.0360955
40
0.6587146
50
265.7712995
51
270.020681
0
ARC
8
DEFAULT_255_2_778
10
15.7652586
20
1.9396549
40
0.5623654
50
268.967117
51
305.8127884
0
ARC
8
DEFAULT_255_2_778
10
15.7670579
20
1.9142329
40
0.5408633
50
307.2341739
51
352.1604636
0
ARC
8
DEFAULT_255_2_778
10
15.6171966
20
1.9484763
40
0.6941257
50
351.0475052
51
0.0994343
0
ARC
8
DEFAULT_255_2_778
10
15.697062
20
1.9593689
40
0.6143357
50
359.0964143
51
29.5263702
0
ARC
8
DEFAULT_255_2_778
10
15.7781256
20
1.9939938
40
0.5268276
50
30.594629
51
87.2064925
0
ARC
8
DEFAULT_255_2_778
10
15.7553597
20
1.863944
40
0.6580369
50
85.7783317
51
90.0207607
0
ARC
8
DEFAULT_255_2_778
10
15.7449489
20
1.9599954
40
0.5620775
50
88.9630144
51
125.9030848
0
ARC
8
DEFAULT_255_2_778
10
15.7433672
20
1.9851391
40
0.540951
50
127.3292332
51
172.1784072
0
ARC
8
DEFAULT_255_2_778
10
15.8935395
20
1.9508844
40
0.6945191
50
171.0646941
51
180.0992887
0
ARC
8
DEFAULT_255_2_778
10
17.8385199
20
1.9392219
40
1.0877517
50
339.6736799
51
0.5509198
0
ARC
8
DEFAULT_255_2_778
10
18.0164542
20
1.8823383
40
0.9011776
50
284.7038746
51
339.1353555
0
ARC
8
DEFAULT_255_2_778
10
17.8986373
20
2.2397746
40
1.277024
50
269.6044514
51
285.746308
0
ARC
8
DEFAULT_255_2_778
10
17.9002357
20
1.6770826
40
1.2595413
50
72.6603
51
90.4737525
0
ARC
8
DEFAULT_255_2_778
10
18.0198522
20
2.0186494
40
0.8979325
50
13.5604687
51
73.4503455
0
ARC
8
DEFAULT_255_2_778
10
17.7881245
20
1.9551633
40
1.1381099
50
359.7239968
51
13.9321393
0
ARC
8
DEFAULT_255_2_778
10
17.8922094
20
2.0712777
40
0.6727755
50
269.1238001
51
289.2820415
0
ARC
8
DEFAULT_255_2_778
10
17.9450092
20
1.8876735
40
0.4821561
50
290.5645291
51
358.1360655
0
ARC
8
DEFAULT_255_2_778
10
17.634844
20
1.948761
40
0.7957778
50
354.4639644
51
0.0662335
0
ARC
8
DEFAULT_255_2_778
10
17.8004089
20
1.9646922
40
0.6303911
50
358.6355008
51
27.2132814
0
ARC
8
DEFAULT_255_2_778
10
17.9602261
20
2.034422
40
0.4565107
50
28.6032428
51
76.0277316
0
ARC
8
DEFAULT_255_2_778
10
17.8886589
20
1.7916592
40
0.7094536
50
75.1527324
51
90.5441404
0
LINE
8
DEFAULT_255_2_778
10
14.6518213
20
8.8367809
11
14.2327213
21
8.5997809
0
LINE
8
DEFAULT_255_2_778
10
14.2409213
20
7.9750809
11
14.6317213
21
7.7017809
0
LINE
8
DEFAULT_255_2_778
10
14.6516213
20
8.8373809
11
14.6518213
21
8.8367809
0
LINE
8
DEFAULT_255_2_778
10
16.2380213
20
7.3008809
11
16.0867213
21
7.7154809
0
LINE
8
DEFAULT_255_2_778
10
16.0867213
20
7.7154809
11
15.2942213
21
7.7154809
0
LINE
8
DEFAULT_255_2_778
10
15.2942213
20
7.7154809
11
15.1429213
21
7.3011809
0
LINE
8
DEFAULT_255_2_778
10
15.1429213
20
7.3011809
11
14.6455213
21
7.3011809
0
LINE
8
DEFAULT_255_2_778
10
14.6455213
20
7.3011809
11
15.4112213
21
9.2749809
0
LINE
8
DEFAULT_255_2_778
10
15.4112213
20
9.2749809
11
15.9800213
21
9.2749809
0
LINE
8
DEFAULT_255_2_778
10
15.9800213
20
9.2749809
11
16.7457213
21
7.3011809
0
LINE
8
DEFAULT_255_2_778
10
16.7457213
20
7.3011809
11
16.2383213
21
7.3011809
0
LINE
8
DEFAULT_255_2_778
10
16.2383213
20
7.3011809
11
16.2380213
21
7.3008809
0
LINE
8
DEFAULT_255_2_778
10
15.9329213
20
8.1417809
11
15.6903213
21
8.8068809
0
LINE
8
DEFAULT_255_2_778
10
15.6903213
20
8.8068809
11
15.4482213
21
8.1412809
0
LINE
8
DEFAULT_255_2_778
10
15.4482213
20
8.1412809
11
15.9329213
21
8.1417809
0
LINE
8
DEFAULT_255_2_778
10
18.2877213
20
7.3008809
11
17.3757213
21
8.5052809
0
LINE
8
DEFAULT_255_2_778
10
17.3757213
20
8.5052809
11
17.3757213
21
7.3008809
0
LINE
8
DEFAULT_255_2_778
10
17.3757213
20
7.3008809
11
16.8995213
21
7.3008809
0
LINE
8
DEFAULT_255_2_778
10
16.8995213
20
7.3008809
11
16.8995213
21
9.2725809
0
LINE
8
DEFAULT_255_2_778
10
16.8995213
20
9.2725809
11
17.3559213
21
9.2725809
0
LINE
8
DEFAULT_255_2_778
10
17.3559213
20
9.2725809
11
18.2655213
21
8.0687809
0
LINE
8
DEFAULT_255_2_778
10
18.2655213
20
8.0687809
11
18.2655213
21
9.2725809
0
LINE
8
DEFAULT_255_2_778
10
18.2655213
20
9.2725809
11
18.7433213
21
9.2725809
0
LINE
8
DEFAULT_255_2_778
10
18.7433213
20
9.2725809
11
18.7433213
21
7.2987809
0
LINE
8
DEFAULT_255_2_778
10
18.7433213
20
7.2987809
11
18.2877213
21
7.3008809
0
LINE
8
DEFAULT_255_2_778
10
20.4917213
20
7.3008809
11
20.3409213
21
7.7154809
0
LINE
8
DEFAULT_255_2_778
10
20.3409213
20
7.7154809
11
19.5461213
21
7.7154809
0
LINE
8
DEFAULT_255_2_778
10
19.5461213
20
7.7154809
11
19.3945213
21
7.3011809
0
LINE
8
DEFAULT_255_2_778
10
19.3945213
20
7.3011809
11
18.8971213
21
7.3011809
0
LINE
8
DEFAULT_255_2_778
10
18.8971213
20
7.3011809
11
19.6628213
21
9.2749809
0
LINE
8
DEFAULT_255_2_778
10
19.6628213
20
9.2749809
11
20.2316213
21
9.2749809
0
LINE
8
DEFAULT_255_2_778
10
20.2316213
20
9.2749809
11
20.9981213
21
7.3011809
0
LINE
8
DEFAULT_255_2_778
10
20.9981213
20
7.3011809
11
20.4901213
21
7.3011809
0
LINE
8
DEFAULT_255_2_778
10
20.4901213
20
7.3011809
11
20.4917213
21
7.3008809
0
LINE
8
DEFAULT_255_2_778
10
20.1866213
20
8.1417809
11
19.9446213
21
8.8068809
0
LINE
8
DEFAULT_255_2_778
10
19.9446213
20
8.8068809
11
19.7011213
21
8.1417809
0
LINE
8
DEFAULT_255_2_778
10
19.7011213
20
8.1417809
11
20.1866213
21
8.1417809
0
LINE
8
DEFAULT_255_2_778
10
22.0078213
20
7.3011809
11
21.1532213
21
7.3011809
0
LINE
8
DEFAULT_255_2_778
10
21.1532213
20
7.3011809
11
21.1532213
21
9.2725809
0
LINE
8
DEFAULT_255_2_778
10
21.1532213
20
9.2725809
11
22.0057213
21
9.2725809
0
LINE
8
DEFAULT_255_2_778
10
23.0436213
20
8.2856809
11
23.0441213
21
8.2880809
0
LINE
8
DEFAULT_255_2_778
10
21.6286213
20
7.7366809
11
21.9990213
21
7.7366809
0
LINE
8
DEFAULT_255_2_778
10
21.9990213
20
8.8391809
11
21.6286213
21
8.8391809
0
LINE
8
DEFAULT_255_2_778
10
21.6286213
20
8.8391809
11
21.6286213
21
7.7366809
0
LINE
8
DEFAULT_255_2_778
10
24.5766213
20
7.3008809
11
24.4250213
21
7.7154809
0
LINE
8
DEFAULT_255_2_778
10
24.4250213
20
7.7154809
11
23.6329213
21
7.7154809
0
LINE
8
DEFAULT_255_2_778
10
23.6329213
20
7.7154809
11
23.4820213
21
7.3011809
0
LINE
8
DEFAULT_255_2_778
10
23.4820213
20
7.3011809
11
22.9846213
21
7.3011809
0
LINE
8
DEFAULT_255_2_778
10
22.9846213
20
7.3011809
11
23.7503213
21
9.2749809
0
LINE
8
DEFAULT_255_2_778
10
23.7503213
20
9.2749809
11
24.3192213
21
9.2749809
0
LINE
8
DEFAULT_255_2_778
10
24.3192213
20
9.2749809
11
25.0849213
21
7.3011809
0
LINE
8
DEFAULT_255_2_778
10
25.0849213
20
7.3011809
11
24.5769213
21
7.3011809
0
LINE
8
DEFAULT_255_2_778
10
24.5769213
20
7.3011809
11
24.5766213
21
7.3008809
0
LINE
8
DEFAULT_255_2_778
10
24.2713213
20
8.1417809
11
24.0292213
21
8.8068809
0
LINE
8
DEFAULT_255_2_778
10
24.0292213
20
8.8068809
11
23.7871213
21
8.1417809
0
LINE
8
DEFAULT_255_2_778
10
23.7871213
20
8.1417809
11
24.2713213
21
8.1417809
0
LINE
8
DEFAULT_255_2_778
10
24.2713213
20
8.1417809
11
24.2713213
21
8.1417809
0
LINE
8
DEFAULT_255_2_778
10
12.8754213
20
4.1317809
11
12.8754213
21
6.1060809
0
LINE
8
DEFAULT_255_2_778
10
12.8754213
20
6.1060809
11
13.3517213
21
6.1060809
0
LINE
8
DEFAULT_255_2_778
10
13.3517213
20
6.1060809
11
13.3517213
21
4.5714809
0
LINE
8
DEFAULT_255_2_778
10
13.3517213
20
4.5714809
11
14.3571213
21
4.5714809
0
LINE
8
DEFAULT_255_2_778
10
14.3571213
20
4.5714809
11
14.3571213
21
4.1340809
0
LINE
8
DEFAULT_255_2_778
10
14.3571213
20
4.1340809
11
12.8754213
21
4.1317809
0
LINE
8
DEFAULT_255_2_778
10
14.5116213
20
4.1317809
11
14.5116213
21
6.1060809
0
LINE
8
DEFAULT_255_2_778
10
14.5116213
20
6.1060809
11
16.0340213
21
6.1060809
0
LINE
8
DEFAULT_255_2_778
10
16.0340213
20
6.1060809
11
16.0340213
21
5.6813809
0
LINE
8
DEFAULT_255_2_778
10
16.0340213
20
5.6813809
11
14.9863213
21
5.6813809
0
LINE
8
DEFAULT_255_2_778
10
14.9863213
20
5.6813809
11
14.9863213
21
5.3374809
0
LINE
8
DEFAULT_255_2_778
10
14.9863213
20
5.3374809
11
15.9716213
21
5.3374809
0
LINE
8
DEFAULT_255_2_778
10
15.9716213
20
5.3374809
11
15.9716213
21
4.9140809
0
LINE
8
DEFAULT_255_2_778
10
15.9716213
20
4.9140809
11
14.9873213
21
4.9140809
0
LINE
8
DEFAULT_255_2_778
10
14.9873213
20
4.9140809
11
14.9873213
21
4.5531809
0
LINE
8
DEFAULT_255_2_778
10
14.9873213
20
4.5531809
11
16.0396213
21
4.5531809
0
LINE
8
DEFAULT_255_2_778
10
16.0396213
20
4.5531809
11
16.0396213
21
4.1285809
0
LINE
8
DEFAULT_255_2_778
10
16.0396213
20
4.1285809
11
14.5116213
21
4.1317809
0
LINE
8
DEFAULT_255_2_778
10
17.7713213
20
4.1317809
11
17.6199213
21
4.5463809
0
LINE
8
DEFAULT_255_2_778
10
17.6199213
20
4.5463809
11
16.8278213
21
4.5463809
0
LINE
8
DEFAULT_255_2_778
10
16.8278213
20
4.5463809
11
16.6764213
21
4.1319809
0
LINE
8
DEFAULT_255_2_778
10
16.6764213
20
4.1319809
11
16.1790213
21
4.1319809
0
LINE
8
DEFAULT_255_2_778
10
16.1790213
20
4.1319809
11
16.9447213
21
6.1057809
0
LINE
8
DEFAULT_255_2_778
10
16.9447213
20
6.1057809
11
17.5136213
21
6.1057809
0
LINE
8
DEFAULT_255_2_778
10
17.5136213
20
6.1057809
11
18.2793213
21
4.1314809
0
LINE
8
DEFAULT_255_2_778
10
18.2793213
20
4.1314809
11
17.7713213
21
4.1317809
0
LINE
8
DEFAULT_255_2_778
10
17.4662213
20
4.9722809
11
17.2241213
21
5.6382809
0
LINE
8
DEFAULT_255_2_778
10
17.2241213
20
5.6382809
11
16.9820213
21
4.9722809
0
LINE
8
DEFAULT_255_2_778
10
16.9820213
20
4.9722809
11
17.4662213
21
4.9722809
0
LINE
8
DEFAULT_255_2_778
10
19.4850213
20
4.8849809
11
20.0581213
21
4.1317809
0
LINE
8
DEFAULT_255_2_778
10
20.0581213
20
4.1317809
11
19.4892213
21
4.1317809
0
LINE
8
DEFAULT_255_2_778
10
19.4892213
20
4.1317809
11
18.9635213
21
4.8706809
0
LINE
8
DEFAULT_255_2_778
10
18.9635213
20
4.8706809
11
18.8942213
21
4.8706809
0
LINE
8
DEFAULT_255_2_778
10
18.8942213
20
4.8706809
11
18.8942213
21
4.1317809
0
LINE
8
DEFAULT_255_2_778
10
18.8942213
20
4.1317809
11
18.4179213
21
4.1317809
0
LINE
8
DEFAULT_255_2_778
10
18.4179213
20
4.1317809
11
18.4179213
21
6.1060809
0
LINE
8
DEFAULT_255_2_778
10
18.4179213
20
6.1060809
11
19.2894213
21
6.1060809
0
LINE
8
DEFAULT_255_2_778
10
20.0451213
20
5.4742809
11
20.0425213
21
5.4744809
0
LINE
8
DEFAULT_255_2_778
10
18.8947213
20
5.2673809
11
19.2802213
21
5.2673809
0
LINE
8
DEFAULT_255_2_778
10
19.2802213
20
5.6787809
11
18.8947213
21
5.6787809
0
LINE
8
DEFAULT_255_2_778
10
18.8947213
20
5.6787809
11
18.8947213
21
5.2670809
0
LINE
8
DEFAULT_255_2_778
10
18.8947213
20
5.2670809
11
18.8947213
21
5.2673809
0
LINE
8
DEFAULT_255_2_778
10
21.6670213
20
4.1317809
11
20.7573213
21
5.3355809
0
LINE
8
DEFAULT_255_2_778
10
20.7573213
20
5.3355809
11
20.7573213
21
4.1317809
0
LINE
8
DEFAULT_255_2_778
10
20.7573213
20
4.1317809
11
20.2811213
21
4.1317809
0
LINE
8
DEFAULT_255_2_778
10
20.2811213
20
4.1317809
11
20.2811213
21
6.1060809
0
LINE
8
DEFAULT_255_2_778
10
20.2811213
20
6.1060809
11
20.7375213
21
6.1060809
0
LINE
8
DEFAULT_255_2_778
10
20.7375213
20
6.1060809
11
21.6472213
21
4.9021809
0
LINE
8
DEFAULT_255_2_778
10
21.6472213
20
4.9021809
11
21.6472213
21
6.1060809
0
LINE
8
DEFAULT_255_2_778
10
21.6472213
20
6.1060809
11
22.1250213
21
6.1060809
0
LINE
8
DEFAULT_255_2_778
10
22.1250213
20
6.1060809
11
22.1250213
21
4.1317809
0
LINE
8
DEFAULT_255_2_778
10
22.1250213
20
4.1317809
11
21.6670213
21
4.1317809
0
LINE
8
DEFAULT_255_2_778
10
22.4502213
20
4.1317809
11
22.4502213
21
6.1060809
0
LINE
8
DEFAULT_255_2_778
10
22.4502213
20
6.1060809
11
22.9259213
21
6.1060809
0
LINE
8
DEFAULT_255_2_778
10
22.9259213
20
6.1060809
11
22.9259213
21
4.1317809
0
LINE
8
DEFAULT_255_2_778
10
22.9259213
20
4.1317809
11
22.4502213
21
4.1317809
0
LINE
8
DEFAULT_255_2_778
10
24.6388213
20
4.1317809
11
23.7292213
21
5.3355809
0
LINE
8
DEFAULT_255_2_778
10
23.7292213
20
5.3355809
11
23.7292213
21
4.1317809
0
LINE
8
DEFAULT_255_2_778
10
23.7292213
20
4.1317809
11
23.2529213
21
4.1317809
0
LINE
8
DEFAULT_255_2_778
10
23.2529213
20
4.1317809
11
23.2529213
21
6.1060809
0
LINE
8
DEFAULT_255_2_778
10
23.2529213
20
6.1060809
11
23.7093213
21
6.1060809
0
LINE
8
DEFAULT_255_2_778
10
23.7093213
20
6.1060809
11
24.6189213
21
4.9021809
0
LINE
8
DEFAULT_255_2_778
10
24.6189213
20
4.9021809
11
24.6189213
21
6.1060809
0
LINE
8
DEFAULT_255_2_778
10
24.6189213
20
6.1060809
11
25.0968213
21
6.1060809
0
LINE
8
DEFAULT_255_2_778
10
25.0968213
20
6.1060809
11
25.0968213
21
4.1317809
0
LINE
8
DEFAULT_255_2_778
10
25.0968213
20
4.1317809
11
24.6388213
21
4.1317809
0
LINE
8
DEFAULT_255_2_778
10
27.1304213
20
5.8562809
11
26.7909213
21
5.5247809
0
LINE
8
DEFAULT_255_2_778
10
26.8719213
20
4.8823809
11
26.3803213
21
4.8823809
0
LINE
8
DEFAULT_255_2_778
10
26.3803213
20
4.8823809
11
26.3803213
21
5.2463809
0
LINE
8
DEFAULT_255_2_778
10
26.3803213
20
5.2463809
11
27.3402213
21
5.2463809
0
LINE
8
DEFAULT_255_2_778
10
27.1277213
20
5.8536809
11
27.1304213
21
5.8562809
0
LINE
8
DEFAULT_255_2_778
10
14.6518213
20
2.4981809
11
14.2327213
21
2.2611809
0
LINE
8
DEFAULT_255_2_778
10
14.2409213
20
1.6364809
11
14.6317213
21
1.3628809
0
LINE
8
DEFAULT_255_2_778
10
14.6516213
20
2.4984809
11
14.6518213
21
2.4981809
0
LINE
8
DEFAULT_255_2_778
10
16.8074213
20
1.9496809
11
16.8077213
21
1.9496809
0
LINE
8
DEFAULT_255_2_778
10
15.1990213
20
1.9496809
11
15.1990213
21
1.9496809
0
LINE
8
DEFAULT_255_2_778
10
17.8898213
20
0.9627809
11
17.0352213
21
0.9627809
0
LINE
8
DEFAULT_255_2_778
10
17.0352213
20
0.9627809
11
17.0352213
21
2.9365809
0
LINE
8
DEFAULT_255_2_778
10
17.0352213
20
2.9365809
11
17.8898213
21
2.9365809
0
LINE
8
DEFAULT_255_2_778
10
18.9262213
20
1.9496809
11
18.9262213
21
1.9496809
0
LINE
8
DEFAULT_255_2_778
10
17.5115213
20
1.3985809
11
17.8819213
21
1.3985809
0
LINE
8
DEFAULT_255_2_778
10
17.8819213
20
2.5010809
11
17.5115213
21
2.5010809
0
LINE
8
DEFAULT_255_2_778
10
17.5115213
20
2.5010809
11
17.5115213
21
1.3985809
0
LINE
8
DEFAULT_255_2_778
10
19.1537213
20
0.9625809
11
19.1537213
21
2.9363809
0
LINE
8
DEFAULT_255_2_778
10
19.1537213
20
2.9363809
11
20.6764213
21
2.9363809
0
LINE
8
DEFAULT_255_2_778
10
20.6764213
20
2.9363809
11
20.6764213
21
2.5129809
0
LINE
8
DEFAULT_255_2_778
10
20.6764213
20
2.5129809
11
19.6286213
21
2.5129809
0
LINE
8
DEFAULT_255_2_778
10
19.6286213
20
2.5129809
11
19.6286213
21
2.1690809
0
LINE
8
DEFAULT_255_2_778
10
19.6286213
20
2.1690809
11
20.6137213
21
2.1690809
0
LINE
8
DEFAULT_255_2_778
10
20.6137213
20
2.1690809
11
20.6137213
21
1.7475809
0
LINE
8
DEFAULT_255_2_778
10
20.6137213
20
1.7475809
11
19.6334213
21
1.7475809
0
LINE
8
DEFAULT_255_2_778
10
19.6334213
20
1.7475809
11
19.6334213
21
1.3866809
0
LINE
8
DEFAULT_255_2_778
10
19.6334213
20
1.3866809
11
20.6856213
21
1.3866809
0
LINE
8
DEFAULT_255_2_778
10
20.6856213
20
1.3866809
11
20.6856213
21
0.9646809
0
LINE
8
DEFAULT_255_2_778
10
20.6856213
20
0.9646809
11
19.1537213
21
0.9625809
0
ARC
8
DEFAULT_255_2_778
10
5.4921617
20
4.9878598
40
5.4017361
50
89.9628605
51
102.8355956
0
ARC
8
DEFAULT_255_2_778
10
5.4783219
20
5.058254
40
5.3300268
50
102.8586478
51
121.1561236
0
ARC
8
DEFAULT_255_2_778
10
5.4496826
20
5.0868768
40
5.2907244
50
121.0510802
51
163.6366399
0
ARC
8
DEFAULT_255_2_778
10
5.3778776
20
5.12447
40
5.2112609
50
163.8108062
51
177.9891715
0
ARC
8
DEFAULT_255_2_778
10
5.4747134
20
5.1184127
40
5.3082503
50
177.960506
51
180.0012738
0
ARC
8
DEFAULT_255_2_778
10
5.3963812
20
5.1148836
40
5.2299192
50
179.9626304
51
193.6560384
0
ARC
8
DEFAULT_255_2_778
10
5.3840932
20
5.1169092
40
5.2184592
50
193.7095017
51
215.3988454
0
ARC
8
DEFAULT_255_2_778
10
5.48136
20
5.1852565
40
5.3373363
50
215.3920757
51
247.3655408
0
ARC
8
DEFAULT_255_2_778
10
5.4811798
20
5.1874761
40
5.3393157
50
247.3764918
51
262.875923
0
ARC
8
DEFAULT_255_2_778
10
5.4943513
20
5.2869039
40
5.4396094
50
262.8681404
51
270.0138178
0
ARC
8
DEFAULT_255_2_778
10
5.4991679
20
5.2491304
40
5.4018369
50
269.9628259
51
282.8357135
0
ARC
8
DEFAULT_255_2_778
10
5.5130068
20
5.1787485
40
5.3301397
50
282.8587464
51
301.1562642
0
ARC
8
DEFAULT_255_2_778
10
5.5416572
20
5.1501209
40
5.2908271
50
301.0511472
51
343.6361473
0
ARC
8
DEFAULT_255_2_778
10
5.6137483
20
5.1124287
40
5.2110612
50
343.8104703
51
357.9890611
0
ARC
8
DEFAULT_255_2_778
10
5.5170683
20
5.1184767
40
5.3078947
50
357.9604364
51
0.0012736
0
ARC
8
DEFAULT_255_2_778
10
5.5891068
20
5.1162114
40
5.2358569
50
0.0260807
51
13.6992237
0
ARC
8
DEFAULT_255_2_778
10
5.5998442
20
5.1137303
40
5.2260148
50
13.7535306
51
35.704901
0
ARC
8
DEFAULT_255_2_778
10
5.5039776
20
5.046032
40
5.3433713
50
35.6944412
51
67.4547797
0
ARC
8
DEFAULT_255_2_778
10
5.5046888
20
5.0447615
40
5.3442722
50
67.4670439
51
82.8659722
0
ARC
8
DEFAULT_255_2_778
10
5.4915883
20
4.9459797
40
5.4439163
50
82.8582751
51
89.9571133
0
LINE
8
DEFAULT_255_2_778
10
5.4956631
20
10.3898947
11
5.4956631
21
10.3895947
0
ARC
8
DEFAULT_255_2_778
10
8.3256244
20
6.3810407
40
0.2805787
50
313.9592571
51
350.4410213
0
ARC
8
DEFAULT_255_2_778
10
8.3262707
20
6.3795011
40
0.2796891
50
350.7300457
51
0.0326532
0
ARC
8
DEFAULT_255_2_778
10
8.3174127
20
6.3796343
40
0.2885471
50
0.0052002
51
3.019523
0
ARC
8
DEFAULT_255_2_778
10
8.2684028
20
6.3709186
40
0.3380035
50
4.0573171
51
44.0643891
0
ARC
8
DEFAULT_255_2_778
10
8.227136
20
6.339782
40
0.389362
50
43.1334311
51
45.1183679
0
ARC
8
DEFAULT_255_2_778
10
8.2554143
20
6.3742593
40
0.3450048
50
44.4056215
51
85.8701894
0
ARC
8
DEFAULT_255_2_778
10
8.2632941
20
6.4188884
40
0.2999601
50
86.7575261
51
89.9961179
0
ARC
8
DEFAULT_255_2_778
10
8.2622978
20
6.4363259
40
0.2825244
50
89.7938392
51
135.1664274
0
ARC
8
DEFAULT_255_2_778
10
8.2783474
20
6.4166368
40
0.3077994
50
134.6737067
51
135.0298065
0
ARC
8
DEFAULT_255_2_778
10
6.8334034
20
7.8552671
40
0.2803321
50
313.9286417
51
350.063158
0
ARC
8
DEFAULT_255_2_778
10
6.8346565
20
7.8535386
40
0.2788034
50
350.3686173
51
0.0360953
0
ARC
8
DEFAULT_255_2_778
10
6.8252706
20
7.8536876
40
0.2881892
50
0.005289
51
3.2761862
0
ARC
8
DEFAULT_255_2_778
10
6.7749606
20
7.844658
40
0.3389885
50
4.3139653
51
43.5069274
0
ARC
8
DEFAULT_255_2_778
10
6.731129
20
7.8119076
40
0.3933785
50
42.5715245
51
44.9799118
0
ARC
8
DEFAULT_255_2_778
10
6.7631819
20
7.8497565
40
0.3439765
50
44.2943463
51
85.5280492
0
ARC
8
DEFAULT_255_2_778
10
6.7717325
20
7.903051
40
0.2902103
50
86.3906673
51
86.7587601
0
ARC
8
DEFAULT_255_2_778
10
6.7711203
20
7.8935103
40
0.2997705
50
86.7450435
51
89.994085
0
ARC
8
DEFAULT_255_2_778
10
6.7702062
20
7.910541
40
0.2827413
50
89.8084967
51
135.377663
0
ARC
8
DEFAULT_255_2_778
10
6.7974406
20
7.8796558
40
0.3238326
50
134.8729891
51
135.0423528
0
ARC
8
DEFAULT_255_2_778
10
4.21914
20
7.9102721
40
0.2881113
50
44.7119299
51
83.3932276
0
ARC
8
DEFAULT_255_2_778
10
4.2199588
20
7.908742
40
0.2895386
50
83.5890285
51
90.0138511
0
ARC
8
DEFAULT_255_2_778
10
4.219898
20
7.9030753
40
0.2952053
50
90.0017862
51
92.6064239
0
ARC
8
DEFAULT_255_2_778
10
4.2272189
20
7.8603947
40
0.3382172
50
93.5165777
51
134.1062495
0
ARC
8
DEFAULT_255_2_778
10
4.2560771
20
7.8222961
40
0.3857025
50
133.2454333
51
135.1171669
0
ARC
8
DEFAULT_255_2_778
10
4.2284004
20
7.8430527
40
0.3514781
50
134.3308799
51
170.0473051
0
ARC
8
DEFAULT_255_2_778
10
4.176384
20
7.8568076
40
0.297902
50
170.9239163
51
175.8142234
0
ARC
8
DEFAULT_255_2_778
10
4.1672893
20
7.8574964
40
0.2887812
50
175.8188062
51
179.9912931
0
ARC
8
DEFAULT_255_2_778
10
4.1522104
20
7.8570777
40
0.2737026
50
179.9031757
51
224.2787708
0
ARC
8
DEFAULT_255_2_778
10
4.1832215
20
7.8824893
40
0.3136652
50
223.6472936
51
225.7342174
0
ARC
8
DEFAULT_255_2_778
10
2.7258058
20
6.430686
40
0.288268
50
44.6772157
51
83.0120768
0
ARC
8
DEFAULT_255_2_778
10
2.7268608
20
6.4302214
40
0.288603
50
83.2311967
51
90.0153107
0
ARC
8
DEFAULT_255_2_778
10
2.726793
20
6.4245048
40
0.2943195
50
90.0018087
51
92.6577943
0
ARC
8
DEFAULT_255_2_778
10
2.7341534
20
6.3815834
40
0.3375787
50
93.5679373
51
133.8356384
0
ARC
8
DEFAULT_255_2_778
10
2.7644728
20
6.3415107
40
0.3875279
50
132.9657019
51
135.1385992
0
ARC
8
DEFAULT_255_2_778
10
2.736123
20
6.3626155
40
0.352582
50
134.3198076
51
169.2307615
0
ARC
8
DEFAULT_255_2_778
10
2.6826791
20
6.3773551
40
0.2973592
50
170.0966863
51
175.8730832
0
ARC
8
DEFAULT_255_2_778
10
2.6728535
20
6.3781181
40
0.2875043
50
175.8838128
51
179.9919603
0
ARC
8
DEFAULT_255_2_778
10
2.6595592
20
6.3779074
40
0.2742101
50
179.9475414
51
223.8619595
0
ARC
8
DEFAULT_255_2_778
10
2.6921135
20
6.4041474
40
0.3158854
50
223.202037
51
225.6221087
0
ARC
8
DEFAULT_255_2_778
10
2.6639504
20
3.8561864
40
0.2804506
50
133.9278845
51
170.0565391
0
ARC
8
DEFAULT_255_2_778
10
2.6625352
20
3.8579561
40
0.2787551
50
170.3645991
51
180.035207
0
ARC
8
DEFAULT_255_2_778
10
2.6716254
20
3.8578077
40
0.2878453
50
180.004555
51
183.2311703
0
ARC
8
DEFAULT_255_2_778
10
2.7217037
20
3.8667581
40
0.3384037
50
184.2663114
51
223.5482279
0
ARC
8
DEFAULT_255_2_778
10
2.7654914
20
3.8995247
40
0.3927683
50
222.6117873
51
225.0257536
0
ARC
8
DEFAULT_255_2_778
10
2.7342829
20
3.8619461
40
0.3441557
50
224.2794929
51
265.1877096
0
ARC
8
DEFAULT_255_2_778
10
2.7261498
20
3.8186419
40
0.3003551
50
266.0407268
51
266.7521759
0
ARC
8
DEFAULT_255_2_778
10
2.7261363
20
3.8178087
40
0.2995225
50
266.7457309
51
269.994757
0
ARC
8
DEFAULT_255_2_778
10
2.7270341
20
3.8009326
40
0.282648
50
269.8124563
51
315.406627
0
ARC
8
DEFAULT_255_2_778
10
2.6421589
20
3.8894911
40
0.4052774
50
314.9153826
51
315.0507736
0
ARC
8
DEFAULT_255_2_778
10
4.1596644
20
2.3767333
40
0.2804265
50
133.9365951
51
170.4365796
0
ARC
8
DEFAULT_255_2_778
10
4.1590535
20
2.3782638
40
0.2795735
50
170.7250845
51
180.0329049
0
ARC
8
DEFAULT_255_2_778
10
4.1676882
20
2.378122
40
0.2882082
50
180.0037361
51
183.0854699
0
ARC
8
DEFAULT_255_2_778
10
4.2169355
20
2.3868499
40
0.3379083
50
184.1138203
51
223.9105366
0
ARC
8
DEFAULT_255_2_778
10
4.2586376
20
2.418253
40
0.3897813
50
222.9846768
51
225.117642
0
ARC
8
DEFAULT_255_2_778
10
4.2298531
20
2.3831615
40
0.3446327
50
224.3916115
51
265.922964
0
ARC
8
DEFAULT_255_2_778
10
4.22211
20
2.339256
40
0.300323
50
266.8009491
51
269.9954835
0
ARC
8
DEFAULT_255_2_778
10
4.2231034
20
2.3217522
40
0.2828211
50
269.7939608
51
315.3221765
0
ARC
8
DEFAULT_255_2_778
10
4.234184
20
2.3141608
40
0.269615
50
314.8136494
51
315.0169856
0
ARC
8
DEFAULT_255_2_778
10
6.7734849
20
2.3316804
40
0.2882965
50
224.7065592
51
263.3819788
0
ARC
8
DEFAULT_255_2_778
10
6.7726038
20
2.3328933
40
0.2894017
50
263.5829284
51
270.0143039
0
ARC
8
DEFAULT_255_2_778
10
6.7726623
20
2.3388218
40
0.2953301
50
270.0026769
51
272.6923574
0
ARC
8
DEFAULT_255_2_778
10
6.7652719
20
2.3815425
40
0.3383934
50
273.6025555
51
313.941054
0
ARC
8
DEFAULT_255_2_778
10
6.7356537
20
2.4207133
40
0.3871954
50
313.0746798
51
315.0932124
0
ARC
8
DEFAULT_255_2_778
10
6.7635413
20
2.3994588
40
0.3524694
50
314.3399503
51
349.3577244
0
ARC
8
DEFAULT_255_2_778
10
6.8169467
20
2.3848357
40
0.2973163
50
350.2266437
51
355.9208927
0
ARC
8
DEFAULT_255_2_778
10
6.8264192
20
2.3841052
40
0.2878158
50
355.9318101
51
359.9909301
0
ARC
8
DEFAULT_255_2_778
10
6.8397432
20
2.384303
40
0.2744918
50
359.9492115
51
43.8407485
0
ARC
8
DEFAULT_255_2_778
10
6.8073781
20
2.3582783
40
0.315883
50
43.1792146
51
45.600696
0
ARC
8
DEFAULT_255_2_778
10
8.2667348
20
3.8101318
40
0.2878752
50
224.6359742
51
262.9749708
0
ARC
8
DEFAULT_255_2_778
10
8.2657424
20
3.8108701
40
0.2884885
50
263.1885206
51
270.0161962
0
ARC
8
DEFAULT_255_2_778
10
8.2658061
20
3.81711
40
0.2947285
50
270.0034776
51
272.5862488
0
ARC
8
DEFAULT_255_2_778
10
8.2584501
20
3.8596236
40
0.3375743
50
273.5079361
51
314.1682295
0
ARC
8
DEFAULT_255_2_778
10
8.2288318
20
3.8985473
40
0.3861761
50
313.296443
51
315.2075923
0
ARC
8
DEFAULT_255_2_778
10
8.2561628
20
3.8786846
40
0.352824
50
314.3696313
51
349.4150393
0
ARC
8
DEFAULT_255_2_778
10
8.3096033
20
3.8640969
40
0.2976473
50
350.2856939
51
355.8862392
0
ARC
8
DEFAULT_255_2_778
10
8.3193494
20
3.8633473
40
0.2878725
50
355.8959006
51
359.991446
0
ARC
8
DEFAULT_255_2_778
10
8.333202
20
3.8636171
40
0.27402
50
359.934588
51
43.8490049
0
ARC
8
DEFAULT_255_2_778
10
8.3008849
20
3.8375216
40
0.3154244
50
43.2007382
51
45.6225628
0
LINE
8
DEFAULT_255_2_778
10
7.4487871
20
5.1186707
11
8.5203871
21
6.1790707
0
LINE
8
DEFAULT_255_2_778
10
8.0605871
20
6.6341707
11
6.9884871
21
5.5737707
0
LINE
8
DEFAULT_255_2_778
10
6.9884871
20
5.5737707
11
5.9549871
21
6.5950707
0
LINE
8
DEFAULT_255_2_778
10
5.9549871
20
6.5950707
11
7.0278871
21
7.6533707
0
LINE
8
DEFAULT_255_2_778
10
6.5682871
20
8.1084707
11
5.4959871
21
7.0501707
0
LINE
8
DEFAULT_255_2_778
10
5.4959871
20
7.0501707
11
4.4238871
21
8.1129707
0
LINE
8
DEFAULT_255_2_778
10
3.9642871
20
7.6578707
11
5.0363871
21
6.5942707
0
LINE
8
DEFAULT_255_2_778
10
5.0363871
20
6.5942707
11
4.0039871
21
5.5729707
0
LINE
8
DEFAULT_255_2_778
10
4.0039871
20
5.5729707
11
2.9307871
21
6.6333707
0
LINE
8
DEFAULT_255_2_778
10
2.4711871
20
6.1783707
11
3.5435871
21
5.1186707
0
LINE
8
DEFAULT_255_2_778
10
3.5435871
20
5.1186707
11
2.4693871
21
4.0581707
0
LINE
8
DEFAULT_255_2_778
10
2.9289871
20
3.6031707
11
4.0044871
21
4.6635707
0
LINE
8
DEFAULT_255_2_778
10
4.0044871
20
4.6635707
11
5.0379871
21
3.6417707
0
LINE
8
DEFAULT_255_2_778
10
5.0379871
20
3.6417707
11
3.9650871
21
2.5786707
0
LINE
8
DEFAULT_255_2_778
10
4.4248871
20
2.1235707
11
5.4969871
21
3.1840707
0
LINE
8
DEFAULT_255_2_778
10
5.4969871
20
3.1840707
11
6.5685871
21
2.1288707
0
LINE
8
DEFAULT_255_2_778
10
7.0283871
20
2.5839707
11
5.9562871
21
3.6443707
0
LINE
8
DEFAULT_255_2_778
10
5.9562871
20
3.6443707
11
6.9897871
21
4.6662707
0
LINE
8
DEFAULT_255_2_778
10
6.9897871
20
4.6662707
11
8.0618871
21
3.6078707
0
LINE
8
DEFAULT_255_2_778
10
8.5214871
20
4.0629707
11
7.4487871
21
5.1186707
0
LINE
8
DEFAULT_255_2_778
10
5.4961871
20
4.0968707
11
4.4624871
21
5.1186707
0
LINE
8
DEFAULT_255_2_778
10
4.4624871
20
5.1186707
11
5.4959871
21
6.1407707
0
LINE
8
DEFAULT_255_2_778
10
5.4959871
20
6.1407707
11
6.5293871
21
5.1186707
0
LINE
8
DEFAULT_255_2_778
10
6.5293871
20
5.1186707
11
5.4961871
21
4.0968707
0
ENDSEC
0
EOF