0
SECTION
2
HEADER
9
$MEASUREMENT
70
1
0
ENDSEC
0
SECTION
2
TABLES
0
TABLE
2
LTYPE
0
LTYPE
72
65
70
64
2
CONTINUOUS
3
______
73
0
40
0
0
LTYPE
72
65
70
64
2
DASH_DEFAULT_255_2_778_1
3
______
73
1
40
1
49
-0.5292
0
ENDTAB
0
TABLE
2
LAYER
0
LAYER
2
DEFAULT_255_2_778
70
0
62
255
6
CONTINUOUS
0
LAYER
2
DEFAULT_255_1_388
70
0
62
255
6
CONTINUOUS
0
LAYER
2
DEFAULT_255_2_778_1
70
0
62
255
6
DASH_DEFAULT_255_2_778_1
0
ENDTAB
0
ENDSEC
0
SECTION
2
ENTITIES
0
ARC
8
DEFAULT_255_2_778
10
3.5700693
20
91.6802028
40
0.7914215
50
129.1312896
51
180.1450914
0
ARC
8
DEFAULT_255_2_778
10
3.5703345
20
91.6806899
40
0.7912112
50
89.854026
51
129.1684493
0
ARC
8
DEFAULT_255_2_778
10
25.7993937
20
91.6803765
40
0.7915249
50
39.4792447
51
90.147911
0
ARC
8
DEFAULT_255_2_778
10
25.7999935
20
91.6802231
40
0.7911595
50
359.8533901
51
39.5154338
0
ARC
8
DEFAULT_255_2_778
10
25.7996693
20
-1.9863495
40
0.7914836
50
309.4761667
51
0.1482649
0
ARC
8
DEFAULT_255_2_778
10
25.799398
20
-1.9867805
40
0.7913235
50
269.8517415
51
309.511178
0
ARC
8
DEFAULT_255_2_778
10
3.570342
20
-1.9867224
40
0.7913815
50
219.1282118
51
270.1454017
0
ARC
8
DEFAULT_255_2_778
10
3.5700247
20
-1.9863399
40
0.7913769
50
179.8524075
51
219.1641908
0
LINE
8
DEFAULT_255_2_778
10
3.5723503
20
92.4718987
11
25.7973503
21
92.4718987
0
LINE
8
DEFAULT_255_2_778
10
26.5911503
20
91.6781987
11
26.5911503
21
-1.9843013
0
LINE
8
DEFAULT_255_2_778
10
25.7973503
20
-2.7781013
11
3.5723503
21
-2.7781013
0
LINE
8
DEFAULT_255_2_778
10
2.7786503
20
-1.9843013
11
2.7786503
21
91.6781987
0
LINE
8
DEFAULT_255_1_388
10
10.8890985
20
0.6821148
11
10.8890985
21
-0.6398
0
LINE
8
DEFAULT_255_1_388
10
10.8890985
20
-0.6398
11
10.7210355
21
-0.6398
0
LINE
8
DEFAULT_255_1_388
10
10.7210355
20
-0.6398
11
10.7210355
21
0.474295
0
LINE
8
DEFAULT_255_1_388
10
10.7210355
20
0.474295
11
10.384006
21
0.3505066
0
LINE
8
DEFAULT_255_1_388
10
10.384006
20
0.3505066
11
10.384006
21
0.5023055
0
LINE
8
DEFAULT_255_1_388
10
10.384006
20
0.5023055
11
10.8628951
21
0.6821148
0
LINE
8
DEFAULT_255_1_388
10
10.8628951
20
0.6821148
11
10.8890985
21
0.6821148
0
LINE
8
DEFAULT_255_1_388
10
12.228181
20
0.6757898
11
12.228181
21
0.5818191
0
LINE
8
DEFAULT_255_1_388
10
12.228181
20
0.5818191
11
11.6833316
21
-0.6398
0
LINE
8
DEFAULT_255_1_388
10
11.6833316
20
-0.6398
11
11.5080401
21
-0.6398
0
LINE
8
DEFAULT_255_1_388
10
11.5080401
20
-0.6398
11
12.0510824
21
0.538448
0
LINE
8
DEFAULT_255_1_388
10
12.0510824
20
0.538448
11
11.3390736
21
0.538448
0
LINE
8
DEFAULT_255_1_388
10
11.3390736
20
0.538448
11
11.3390736
21
0.6757898
0
LINE
8
DEFAULT_255_1_388
10
11.3390736
20
0.6757898
11
12.228181
21
0.6757898
0
LINE
8
DEFAULT_255_1_388
10
12.6284601
20
-0.0145334
11
12.4947325
21
0.0198021
0
LINE
8
DEFAULT_255_1_388
10
12.4947325
20
0.0198021
11
12.5615963
21
0.6757898
0
LINE
8
DEFAULT_255_1_388
10
12.5615963
20
0.6757898
11
13.2356554
21
0.6757898
0
LINE
8
DEFAULT_255_1_388
10
13.2356554
20
0.6757898
11
13.2356554
21
0.5212803
0
LINE
8
DEFAULT_255_1_388
10
13.2356554
20
0.5212803
11
12.7034559
21
0.5212803
0
LINE
8
DEFAULT_255_1_388
10
12.7034559
20
0.5212803
11
12.6636991
21
0.1625652
0
LINE
8
DEFAULT_255_1_388
10
12.4477472
20
-0.2937348
11
12.6058709
21
-0.2937348
0
LINE
8
DEFAULT_255_1_388
10
12.6727347
20
0.0216092
11
12.6284601
21
-0.0145334
0
ARC
8
DEFAULT_255_1_388
10
12.8723604
20
-0.1951759
40
0.4141476
50
93.7181681
51
120.253934
0
ARC
8
DEFAULT_255_1_388
10
12.8829656
20
-0.2860716
40
0.5055616
50
89.9660471
51
94.2495185
0
ARC
8
DEFAULT_255_1_388
10
12.8875478
20
-0.2197846
40
0.4392953
50
73.8045384
51
90.5585736
0
ARC
8
DEFAULT_255_1_388
10
12.9139736
20
-0.123248
40
0.3392225
50
41.3071072
51
73.543002
0
ARC
8
DEFAULT_255_1_388
10
12.8671556
20
-0.1635539
40
0.4009977
50
13.5075837
51
41.2174839
0
ARC
8
DEFAULT_255_1_388
10
12.6824653
20
-0.2119093
40
0.5918864
50
1.1330171
51
13.8830737
0
ARC
8
DEFAULT_255_1_388
10
12.5228299
20
-0.2204478
40
0.7516787
50
359.9925091
51
1.5431298
0
ARC
8
DEFAULT_255_1_388
10
12.6672914
20
-0.2250973
40
0.6072343
50
347.8572712
51
0.4294349
0
ARC
8
DEFAULT_255_1_388
10
12.8642049
20
-0.2697102
40
0.4053482
50
323.6727442
51
348.1674594
0
ARC
8
DEFAULT_255_1_388
10
12.8973013
20
-0.2898825
40
0.3667495
50
316.8171818
51
323.1486802
0
ARC
8
DEFAULT_255_1_388
10
12.9042137
20
-0.2940388
40
0.358869
50
281.839603
51
316.5458142
0
ARC
8
DEFAULT_255_1_388
10
12.8619425
20
-0.1190637
40
0.5388223
50
269.5770964
51
282.4214641
0
ARC
8
DEFAULT_255_1_388
10
12.8539345
20
-0.143107
40
0.5147801
50
256.2425863
51
270.4486481
0
ARC
8
DEFAULT_255_1_388
10
12.8202873
20
-0.2780876
40
0.3756708
50
228.9024379
51
256.33135
0
ARC
8
DEFAULT_255_1_388
10
12.8119853
20
-0.2911946
40
0.360344
50
193.7536029
51
228.5272638
0
ARC
8
DEFAULT_255_1_388
10
12.9512418
20
-0.2503537
40
0.5053599
50
184.9244437
51
194.4976052
0
ARC
8
DEFAULT_255_1_388
10
12.972906
20
-0.2463278
40
0.3700839
50
187.3596909
51
198.6733728
0
ARC
8
DEFAULT_255_1_388
10
12.8548303
20
-0.2872627
40
0.2451195
50
198.4453795
51
217.7945479
0
ARC
8
DEFAULT_255_1_388
10
12.8215476
20
-0.3108437
40
0.2043754
50
218.2887146
51
228.5613203
0
ARC
8
DEFAULT_255_1_388
10
12.8325482
20
-0.2960098
40
0.2227819
50
228.9652423
51
258.1237049
0
ARC
8
DEFAULT_255_1_388
10
12.855692
20
-0.1969036
40
0.3245374
50
257.7260585
51
270.4013717
0
ARC
8
DEFAULT_255_1_388
10
12.8607418
20
-0.2469745
40
0.2744726
50
269.4204315
51
286.420998
0
ARC
8
DEFAULT_255_1_388
10
12.8774474
20
-0.3076295
40
0.2115721
50
286.7250065
51
320.6004665
0
ARC
8
DEFAULT_255_1_388
10
12.8343389
20
-0.2726473
40
0.2670878
50
320.6712228
51
344.5440474
0
ARC
8
DEFAULT_255_1_388
10
12.7042103
20
-0.2344606
40
0.4026927
50
344.241448
51
356.735803
0
ARC
8
DEFAULT_255_1_388
10
12.563841
20
-0.2228344
40
0.5435085
50
356.3547471
51
0.0507222
0
ARC
8
DEFAULT_255_1_388
10
12.7140675
20
-0.2193188
40
0.3932934
50
359.5579289
51
12.9534322
0
ARC
8
DEFAULT_255_1_388
10
12.8327515
20
-0.1905414
40
0.2711827
50
12.6489751
51
41.608121
0
ARC
8
DEFAULT_255_1_388
10
12.8586675
20
-0.1685054
40
0.2371737
50
41.7851122
51
85.9892156
0
ARC
8
DEFAULT_255_1_388
10
12.8447985
20
-0.2600262
40
0.3295244
50
84.6965848
51
90.0672125
0
ARC
8
DEFAULT_255_1_388
10
12.8421553
20
-0.3351882
40
0.4046926
50
89.6804991
51
99.161352
0
ARC
8
DEFAULT_255_1_388
10
12.8190562
20
-0.1971152
40
0.2647044
50
98.9836248
51
113.8905702
0
ARC
8
DEFAULT_255_1_388
10
12.7932237
20
-0.1361882
40
0.1985386
50
114.195234
51
127.3641866
0
LINE
8
DEFAULT_255_1_388
10
14.0831988
20
0.6766934
11
14.1130165
21
0.6766934
0
LINE
8
DEFAULT_255_1_388
10
14.1130165
20
0.6766934
11
14.1130165
21
0.5348338
0
LINE
8
DEFAULT_255_1_388
10
14.1130165
20
0.5348338
11
14.0822953
21
0.5348338
0
LINE
8
DEFAULT_255_1_388
10
13.4669679
20
-0.1392253
11
13.4669679
21
-0.0750722
0
LINE
8
DEFAULT_255_1_388
10
13.6350309
20
-0.0967578
11
13.6350309
21
-0.1582001
0
ARC
8
DEFAULT_255_1_388
10
14.0881844
20
-0.0274174
40
0.562282
50
90.6001079
51
104.5146616
0
ARC
8
DEFAULT_255_1_388
10
14.0444804
20
0.13511
40
0.3939917
50
104.2855758
51
133.8630124
0
ARC
8
DEFAULT_255_1_388
10
14.0629056
20
0.1229243
40
0.4155734
50
134.5304124
51
161.6210222
0
ARC
8
DEFAULT_255_1_388
10
14.2488989
20
0.0573421
40
0.6127682
50
161.2850533
51
174.2074364
0
ARC
8
DEFAULT_255_1_388
10
14.4078555
20
0.0354437
40
0.7731446
50
173.7817938
51
174.9251711
0
ARC
8
DEFAULT_255_1_388
10
13.8952749
20
-0.120073
40
0.3412588
50
95.8332067
51
138.995412
0
ARC
8
DEFAULT_255_1_388
10
13.9204029
20
-0.2639305
40
0.4870358
50
89.8755506
51
97.0540979
0
ARC
8
DEFAULT_255_1_388
10
13.9257418
20
-0.1699159
40
0.3930432
50
71.6407016
51
90.6240821
0
ARC
8
DEFAULT_255_1_388
10
13.9426812
20
-0.1075567
40
0.3285421
50
39.6368051
51
71.0190743
0
ARC
8
DEFAULT_255_1_388
10
13.8710719
20
-0.1694414
40
0.4231706
50
10.6588054
51
39.9044509
0
ARC
8
DEFAULT_255_1_388
10
13.6969265
20
-0.2072777
40
0.60133
50
359.6827842
51
11.1326896
0
ARC
8
DEFAULT_255_1_388
10
13.6924601
20
-0.2152285
40
0.6058047
50
347.2485908
51
0.4371098
0
ARC
8
DEFAULT_255_1_388
10
13.8800386
20
-0.2603621
40
0.4128987
50
318.1408565
51
347.6118497
0
ARC
8
DEFAULT_255_1_388
10
13.9165983
20
-0.2904097
40
0.3656244
50
275.6342406
51
317.824739
0
ARC
8
DEFAULT_255_1_388
10
13.8917504
20
-0.1442173
40
0.513655
50
269.8872513
51
276.7916069
0
ARC
8
DEFAULT_255_1_388
10
13.8855697
20
-0.2595819
40
0.398323
50
246.9139443
51
270.7436787
0
ARC
8
DEFAULT_255_1_388
10
13.8862893
20
-0.2755956
40
0.3839368
50
218.1665534
51
245.8780431
0
ARC
8
DEFAULT_255_1_388
10
13.9852265
20
-0.1928097
40
0.5128958
50
191.4115343
51
218.6077624
0
ARC
8
DEFAULT_255_1_388
10
14.2032581
20
-0.1439223
40
0.7363054
50
179.6344971
51
191.7836758
0
ARC
8
DEFAULT_255_1_388
10
14.8312455
20
-0.0675505
40
1.3642984
50
171.4523743
51
180.3158856
0
ARC
8
DEFAULT_255_1_388
10
14.3368182
20
0.0093895
40
0.8639311
50
157.9802296
51
171.6246761
0
ARC
8
DEFAULT_255_1_388
10
14.0877533
20
0.1087038
40
0.5958004
50
141.4299236
51
157.8541251
0
ARC
8
DEFAULT_255_1_388
10
14.0155616
20
0.1597746
40
0.5075416
50
102.871586
51
140.8564533
0
ARC
8
DEFAULT_255_1_388
10
14.0884169
20
-0.1147057
40
0.7914163
50
90.377773
51
103.5868422
0
ARC
8
DEFAULT_255_1_388
10
13.892869
20
-0.1827457
40
0.2667015
50
89.8751238
51
126.2072139
0
ARC
8
DEFAULT_255_1_388
10
13.8980161
20
-0.2001153
40
0.2838229
50
124.9742447
51
144.8960197
0
ARC
8
DEFAULT_255_1_388
10
13.8782406
20
-0.1840019
40
0.2583845
50
145.2974778
51
160.2660922
0
ARC
8
DEFAULT_255_1_388
10
14.2238895
20
-0.1617849
40
0.5888695
50
179.6512124
51
190.285571
0
ARC
8
DEFAULT_255_1_388
10
14.0333374
20
-0.1977032
40
0.3949683
50
190.0944895
51
207.5099647
0
ARC
8
DEFAULT_255_1_388
10
13.9696956
20
-0.2279823
40
0.3245464
50
207.9585471
51
216.325377
0
ARC
8
DEFAULT_255_1_388
10
13.9314593
20
-0.2594288
40
0.2751259
50
215.7661336
51
232.5457193
0
ARC
8
DEFAULT_255_1_388
10
13.8883709
20
-0.3141727
40
0.2054668
50
232.8005815
51
270.6605497
0
ARC
8
DEFAULT_255_1_388
10
13.8935133
20
-0.2732147
40
0.2464268
50
269.3550767
51
288.474612
0
ARC
8
DEFAULT_255_1_388
10
13.903964
20
-0.3125279
40
0.2058436
50
289.1831976
51
322.9685307
0
ARC
8
DEFAULT_255_1_388
10
13.8351742
20
-0.2582721
40
0.2934408
50
322.6007085
51
346.5183319
0
ARC
8
DEFAULT_255_1_388
10
13.7049498
20
-0.2250566
40
0.4278249
50
346.2584622
51
358.7739592
0
ARC
8
DEFAULT_255_1_388
10
13.5898073
20
-0.2188171
40
0.5430876
50
358.3757628
51
0.0082477
0
ARC
8
DEFAULT_255_1_388
10
13.6754892
20
-0.2157144
40
0.4574157
50
359.6211417
51
11.28403
0
ARC
8
DEFAULT_255_1_388
10
13.8191498
20
-0.1857465
40
0.3106708
50
11.0483152
51
31.8145585
0
ARC
8
DEFAULT_255_1_388
10
13.8539203
20
-0.1668955
40
0.2711963
50
32.3028554
51
38.0820598
0
ARC
8
DEFAULT_255_1_388
10
13.9012436
20
-0.1240283
40
0.2075566
50
36.8249851
51
85.741667
0
ARC
8
DEFAULT_255_1_388
10
13.8936849
20
-0.1803935
40
0.2643487
50
85.0150021
51
90.050843
0
LINE
8
DEFAULT_255_1_388
10
14.8611678
20
-0.0127263
11
14.8611678
21
-0.1491645
0
LINE
8
DEFAULT_255_1_388
10
14.8611678
20
-0.1491645
11
14.4202284
21
-0.1491645
0
LINE
8
DEFAULT_255_1_388
10
14.4202284
20
-0.1491645
11
14.4202284
21
-0.0127263
0
LINE
8
DEFAULT_255_1_388
10
14.4202284
20
-0.0127263
11
14.8611678
21
-0.0127263
0
LINE
8
DEFAULT_255_1_388
10
15.2361471
20
0.6757898
11
15.2361471
21
-0.6398
0
LINE
8
DEFAULT_255_1_388
10
15.2361471
20
-0.6398
11
15.0626627
21
-0.6398
0
LINE
8
DEFAULT_255_1_388
10
15.0626627
20
-0.6398
11
15.0626627
21
0.6757898
0
LINE
8
DEFAULT_255_1_388
10
15.0626627
20
0.6757898
11
15.2361471
21
0.6757898
0
LINE
8
DEFAULT_255_1_388
10
16.321328
20
-0.6398
11
16.0358016
21
-0.1076005
0
LINE
8
DEFAULT_255_1_388
10
16.0358016
20
-0.1076005
11
15.7267826
21
-0.1076005
0
LINE
8
DEFAULT_255_1_388
10
15.7267826
20
-0.1076005
11
15.7267826
21
-0.6398
0
LINE
8
DEFAULT_255_1_388
10
15.7267826
20
-0.6398
11
15.5523946
21
-0.6398
0
LINE
8
DEFAULT_255_1_388
10
15.5523946
20
-0.6398
11
15.5523946
21
0.6757898
0
LINE
8
DEFAULT_255_1_388
10
15.5523946
20
0.6757898
11
15.9879127
21
0.6757898
0
LINE
8
DEFAULT_255_1_388
10
16.1984432
20
-0.0705544
11
16.5074623
21
-0.6289572
0
LINE
8
DEFAULT_255_1_388
10
16.5074623
20
-0.6289572
11
16.5074623
21
-0.6398
0
LINE
8
DEFAULT_255_1_388
10
16.5074623
20
-0.6398
11
16.321328
21
-0.6398
0
LINE
8
DEFAULT_255_1_388
10
15.7267826
20
0.5330267
11
15.7267826
21
0.0342591
0
LINE
8
DEFAULT_255_1_388
10
15.7267826
20
0.0342591
11
15.9933341
21
0.0342591
0
LINE
8
DEFAULT_255_1_388
10
15.9924305
20
0.5330267
11
15.7267826
21
0.5330267
0
ARC
8
DEFAULT_255_1_388
10
15.9925973
20
-0.1073654
40
0.7831693
50
80.6535681
51
90.3427203
0
ARC
8
DEFAULT_255_1_388
10
16.0397883
20
0.1696722
40
0.5021479
50
65.6987674
51
80.8330164
0
ARC
8
DEFAULT_255_1_388
10
16.0935177
20
0.2928479
40
0.3677787
50
50.0019152
51
65.4304412
0
ARC
8
DEFAULT_255_1_388
10
16.1180993
20
0.3260603
40
0.3265454
50
11.6284215
51
49.5603681
0
ARC
8
DEFAULT_255_1_388
10
15.9453479
20
0.2838524
40
0.5043009
50
359.5655533
51
12.3693319
0
ARC
8
DEFAULT_255_1_388
10
16.0664816
20
0.2768038
40
0.3831661
50
341.998418
51
0.4822212
0
ARC
8
DEFAULT_255_1_388
10
16.1109002
20
0.2647479
40
0.3372036
50
323.8610842
51
341.6141514
0
ARC
8
DEFAULT_255_1_388
10
16.0769548
20
0.2909615
40
0.3800784
50
296.7019299
51
323.6876213
0
ARC
8
DEFAULT_255_1_388
10
16.0273506
20
0.3796532
40
0.4816219
50
290.808313
51
297.2325929
0
ARC
8
DEFAULT_255_1_388
10
15.99623
20
0.4385377
40
0.404289
50
269.5895908
51
281.8058892
0
ARC
8
DEFAULT_255_1_388
10
16.0244566
20
0.309436
40
0.2721459
50
281.5499321
51
303.9358954
0
ARC
8
DEFAULT_255_1_388
10
16.0399101
20
0.2826588
40
0.2413121
50
304.4410786
51
311.211123
0
ARC
8
DEFAULT_255_1_388
10
16.0547506
20
0.2670152
40
0.2197678
50
310.9874923
51
356.2715203
0
ARC
8
DEFAULT_255_1_388
10
15.9697252
20
0.2796992
40
0.3055212
50
354.9346315
51
0.0617816
0
ARC
8
DEFAULT_255_1_388
10
15.9486093
20
0.2827427
40
0.3266482
50
359.5239293
51
12.8808621
0
ARC
8
DEFAULT_255_1_388
10
16.0585856
20
0.3096638
40
0.2134449
50
12.417206
51
43.1023141
0
ARC
8
DEFAULT_255_1_388
10
16.0655186
20
0.3138253
40
0.2055463
50
43.575886
51
48.2047245
0
ARC
8
DEFAULT_255_1_388
10
16.0464447
20
0.2889151
40
0.2368418
50
48.7809155
51
72.6968768
0
ARC
8
DEFAULT_255_1_388
10
16.0065811
20
0.1679385
40
0.364206
50
72.3699892
51
84.8793749
0
ARC
8
DEFAULT_255_1_388
10
15.9899817
20
0.0169651
40
0.5160674
50
84.5398226
51
89.7281165
0
LINE
8
DEFAULT_255_1_388
10
17.275492
20
0.6766934
11
17.3053097
21
0.6766934
0
LINE
8
DEFAULT_255_1_388
10
17.3053097
20
0.6766934
11
17.3053097
21
0.5348338
0
LINE
8
DEFAULT_255_1_388
10
17.3053097
20
0.5348338
11
17.2745885
21
0.5348338
0
LINE
8
DEFAULT_255_1_388
10
16.6592611
20
-0.1392253
11
16.6592611
21
-0.0750722
0
LINE
8
DEFAULT_255_1_388
10
16.8273241
20
-0.0967578
11
16.8273241
21
-0.1582001
0
ARC
8
DEFAULT_255_1_388
10
17.2804776
20
-0.0274174
40
0.562282
50
90.6001079
51
104.5146616
0
ARC
8
DEFAULT_255_1_388
10
17.2367736
20
0.13511
40
0.3939917
50
104.2855758
51
133.8630124
0
ARC
8
DEFAULT_255_1_388
10
17.2551988
20
0.1229243
40
0.4155734
50
134.5304124
51
161.6210222
0
ARC
8
DEFAULT_255_1_388
10
17.4411921
20
0.0573421
40
0.6127682
50
161.2850533
51
174.2074364
0
ARC
8
DEFAULT_255_1_388
10
17.6001488
20
0.0354437
40
0.7731446
50
173.7817938
51
174.9251711
0
ARC
8
DEFAULT_255_1_388
10
17.0875681
20
-0.120073
40
0.3412588
50
95.8332067
51
138.995412
0
ARC
8
DEFAULT_255_1_388
10
17.1126961
20
-0.2639305
40
0.4870358
50
89.8755506
51
97.0540979
0
ARC
8
DEFAULT_255_1_388
10
17.1180351
20
-0.1699159
40
0.3930432
50
71.6407016
51
90.6240821
0
ARC
8
DEFAULT_255_1_388
10
17.1349744
20
-0.1075567
40
0.3285421
50
39.6368051
51
71.0190743
0
ARC
8
DEFAULT_255_1_388
10
17.0633652
20
-0.1694414
40
0.4231706
50
10.6588054
51
39.9044509
0
ARC
8
DEFAULT_255_1_388
10
16.8892197
20
-0.2072777
40
0.60133
50
359.6827842
51
11.1326896
0
ARC
8
DEFAULT_255_1_388
10
16.8847533
20
-0.2152285
40
0.6058047
50
347.2485908
51
0.4371098
0
ARC
8
DEFAULT_255_1_388
10
17.0723318
20
-0.2603621
40
0.4128987
50
318.1408565
51
347.6118497
0
ARC
8
DEFAULT_255_1_388
10
17.1088915
20
-0.2904097
40
0.3656244
50
275.6342406
51
317.824739
0
ARC
8
DEFAULT_255_1_388
10
17.0840436
20
-0.1442173
40
0.513655
50
269.8872513
51
276.7916069
0
ARC
8
DEFAULT_255_1_388
10
17.0778629
20
-0.2595819
40
0.398323
50
246.9139443
51
270.7436787
0
ARC
8
DEFAULT_255_1_388
10
17.0785825
20
-0.2755956
40
0.3839368
50
218.1665534
51
245.8780431
0
ARC
8
DEFAULT_255_1_388
10
17.1775197
20
-0.1928097
40
0.5128958
50
191.4115343
51
218.6077624
0
ARC
8
DEFAULT_255_1_388
10
17.3955513
20
-0.1439223
40
0.7363054
50
179.6344971
51
191.7836758
0
ARC
8
DEFAULT_255_1_388
10
18.0235387
20
-0.0675505
40
1.3642984
50
171.4523743
51
180.3158856
0
ARC
8
DEFAULT_255_1_388
10
17.5291114
20
0.0093895
40
0.8639311
50
157.9802296
51
171.6246761
0
ARC
8
DEFAULT_255_1_388
10
17.2800465
20
0.1087038
40
0.5958004
50
141.4299236
51
157.8541251
0
ARC
8
DEFAULT_255_1_388
10
17.2078549
20
0.1597746
40
0.5075416
50
102.871586
51
140.8564533
0
ARC
8
DEFAULT_255_1_388
10
17.2807101
20
-0.1147057
40
0.7914163
50
90.377773
51
103.5868422
0
ARC
8
DEFAULT_255_1_388
10
17.0851622
20
-0.1827457
40
0.2667015
50
89.8751238
51
126.2072139
0
ARC
8
DEFAULT_255_1_388
10
17.0903093
20
-0.2001153
40
0.2838229
50
124.9742447
51
144.8960197
0
ARC
8
DEFAULT_255_1_388
10
17.0705338
20
-0.1840019
40
0.2583845
50
145.2974778
51
160.2660922
0
ARC
8
DEFAULT_255_1_388
10
17.4161827
20
-0.1617849
40
0.5888695
50
179.6512124
51
190.285571
0
ARC
8
DEFAULT_255_1_388
10
17.2256306
20
-0.1977032
40
0.3949683
50
190.0944895
51
207.5099647
0
ARC
8
DEFAULT_255_1_388
10
17.1619888
20
-0.2279823
40
0.3245464
50
207.9585471
51
216.325377
0
ARC
8
DEFAULT_255_1_388
10
17.1237525
20
-0.2594288
40
0.2751259
50
215.7661336
51
232.5457193
0
ARC
8
DEFAULT_255_1_388
10
17.0806641
20
-0.3141727
40
0.2054668
50
232.8005815
51
270.6605497
0
ARC
8
DEFAULT_255_1_388
10
17.0858065
20
-0.2732147
40
0.2464268
50
269.3550767
51
288.474612
0
ARC
8
DEFAULT_255_1_388
10
17.0962572
20
-0.3125279
40
0.2058436
50
289.1831976
51
322.9685307
0
ARC
8
DEFAULT_255_1_388
10
17.0274674
20
-0.2582721
40
0.2934408
50
322.6007085
51
346.5183319
0
ARC
8
DEFAULT_255_1_388
10
16.897243
20
-0.2250566
40
0.4278249
50
346.2584622
51
358.7739592
0
ARC
8
DEFAULT_255_1_388
10
16.7821005
20
-0.2188171
40
0.5430876
50
358.3757628
51
0.0082477
0
ARC
8
DEFAULT_255_1_388
10
16.8677824
20
-0.2157144
40
0.4574157
50
359.6211417
51
11.28403
0
ARC
8
DEFAULT_255_1_388
10
17.011443
20
-0.1857465
40
0.3106708
50
11.0483152
51
31.8145585
0
ARC
8
DEFAULT_255_1_388
10
17.0462135
20
-0.1668955
40
0.2711963
50
32.3028554
51
38.0820598
0
ARC
8
DEFAULT_255_1_388
10
17.0935368
20
-0.1240283
40
0.2075566
50
36.8249851
51
85.741667
0
ARC
8
DEFAULT_255_1_388
10
17.0859781
20
-0.1803935
40
0.2643487
50
85.0150021
51
90.050843
0
LINE
8
DEFAULT_255_1_388
10
17.9179264
20
0.6757898
11
17.9179264
21
-0.6398
0
LINE
8
DEFAULT_255_1_388
10
17.9179264
20
-0.6398
11
17.744442
21
-0.6398
0
LINE
8
DEFAULT_255_1_388
10
17.744442
20
-0.6398
11
17.744442
21
0.6757898
0
LINE
8
DEFAULT_255_1_388
10
17.744442
20
0.6757898
11
17.9179264
21
0.6757898
0
LINE
8
DEFAULT_255_2_778
10
11.0359959
20
88.6806531
11
10.9838959
21
89.0179531
0
LINE
8
DEFAULT_255_2_778
10
10.9838959
20
89.0179531
11
10.4068959
21
89.0179531
0
LINE
8
DEFAULT_255_2_778
10
10.4068959
20
89.0179531
11
10.2364959
21
88.6806531
0
LINE
8
DEFAULT_255_2_778
10
10.2364959
20
88.6806531
11
9.8694959
21
88.6806531
0
LINE
8
DEFAULT_255_2_778
10
9.8694959
20
88.6806531
11
10.7531959
21
90.3181531
0
LINE
8
DEFAULT_255_2_778
10
10.7531959
20
90.3181531
11
11.0608959
21
90.3181531
0
LINE
8
DEFAULT_255_2_778
10
11.0608959
20
90.3181531
11
11.3754959
21
88.6806531
0
LINE
8
DEFAULT_255_2_778
10
11.3754959
20
88.6806531
11
11.0357959
21
88.6806531
0
LINE
8
DEFAULT_255_2_778
10
11.0357959
20
88.6806531
11
11.0359959
21
88.6806531
0
LINE
8
DEFAULT_255_2_778
10
10.8486959
20
89.9009531
11
10.5430959
21
89.2913531
0
LINE
8
DEFAULT_255_2_778
10
10.5430959
20
89.2913531
11
10.9418959
21
89.2913531
0
LINE
8
DEFAULT_255_2_778
10
10.9418959
20
89.2913531
11
10.8486959
21
89.9009531
0
LINE
8
DEFAULT_255_2_778
10
10.8486959
20
89.9009531
11
10.8486959
21
89.9009531
0
LINE
8
DEFAULT_255_2_778
10
12.1615594
20
90.4081646
11
11.8593594
21
88.6804646
0
LINE
8
DEFAULT_255_2_778
10
11.8593594
20
88.6804646
11
11.5368594
21
88.6804646
0
LINE
8
DEFAULT_255_2_778
10
11.5368594
20
88.6804646
11
11.8400594
21
90.4081646
0
LINE
8
DEFAULT_255_2_778
10
11.8400594
20
90.4081646
11
12.1615594
21
90.4081646
0
LINE
8
DEFAULT_255_2_778
10
12.1615594
20
90.4081646
11
12.1615594
21
90.4081646
0
LINE
8
DEFAULT_255_2_778
10
12.7717594
20
90.4081646
11
12.4695594
21
88.6804646
0
LINE
8
DEFAULT_255_2_778
10
12.4695594
20
88.6804646
11
12.1470594
21
88.6804646
0
LINE
8
DEFAULT_255_2_778
10
12.1470594
20
88.6804646
11
12.4502594
21
90.4081646
0
LINE
8
DEFAULT_255_2_778
10
12.4502594
20
90.4081646
11
12.7717594
21
90.4081646
0
LINE
8
DEFAULT_255_2_778
10
12.7717594
20
90.4081646
11
12.7717594
21
90.4081646
0
ARC
8
DEFAULT_255_2_778
10
13.3180767
20
89.1962764
40
0.5383522
50
238.763891
51
270.7055166
0
ARC
8
DEFAULT_255_2_778
10
13.2867625
20
89.140952
40
0.4748131
50
204.061185
51
238.5328679
0
ARC
8
DEFAULT_255_2_778
10
13.3693681
20
89.1805331
40
0.5663841
50
179.4896096
51
204.3103027
0
ARC
8
DEFAULT_255_2_778
10
13.4933843
20
89.1850727
40
0.6903781
50
175.123126
51
179.9580366
0
ARC
8
DEFAULT_255_2_778
10
13.5850479
20
89.2200152
40
0.7790728
50
149.5392097
51
174.9446897
0
ARC
8
DEFAULT_255_2_778
10
13.459184
20
89.3035212
40
0.628301
50
120.7003982
51
150.2846053
0
ARC
8
DEFAULT_255_2_778
10
13.4196851
20
89.3632024
40
0.556829
50
89.4236852
51
120.3409826
0
ARC
8
DEFAULT_255_2_778
10
13.4252352
20
89.2644671
40
0.6555361
50
88.4553682
51
89.9955718
0
ARC
8
DEFAULT_255_2_778
10
13.4481363
20
89.4486369
40
0.4711572
50
58.4514404
51
90.636095
0
ARC
8
DEFAULT_255_2_778
10
13.4744403
20
89.5120423
40
0.403504
50
35.6058989
51
56.9235594
0
ARC
8
DEFAULT_255_2_778
10
13.3641882
20
89.4382058
40
0.5361477
50
0.6851965
51
35.1616077
0
ARC
8
DEFAULT_255_2_778
10
13.1616313
20
89.4178229
40
0.7391521
50
359.9888194
51
2.0774415
0
ARC
8
DEFAULT_255_2_778
10
13.0480025
20
89.4195249
40
0.852783
50
353.383538
51
359.8759623
0
ARC
8
DEFAULT_255_2_778
10
13.534221
20
89.1671119
40
0.4107176
50
177.8018731
51
179.9839782
0
ARC
8
DEFAULT_255_2_778
10
13.3756217
20
89.155624
40
0.2523852
50
177.3650374
51
219.8309448
0
ARC
8
DEFAULT_255_2_778
10
13.3462068
20
89.1423401
40
0.2214564
50
222.0668323
51
271.55222
0
ARC
8
DEFAULT_255_2_778
10
13.3632002
20
89.3471289
40
0.4263057
50
268.5221572
51
269.9980687
0
ARC
8
DEFAULT_255_2_778
10
13.3616001
20
89.3175217
40
0.3967017
50
270.2290309
51
318.5203973
0
ARC
8
DEFAULT_255_2_778
10
13.4310056
20
89.1342979
40
0.4555006
50
292.4982989
51
325.2807674
0
ARC
8
DEFAULT_255_2_778
10
13.3411907
20
89.3128545
40
0.6549996
50
269.6158853
51
293.7802026
0
ARC
8
DEFAULT_255_2_778
10
13.3368026
20
89.399733
40
0.7418635
50
269.0811303
51
269.9997673
0
ARC
8
DEFAULT_255_2_778
10
13.4205249
20
89.3926977
40
0.2651417
50
88.6426435
51
89.9971979
0
ARC
8
DEFAULT_255_2_778
10
13.4187009
20
89.4279788
40
0.2298681
50
89.5421073
51
130.5025885
0
ARC
8
DEFAULT_255_2_778
10
13.5174398
20
89.3278327
40
0.370282
50
132.0556576
51
154.4346079
0
ARC
8
DEFAULT_255_2_778
10
13.9187288
20
89.1102869
40
0.8264843
50
152.8348001
51
159.2008974
0
ARC
8
DEFAULT_255_2_778
10
13.283715
20
89.4812268
40
0.3137404
50
351.1327381
51
359.8552777
0
ARC
8
DEFAULT_255_2_778
10
13.3301744
20
89.4808274
40
0.2672803
50
359.9157472
51
8.073482
0
ARC
8
DEFAULT_255_2_778
10
13.4328726
20
89.4961276
40
0.1634528
50
7.8192239
51
49.4174523
0
ARC
8
DEFAULT_255_2_778
10
13.4309336
20
89.4829377
40
0.174876
50
51.746929
51
91.3525911
0
LINE
8
DEFAULT_255_2_778
10
12.8055056
20
89.243765
11
12.8090056
21
89.288665
0
LINE
8
DEFAULT_255_2_778
10
13.8951056
20
89.321265
11
13.8768056
21
89.182865
0
LINE
8
DEFAULT_255_2_778
10
13.8768056
20
89.182865
11
13.1238056
21
89.182865
0
LINE
8
DEFAULT_255_2_778
10
13.6588056
20
89.054765
11
13.8054056
21
88.874865
0
LINE
8
DEFAULT_255_2_778
10
13.3249056
20
88.657965
11
13.3247056
21
88.657965
0
LINE
8
DEFAULT_255_2_778
10
13.1461056
20
89.403765
11
13.5868056
21
89.403765
0
LINE
8
DEFAULT_255_2_778
10
13.5868056
20
89.403765
11
13.5937056
21
89.432865
0
LINE
8
DEFAULT_255_2_778
10
13.4268056
20
89.657765
11
13.4268056
21
89.657765
0
ARC
8
DEFAULT_255_2_778
10
14.7973588
20
89.4763783
40
0.4439397
50
89.8554796
51
141.1589213
0
ARC
8
DEFAULT_255_2_778
10
14.7984572
20
89.415443
40
0.5048737
50
88.7717605
51
89.9975792
0
ARC
8
DEFAULT_255_2_778
10
14.8178417
20
89.6043406
40
0.315976
50
50.4893295
51
91.5528058
0
ARC
8
DEFAULT_255_2_778
10
14.8339359
20
89.6387178
40
0.2793745
50
33.8414583
51
48.5499238
0
ARC
8
DEFAULT_255_2_778
10
14.731985
20
89.5798286
40
0.3969262
50
4.3932888
51
32.7062485
0
ARC
8
DEFAULT_255_2_778
10
14.4819065
20
89.5444301
40
0.6491822
50
359.8769204
51
5.8177478
0
ARC
8
DEFAULT_255_2_778
10
14.2701804
20
89.5453881
40
0.8609097
50
353.9399056
51
359.8434284
0
ARC
8
DEFAULT_255_2_778
10
14.4164047
20
89.5110967
40
0.3954956
50
352.2407688
51
359.7520116
0
ARC
8
DEFAULT_255_2_778
10
14.5201997
20
89.5099041
40
0.2916973
50
359.8980094
51
5.448398
0
ARC
8
DEFAULT_255_2_778
10
14.6814536
20
89.5270865
40
0.129553
50
4.6550554
51
97.2610773
0
ARC
8
DEFAULT_255_2_778
10
14.655996
20
89.4013531
40
0.2544097
50
87.9539208
51
89.9945997
0
ARC
8
DEFAULT_255_2_778
10
14.6629447
20
89.3857668
40
0.2700847
50
91.4691634
51
141.078713
0
ARC
8
DEFAULT_255_2_778
10
14.7966376
20
89.2439301
40
0.4639576
50
137.8219849
51
140.394746
0
ARC
8
DEFAULT_255_2_778
10
16.9661161
20
89.290711
40
1.026426
50
77.5141066
51
90.4821212
0
ARC
8
DEFAULT_255_2_778
10
17.0845798
20
89.7999611
40
0.5036389
50
52.814306
51
78.1469212
0
ARC
8
DEFAULT_255_2_778
10
17.1732245
20
89.9282438
40
0.3479303
50
357.5432245
51
51.6759047
0
ARC
8
DEFAULT_255_2_778
10
16.9814613
20
89.9136938
40
0.5393738
50
356.248244
51
359.9613012
0
ARC
8
DEFAULT_255_2_778
10
17.128092
20
89.9010882
40
0.3922439
50
295.0867564
51
356.6841236
0
ARC
8
DEFAULT_255_2_778
10
16.9599154
20
90.1638279
40
0.7026958
50
292.6018649
51
298.4245718
0
ARC
8
DEFAULT_255_2_778
10
17.1412835
20
89.251175
40
0.2784307
50
29.5992916
51
71.4243751
0
ARC
8
DEFAULT_255_2_778
10
17.0686219
20
89.2089727
40
0.3624559
50
358.8250622
51
29.7265593
0
ARC
8
DEFAULT_255_2_778
10
16.932071
20
89.2018262
40
0.4989307
50
356.3312443
51
359.9671937
0
ARC
8
DEFAULT_255_2_778
10
16.9581925
20
89.1830387
40
0.4719696
50
307.6792206
51
358.4048608
0
ARC
8
DEFAULT_255_2_778
10
16.8807048
20
89.3038643
40
0.6150877
50
279.1080464
51
306.5123219
0
ARC
8
DEFAULT_255_2_778
10
16.7961448
20
89.7259116
40
1.0453321
50
269.63465
51
280.0226117
0
ARC
8
DEFAULT_255_2_778
10
16.8094212
20
89.2910308
40
0.3407431
50
267.9747348
51
304.6141501
0
ARC
8
DEFAULT_255_2_778
10
16.8661516
20
89.2048067
40
0.2375665
50
305.166569
51
352.3059676
0
ARC
8
DEFAULT_255_2_778
10
16.775822
20
89.2258166
40
0.3300111
50
350.7906063
51
359.6837465
0
ARC
8
DEFAULT_255_2_778
10
16.9356152
20
89.2314465
40
0.170376
50
357.4933304
51
35.754963
0
ARC
8
DEFAULT_255_2_778
10
16.9423472
20
89.2171963
40
0.1739313
50
40.8670445
51
88.9145542
0
ARC
8
DEFAULT_255_2_778
10
16.9113357
20
89.0319792
40
0.360752
50
84.5431107
51
87.5464559
0
ARC
8
DEFAULT_255_2_778
10
16.8864523
20
90.0040688
40
0.3741259
50
268.9933192
51
299.9063201
0
ARC
8
DEFAULT_255_2_778
10
16.9296435
20
89.9112438
40
0.2722705
50
301.7671328
51
305.0688299
0
ARC
8
DEFAULT_255_2_778
10
16.9572403
20
89.8751463
40
0.2268776
50
304.6024496
51
352.3134516
0
ARC
8
DEFAULT_255_2_778
10
16.9035208
20
89.8858322
40
0.2815642
50
351.6205962
51
359.745937
0
ARC
8
DEFAULT_255_2_778
10
17.0391775
20
89.8919083
40
0.1460884
50
357.1260689
51
87.9509322
0
ARC
8
DEFAULT_255_2_778
10
16.9733166
20
89.6125677
40
0.4312349
50
80.5121161
51
90.1776895
0
ARC
8
DEFAULT_255_2_778
10
18.304359
20
88.9407308
40
0.6634375
50
79.3314563
51
88.7113465
0
ARC
8
DEFAULT_255_2_778
10
18.3079683
20
89.1741839
40
0.4299655
50
88.4925657
51
89.9946723
0
ARC
8
DEFAULT_255_2_778
10
18.2982438
20
89.2942608
40
0.3100425
50
88.1952228
51
143.885382
0
ARC
8
DEFAULT_255_2_778
10
18.4077805
20
89.5392129
40
0.3980768
50
117.0828142
51
147.9763761
0
ARC
8
DEFAULT_255_2_778
10
18.3544747
20
89.6225295
40
0.2997784
50
89.5977622
51
115.2613452
0
ARC
8
DEFAULT_255_2_778
10
18.3464621
20
89.4503482
40
0.4720608
50
75.0830674
51
88.7719532
0
ARC
8
DEFAULT_255_2_778
10
19.3883565
20
88.7675588
40
0.303463
50
178.9513385
51
196.6911244
0
ARC
8
DEFAULT_255_2_778
10
19.5567182
20
88.7729238
40
0.4717738
50
177.8405456
51
179.9770623
0
ARC
8
DEFAULT_255_2_778
10
18.7787325
20
89.0775947
40
0.4198561
50
270.5473861
51
316.8967404
0
ARC
8
DEFAULT_255_2_778
10
18.7827705
20
89.0879581
40
0.4302003
50
268.5226571
51
269.9964175
0
ARC
8
DEFAULT_255_2_778
10
18.7647216
20
89.0360252
40
0.3781887
50
226.455184
51
271.0541416
0
ARC
8
DEFAULT_255_2_778
10
18.7161161
20
88.9906869
40
0.311866
50
179.0506747
51
227.1894377
0
ARC
8
DEFAULT_255_2_778
10
18.7977006
20
88.9957683
40
0.3934079
50
177.4603384
51
179.9875271
0
ARC
8
DEFAULT_255_2_778
10
18.7677222
20
89.0117892
40
0.3630457
50
122.3464314
51
179.7772632
0
ARC
8
DEFAULT_255_2_778
10
18.9127921
20
88.7846577
40
0.6325515
50
98.6956815
51
122.4402135
0
ARC
8
DEFAULT_255_2_778
10
18.9977072
20
88.3296789
40
1.0952432
50
89.6404969
51
99.4883828
0
ARC
8
DEFAULT_255_2_778
10
18.91142
20
89.544956
40
0.2635833
50
349.2520325
51
359.7979352
0
ARC
8
DEFAULT_255_2_778
10
18.9485896
20
89.5441836
40
0.2264121
50
359.9602232
51
5.7075699
0
ARC
8
DEFAULT_255_2_778
10
19.0517084
20
89.5583244
40
0.1224577
50
3.9221136
51
47.9806675
0
ARC
8
DEFAULT_255_2_778
10
19.0461009
20
89.5409028
40
0.1393558
50
51.0640414
51
91.6537281
0
ARC
8
DEFAULT_255_2_778
10
19.0343864
20
89.4067856
40
0.2735232
50
88.3883484
51
89.9950272
0
ARC
8
DEFAULT_255_2_778
10
19.0289472
20
89.4846996
40
0.1956856
50
88.4002709
51
125.6558116
0
ARC
8
DEFAULT_255_2_778
10
19.0229477
20
89.5029867
40
0.1774238
50
127.5242925
51
170.6536699
0
ARC
8
DEFAULT_255_2_778
10
18.8789596
20
89.5167573
40
0.3527561
50
122.7014157
51
177.7346919
0
ARC
8
DEFAULT_255_2_778
10
19.030198
20
89.3117043
40
0.6072396
50
91.7146868
51
124.2570002
0
ARC
8
DEFAULT_255_2_778
10
19.05893
20
89.0548064
40
0.865138
50
89.9735854
51
93.1077226
0
ARC
8
DEFAULT_255_2_778
10
19.0592938
20
88.998256
40
0.9216883
50
89.4414218
51
89.9978259
0
ARC
8
DEFAULT_255_2_778
10
19.0704714
20
89.3997068
40
0.5201984
50
63.6868659
51
90.2414521
0
ARC
8
DEFAULT_255_2_778
10
19.1244671
20
89.5276249
40
0.3816898
50
44.805062
51
62.4405121
0
ARC
8
DEFAULT_255_2_778
10
19.1511934
20
89.5518957
40
0.3456276
50
358.4368244
51
45.0725574
0
ARC
8
DEFAULT_255_2_778
10
18.9988451
20
89.5432092
40
0.4978477
50
354.0151208
51
359.9146153
0
ARC
8
DEFAULT_255_2_778
10
19.916384
20
88.8209006
40
0.5223437
50
178.2666392
51
179.9853875
0
ARC
8
DEFAULT_255_2_778
10
19.7189724
20
88.8130635
40
0.3250299
50
178.5948625
51
200.018038
0
ARC
8
DEFAULT_255_2_778
10
18.8607749
20
89.2019835
40
0.2979407
50
268.1351457
51
269.9967975
0
ARC
8
DEFAULT_255_2_778
10
18.8555143
20
89.1994809
40
0.2954847
50
271.0168715
51
323.4470831
0
ARC
8
DEFAULT_255_2_778
10
19.0185177
20
88.8399003
40
0.3950093
50
89.6139406
51
115.9632081
0
ARC
8
DEFAULT_255_2_778
10
18.9568146
20
88.9810476
40
0.2411766
50
117.4642621
51
142.4598629
0
ARC
8
DEFAULT_255_2_778
10
18.9147894
20
89.0179762
40
0.1853888
50
143.595728
51
174.110017
0
ARC
8
DEFAULT_255_2_778
10
18.8922711
20
89.0124244
40
0.1637466
50
171.368069
51
179.7835889
0
ARC
8
DEFAULT_255_2_778
10
18.8267207
20
89.0093088
40
0.098266
50
177.8221965
51
224.0379617
0
ARC
8
DEFAULT_255_2_778
10
18.8464576
20
89.0343517
40
0.1299333
50
225.9269812
51
272.0384171
0
ARC
8
DEFAULT_255_2_778
10
20.216987
20
89.5694976
40
0.3515032
50
37.8132465
51
89.9360651
0
ARC
8
DEFAULT_255_2_778
10
20.0346749
20
89.0792418
40
0.4267183
50
285.291584
51
321.0175046
0
ARC
8
DEFAULT_255_2_778
10
20.0570669
20
89.0330225
40
0.3763475
50
269.8450062
51
283.8588709
0
ARC
8
DEFAULT_255_2_778
10
20.0560587
20
89.0657286
40
0.4090522
50
268.5880369
51
269.9986183
0
ARC
8
DEFAULT_255_2_778
10
20.0420305
20
89.0125487
40
0.3557701
50
236.3475668
51
270.6359501
0
ARC
8
DEFAULT_255_2_778
10
20.0598141
20
89.0240321
40
0.3752788
50
201.8435891
51
235.058908
0
ARC
8
DEFAULT_255_2_778
10
20.3322211
20
89.1430871
40
0.6724873
50
181.1917384
51
202.6233367
0
ARC
8
DEFAULT_255_2_778
10
20.6351677
20
89.1761339
40
0.9764219
50
180.0156472
51
182.7609519
0
ARC
8
DEFAULT_255_2_778
10
20.5470549
20
89.1767658
40
0.8883095
50
174.2087211
51
180.0579587
0
ARC
8
DEFAULT_255_2_778
10
20.6346038
20
89.1896468
40
0.9727968
50
152.6606942
51
172.4775279
0
ARC
8
DEFAULT_255_2_778
10
20.4685375
20
89.2641269
40
0.7911386
50
151.1967159
51
151.9287309
0
ARC
8
DEFAULT_255_2_778
10
20.2724416
20
89.3881657
40
0.559722
50
125.8155177
51
152.6517649
0
ARC
8
DEFAULT_255_2_778
10
20.1926864
20
89.4826789
40
0.4365104
50
121.2895022
51
124.5859333
0
ARC
8
DEFAULT_255_2_778
10
20.2005174
20
89.4683255
40
0.4528439
50
89.3885498
51
121.1930117
0
ARC
8
DEFAULT_255_2_778
10
20.205315
20
89.3865492
40
0.5345942
50
88.6747242
51
89.9962477
0
ARC
8
DEFAULT_255_2_778
10
21.0229427
20
89.1491181
40
1.044966
50
173.5557888
51
179.5636493
0
ARC
8
DEFAULT_255_2_778
10
20.5582157
20
89.156089
40
0.5802095
50
179.9025124
51
183.3187157
0
ARC
8
DEFAULT_255_2_778
10
20.270534
20
89.127149
40
0.2915917
50
180.9134286
51
207.6247443
0
ARC
8
DEFAULT_255_2_778
10
20.135005
20
89.0627881
40
0.1417894
50
209.9763709
51
272.172214
0
ARC
8
DEFAULT_255_2_778
10
20.1512082
20
89.1865383
40
0.2656585
50
267.6638236
51
269.9934853
0
ARC
8
DEFAULT_255_2_778
10
20.1452669
20
89.1903962
40
0.2695812
50
271.2564257
51
323.4819236
0
ARC
8
DEFAULT_255_2_778
10
20.0042443
20
89.3292425
40
0.4663623
50
320.0808185
51
322.7722781
0
ARC
8
DEFAULT_255_2_778
10
20.2905955
20
89.4755938
40
0.1811681
50
17.7085133
51
91.4917236
0
ARC
8
DEFAULT_255_2_778
10
20.2776466
20
89.3748302
40
0.2819906
50
88.3270304
51
89.9962875
0
ARC
8
DEFAULT_255_2_778
10
20.2751839
20
89.4229886
40
0.2338453
50
89.3920923
51
141.8934507
0
ARC
8
DEFAULT_255_2_778
10
20.4150372
20
89.3133724
40
0.411538
50
141.9009784
51
164.0634131
0
ARC
8
DEFAULT_255_2_778
10
20.9401614
20
89.1456385
40
0.9626867
50
163.0454941
51
172.7936709
0
LINE
8
DEFAULT_255_2_778
10
14.1790793
20
89.8977006
11
14.4788793
21
89.8988006
0
LINE
8
DEFAULT_255_2_778
10
14.4788793
20
89.8988006
11
14.4515793
21
89.7548006
0
LINE
8
DEFAULT_255_2_778
10
15.1262793
20
89.4545006
11
14.9968793
21
88.6806006
0
LINE
8
DEFAULT_255_2_778
10
14.9968793
20
88.6806006
11
14.6764793
21
88.6806006
0
LINE
8
DEFAULT_255_2_778
10
14.6764793
20
88.6806006
11
14.8082793
21
89.4577006
0
LINE
8
DEFAULT_255_2_778
10
14.4391793
20
89.5397006
11
14.2856793
21
88.6804006
0
LINE
8
DEFAULT_255_2_778
10
14.2856793
20
88.6804006
11
13.9652793
21
88.6804006
0
LINE
8
DEFAULT_255_2_778
10
13.9652793
20
88.6804006
11
14.1787793
21
89.8975006
0
LINE
8
DEFAULT_255_2_778
10
14.1787793
20
89.8975006
11
14.1790793
21
89.8977006
0
LINE
8
DEFAULT_255_2_778
10
16.0157793
20
89.5128006
11
15.9692793
21
89.2508006
0
LINE
8
DEFAULT_255_2_778
10
15.9692793
20
89.2508006
11
15.3466793
21
89.2508006
0
LINE
8
DEFAULT_255_2_778
10
15.3466793
20
89.2508006
11
15.3921793
21
89.5128006
0
LINE
8
DEFAULT_255_2_778
10
15.3921793
20
89.5128006
11
16.0157793
21
89.5128006
0
LINE
8
DEFAULT_255_2_778
10
16.0157793
20
89.5128006
11
16.0157793
21
89.5128006
0
LINE
8
DEFAULT_255_2_778
10
16.7894793
20
88.6806006
11
16.1544793
21
88.6806006
0
LINE
8
DEFAULT_255_2_778
10
16.1544793
20
88.6806006
11
16.4417793
21
90.3181006
0
LINE
8
DEFAULT_255_2_778
10
16.4417793
20
90.3181006
11
16.9574793
21
90.3171006
0
LINE
8
DEFAULT_255_2_778
10
16.7894793
20
88.6806006
11
16.7894793
21
88.6806006
0
LINE
8
DEFAULT_255_2_778
10
16.9267793
20
89.3926006
11
16.6131793
21
89.3937006
0
LINE
8
DEFAULT_255_2_778
10
16.6131793
20
89.3937006
11
16.5348793
21
88.9516006
0
LINE
8
DEFAULT_255_2_778
10
16.5348793
20
88.9516006
11
16.7973793
21
88.9505006
0
LINE
8
DEFAULT_255_2_778
10
16.9267793
20
89.3924006
11
16.9267793
21
89.3926006
0
LINE
8
DEFAULT_255_2_778
10
16.7267793
20
90.0451006
11
16.6539793
21
89.6323006
0
LINE
8
DEFAULT_255_2_778
10
16.6539793
20
89.6323006
11
16.8798793
21
89.6300006
0
LINE
8
DEFAULT_255_2_778
10
16.9719793
20
90.0438006
11
16.7267793
21
90.0448006
0
LINE
8
DEFAULT_255_2_778
10
16.7267793
20
90.0448006
11
16.7267793
21
90.0451006
0
LINE
8
DEFAULT_255_2_778
10
18.4681793
20
89.9065006
11
18.4271793
21
89.5927006
0
LINE
8
DEFAULT_255_2_778
10
18.0477793
20
89.4770006
11
17.9056793
21
88.6806006
0
LINE
8
DEFAULT_255_2_778
10
17.9056793
20
88.6806006
11
17.5852793
21
88.6806006
0
LINE
8
DEFAULT_255_2_778
10
17.5852793
20
88.6806006
11
17.7987793
21
89.8977006
0
LINE
8
DEFAULT_255_2_778
10
17.7987793
20
89.8977006
11
18.0998793
21
89.8988006
0
LINE
8
DEFAULT_255_2_778
10
18.0998793
20
89.8988006
11
18.0702793
21
89.7503006
0
LINE
8
DEFAULT_255_2_778
10
18.4679793
20
89.9065006
11
18.4681793
21
89.9065006
0
LINE
8
DEFAULT_255_2_778
10
19.4122793
20
88.6804006
11
19.0976793
21
88.6804006
0
LINE
8
DEFAULT_255_2_778
10
19.0045793
20
89.4249006
11
19.1545793
21
89.4228006
0
LINE
8
DEFAULT_255_2_778
10
19.1545793
20
89.4228006
11
19.1703793
21
89.4958006
0
LINE
8
DEFAULT_255_2_778
10
18.8478793
20
89.5318006
11
18.5264793
21
89.5307006
0
LINE
8
DEFAULT_255_2_778
10
19.4939793
20
89.4913006
11
19.3997793
21
88.9087006
0
LINE
8
DEFAULT_255_2_778
10
19.3997793
20
88.9087006
11
19.3942793
21
88.8367006
0
LINE
8
DEFAULT_255_2_778
10
19.4135793
20
88.7018006
11
19.4124793
21
88.6804006
0
LINE
8
DEFAULT_255_2_778
10
19.4124793
20
88.6804006
11
19.4122793
21
88.6804006
0
LINE
8
DEFAULT_255_2_778
10
19.0928793
20
89.0235006
11
19.1325793
21
89.2339006
0
LINE
8
DEFAULT_255_2_778
10
19.1325793
20
89.2339006
11
19.0211793
21
89.2349006
0
LINE
8
DEFAULT_255_2_778
10
18.8510793
20
88.9045006
11
18.8510793
21
88.9042006
0
LINE
8
DEFAULT_255_2_778
10
20.4946793
20
89.7850006
11
20.6150793
21
90.4081006
0
LINE
8
DEFAULT_255_2_778
10
20.6150793
20
90.4081006
11
20.9364793
21
90.4081006
0
LINE
8
DEFAULT_255_2_778
10
20.9364793
20
90.4081006
11
20.6343793
21
88.6804006
0
LINE
8
DEFAULT_255_2_778
10
20.6343793
20
88.6804006
11
20.3480793
21
88.6804006
0
LINE
8
DEFAULT_255_2_778
10
20.3480793
20
88.6804006
11
20.3663793
21
88.8108006
0
LINE
8
DEFAULT_255_2_778
10
19.6632793
20
89.2664006
11
19.6701793
21
89.3170006
0
LINE
8
DEFAULT_255_2_778
10
20.2176793
20
89.9210006
11
20.2173793
21
89.9210006
0
LINE
8
DEFAULT_255_2_778
10
20.3755793
20
89.0471006
11
20.4631793
21
89.5307006
0
LINE
8
DEFAULT_255_2_778
10
19.9850793
20
89.2664006
11
19.9845793
21
89.2664006
0
LINE
8
DEFAULT_255_2_778
10
21.5304594
20
90.4081646
11
21.2282594
21
88.6804646
0
LINE
8
DEFAULT_255_2_778
10
21.2282594
20
88.6804646
11
20.9057594
21
88.6804646
0
LINE
8
DEFAULT_255_2_778
10
20.9057594
20
88.6804646
11
21.2089594
21
90.4081646
0
LINE
8
DEFAULT_255_2_778
10
21.2089594
20
90.4081646
11
21.5304594
21
90.4081646
0
LINE
8
DEFAULT_255_2_778
10
21.5304594
20
90.4081646
11
21.5304594
21
90.4081646
0
ARC
8
DEFAULT_255_2_778
10
22.0768767
20
89.1962764
40
0.5383522
50
238.763891
51
270.7055166
0
ARC
8
DEFAULT_255_2_778
10
22.0455625
20
89.140952
40
0.4748131
50
204.061185
51
238.5328679
0
ARC
8
DEFAULT_255_2_778
10
22.1281681
20
89.1805331
40
0.5663841
50
179.4896096
51
204.3103027
0
ARC
8
DEFAULT_255_2_778
10
22.2521843
20
89.1850727
40
0.6903781
50
175.123126
51
179.9580366
0
ARC
8
DEFAULT_255_2_778
10
22.3438479
20
89.2200152
40
0.7790728
50
149.5392097
51
174.9446897
0
ARC
8
DEFAULT_255_2_778
10
22.217984
20
89.3035212
40
0.628301
50
120.7003982
51
150.2846053
0
ARC
8
DEFAULT_255_2_778
10
22.1784851
20
89.3632024
40
0.556829
50
89.4236852
51
120.3409826
0
ARC
8
DEFAULT_255_2_778
10
22.1840352
20
89.2644671
40
0.6555361
50
88.4553682
51
89.9955718
0
ARC
8
DEFAULT_255_2_778
10
22.2069363
20
89.4486369
40
0.4711572
50
58.4514404
51
90.636095
0
ARC
8
DEFAULT_255_2_778
10
22.2332403
20
89.5120423
40
0.403504
50
35.6058989
51
56.9235594
0
ARC
8
DEFAULT_255_2_778
10
22.1229882
20
89.4382058
40
0.5361477
50
0.6851965
51
35.1616077
0
ARC
8
DEFAULT_255_2_778
10
21.9204313
20
89.4178229
40
0.7391521
50
359.9888194
51
2.0774415
0
ARC
8
DEFAULT_255_2_778
10
21.8068025
20
89.4195249
40
0.852783
50
353.383538
51
359.8759623
0
ARC
8
DEFAULT_255_2_778
10
22.293021
20
89.1671119
40
0.4107176
50
177.8018731
51
179.9839782
0
ARC
8
DEFAULT_255_2_778
10
22.1344217
20
89.155624
40
0.2523852
50
177.3650374
51
219.8309448
0
ARC
8
DEFAULT_255_2_778
10
22.1050068
20
89.1423401
40
0.2214564
50
222.0668323
51
271.55222
0
ARC
8
DEFAULT_255_2_778
10
22.1220002
20
89.3471289
40
0.4263057
50
268.5221572
51
269.9980687
0
ARC
8
DEFAULT_255_2_778
10
22.1204001
20
89.3175217
40
0.3967017
50
270.2290309
51
318.5203973
0
ARC
8
DEFAULT_255_2_778
10
22.1898056
20
89.1342979
40
0.4555006
50
292.4982989
51
325.2807674
0
ARC
8
DEFAULT_255_2_778
10
22.0999907
20
89.3128545
40
0.6549996
50
269.6158853
51
293.7802026
0
ARC
8
DEFAULT_255_2_778
10
22.0956026
20
89.399733
40
0.7418635
50
269.0811303
51
269.9997673
0
ARC
8
DEFAULT_255_2_778
10
22.1793249
20
89.3926977
40
0.2651417
50
88.6426435
51
89.9971979
0
ARC
8
DEFAULT_255_2_778
10
22.1775009
20
89.4279788
40
0.2298681
50
89.5421073
51
130.5025885
0
ARC
8
DEFAULT_255_2_778
10
22.2762398
20
89.3278327
40
0.370282
50
132.0556576
51
154.4346079
0
ARC
8
DEFAULT_255_2_778
10
22.6775288
20
89.1102869
40
0.8264843
50
152.8348001
51
159.2008974
0
ARC
8
DEFAULT_255_2_778
10
22.042515
20
89.4812268
40
0.3137404
50
351.1327381
51
359.8552777
0
ARC
8
DEFAULT_255_2_778
10
22.0889744
20
89.4808274
40
0.2672803
50
359.9157472
51
8.073482
0
ARC
8
DEFAULT_255_2_778
10
22.1916726
20
89.4961276
40
0.1634528
50
7.8192239
51
49.4174523
0
ARC
8
DEFAULT_255_2_778
10
22.1897336
20
89.4829377
40
0.174876
50
51.746929
51
91.3525911
0
LINE
8
DEFAULT_255_2_778
10
21.5643056
20
89.243765
11
21.5678056
21
89.288665
0
LINE
8
DEFAULT_255_2_778
10
22.6539056
20
89.321265
11
22.6356056
21
89.182865
0
LINE
8
DEFAULT_255_2_778
10
22.6356056
20
89.182865
11
21.8826056
21
89.182865
0
LINE
8
DEFAULT_255_2_778
10
22.4176056
20
89.054765
11
22.5642056
21
88.874865
0
LINE
8
DEFAULT_255_2_778
10
22.0837056
20
88.657965
11
22.0835056
21
88.657965
0
LINE
8
DEFAULT_255_2_778
10
21.9049056
20
89.403765
11
22.3456056
21
89.403765
0
LINE
8
DEFAULT_255_2_778
10
22.3456056
20
89.403765
11
22.3525056
21
89.432865
0
LINE
8
DEFAULT_255_2_778
10
22.1856056
20
89.657765
11
22.1856056
21
89.657765
0
ARC
8
DEFAULT_255_2_778
10
22.5732251
20
88.7968848
40
0.7187609
50
318.1171527
51
335.3457065
0
ARC
8
DEFAULT_255_2_778
10
22.7861338
20
88.6147586
40
0.4387075
50
306.2044829
51
317.2623563
0
ARC
8
DEFAULT_255_2_778
10
22.8118587
20
88.5840063
40
0.3987066
50
269.0092455
51
305.8318035
0
ARC
8
DEFAULT_255_2_778
10
22.8209703
20
88.7486254
40
0.5634934
50
257.9736769
51
268.3723286
0
ARC
8
DEFAULT_255_2_778
10
22.976467
20
89.6028273
40
1.431581
50
256.8370098
51
259.0102636
0
ARC
8
DEFAULT_255_2_778
10
22.7299218
20
88.850881
40
0.396887
50
268.3457775
51
269.9906226
0
ARC
8
DEFAULT_255_2_778
10
22.744688
20
88.6914479
40
0.2379166
50
266.425992
51
328.6474802
0
LINE
8
DEFAULT_255_2_778
10
23.1491646
20
89.8974594
11
23.2378646
21
89.1439594
0
LINE
8
DEFAULT_255_2_778
10
23.2378646
20
89.1439594
11
23.5889646
21
89.8974594
0
LINE
8
DEFAULT_255_2_778
10
23.5889646
20
89.8974594
11
23.9453646
21
89.8974594
0
LINE
8
DEFAULT_255_2_778
10
23.9453646
20
89.8974594
11
23.2264646
21
88.4970594
0
LINE
8
DEFAULT_255_2_778
10
22.6504646
20
88.2088594
11
22.6742646
21
88.4562594
0
LINE
8
DEFAULT_255_2_778
10
22.6742646
20
88.4562594
11
22.7184646
21
88.4541594
0
LINE
8
DEFAULT_255_2_778
10
22.9478646
20
88.5676594
11
23.0182646
21
88.6970594
0
LINE
8
DEFAULT_255_2_778
10
23.0182646
20
88.6970594
11
22.8171646
21
89.8971594
0
LINE
8
DEFAULT_255_2_778
10
22.8171646
20
89.8971594
11
23.1489646
21
89.8971594
0
LINE
8
DEFAULT_255_2_778
10
23.1489646
20
89.8971594
11
23.1491646
21
89.8974594
0
LINE
8
DEFAULT_255_2_778
10
5.4244542
20
90.2969666
11
5.4244542
21
89.1116666
0
LINE
8
DEFAULT_255_2_778
10
5.4244542
20
89.1116666
11
8.3507542
21
89.0746666
0
LINE
8
DEFAULT_255_2_778
10
8.3507542
20
89.0746666
11
8.3507542
21
90.2969666
0
LINE
8
DEFAULT_255_2_778
10
8.3507542
20
90.2969666
11
7.4246542
21
91.1489666
0
LINE
8
DEFAULT_255_2_778
10
7.4246542
20
91.1489666
11
6.2764542
21
91.1489666
0
LINE
8
DEFAULT_255_2_778
10
6.2764542
20
91.1489666
11
5.4244542
21
90.2969666
0
LINE
8
DEFAULT_255_2_778
10
5.5726542
20
88.8894666
11
8.2025542
21
88.8894666
0
LINE
8
DEFAULT_255_2_778
10
8.2025542
20
88.8894666
11
7.4617542
21
88.1856666
0
LINE
8
DEFAULT_255_2_778
10
7.4617542
20
88.1856666
11
6.3504542
21
88.1856666
0
LINE
8
DEFAULT_255_2_778
10
6.3504542
20
88.1856666
11
5.5726542
21
88.8894666
0
ARC
8
DEFAULT_255_2_778
10
7.8458226
20
89.4385768
40
0.1423419
50
264.5115721
51
318.4176283
0
ARC
8
DEFAULT_255_2_778
10
7.8189879
20
89.4356225
40
0.1616977
50
325.5297452
51
3.3557414
0
ARC
8
DEFAULT_255_2_778
10
7.8389795
20
89.7921157
40
0.142084
50
354.4959081
51
48.5537602
0
ARC
8
DEFAULT_255_2_778
10
7.8416444
20
89.7649068
40
0.1619557
50
55.6500697
51
93.3401169
0
ARC
8
DEFAULT_255_2_778
10
7.8414709
20
89.991425
40
0.0654958
50
261.8698976
51
8.1301024
0
ARC
8
DEFAULT_255_2_778
10
7.7988672
20
90.3741455
40
0.1074847
50
358.3696885
51
95.9524071
0
ARC
8
DEFAULT_255_2_778
10
7.7588839
20
90.1457916
40
0.3364968
50
85.0838783
51
90.1320543
0
LINE
8
DEFAULT_255_2_778
10
5.6838084
20
89.2968875
11
6.1283084
21
90.5192875
0
LINE
8
DEFAULT_255_2_778
10
6.1283084
20
90.5192875
11
6.3876084
21
90.5192875
0
LINE
8
DEFAULT_255_2_778
10
6.3876084
20
90.5192875
11
6.8691084
21
89.3339875
0
LINE
8
DEFAULT_255_2_778
10
6.8691084
20
89.3339875
11
6.5358084
21
89.3339875
0
LINE
8
DEFAULT_255_2_778
10
6.5358084
20
89.3339875
11
6.4246084
21
89.5932875
0
LINE
8
DEFAULT_255_2_778
10
6.4246084
20
89.5932875
11
6.0913084
21
89.5932875
0
LINE
8
DEFAULT_255_2_778
10
6.0913084
20
89.5932875
11
6.0913084
21
89.7413875
0
LINE
8
DEFAULT_255_2_778
10
6.0913084
20
89.7413875
11
6.3876084
21
89.7413875
0
LINE
8
DEFAULT_255_2_778
10
6.3876084
20
89.7413875
11
6.2024084
21
90.1858875
0
LINE
8
DEFAULT_255_2_778
10
6.2024084
20
90.1858875
11
5.8690084
21
89.2968875
0
LINE
8
DEFAULT_255_2_778
10
5.8690084
20
89.2968875
11
5.6838084
21
89.2968875
0
LINE
8
DEFAULT_255_2_778
10
5.6838084
20
89.2968875
11
5.6838084
21
89.2968875
0
LINE
8
DEFAULT_255_2_778
10
6.7580084
20
89.9636875
11
6.9062084
21
89.9636875
0
LINE
8
DEFAULT_255_2_778
10
6.9062084
20
89.9636875
11
6.9062084
21
89.8154875
0
LINE
8
DEFAULT_255_2_778
10
6.9062084
20
89.8154875
11
6.7580084
21
89.8154875
0
LINE
8
DEFAULT_255_2_778
10
6.7580084
20
89.8154875
11
6.7580084
21
89.9636875
0
LINE
8
DEFAULT_255_2_778
10
7.2766084
20
90.2970875
11
7.6100084
21
90.2970875
0
LINE
8
DEFAULT_255_2_778
10
7.6100084
20
90.2970875
11
7.6100084
21
89.9265875
0
LINE
8
DEFAULT_255_2_778
10
7.6100084
20
89.9265875
11
7.3507084
21
89.9265875
0
LINE
8
DEFAULT_255_2_778
10
7.3507084
20
89.9265875
11
7.3507084
21
89.7784875
0
LINE
8
DEFAULT_255_2_778
10
7.3507084
20
89.7784875
11
7.6840084
21
89.7784875
0
LINE
8
DEFAULT_255_2_778
10
7.6840084
20
89.7784875
11
7.6840084
21
89.4450875
0
LINE
8
DEFAULT_255_2_778
10
7.6840084
20
89.4450875
11
7.2766084
21
89.4450875
0
LINE
8
DEFAULT_255_2_778
10
7.2766084
20
89.4450875
11
7.2766084
21
90.2970875
0
LINE
8
DEFAULT_255_2_778
10
7.2766084
20
90.2970875
11
7.2766084
21
90.2970875
0
LINE
8
DEFAULT_255_2_778
10
6.9803084
20
90.4822875
11
6.9803084
21
89.2968875
0
LINE
8
DEFAULT_255_2_778
10
6.9803084
20
89.2968875
11
7.8322084
21
89.2968875
0
LINE
8
DEFAULT_255_2_778
10
7.9804084
20
89.4450875
11
7.9804084
21
89.7784875
0
LINE
8
DEFAULT_255_2_778
10
7.9063084
20
90.0006875
11
7.9063084
21
90.3710875
0
LINE
8
DEFAULT_255_2_778
10
7.7581084
20
90.4822875
11
6.9803084
21
90.4822875
0
LINE
8
DEFAULT_255_2_778
10
6.9803084
20
90.4822875
11
6.9803084
21
90.4822875
0
LINE
8
DEFAULT_255_2_778
10
6.3394427
20
88.5065198
11
6.3367427
21
88.5065198
0
ARC
8
DEFAULT_255_2_778
10
6.3340483
20
88.6315854
40
0.1250946
50
247.1356448
51
271.2341787
0
ARC
8
DEFAULT_255_2_778
10
6.3160916
20
88.5892164
40
0.0790776
50
215.0349981
51
247.1960091
0
ARC
8
DEFAULT_255_2_778
10
6.3109464
20
88.5838964
40
0.0718243
50
178.625123
51
213.9163394
0
ARC
8
DEFAULT_255_2_778
10
6.3131693
20
88.7009391
40
0.0740421
50
147.0420611
51
181.175799
0
ARC
8
DEFAULT_255_2_778
10
6.3147919
20
88.6970628
40
0.0775487
50
112.4780918
51
145.2909011
0
ARC
8
DEFAULT_255_2_778
10
6.333917
20
88.6526534
40
0.1258981
50
88.7138988
51
112.7934617
0
ARC
8
DEFAULT_255_2_778
10
6.339481
20
88.6531878
40
0.1253619
50
67.159311
51
91.2516049
0
ARC
8
DEFAULT_255_2_778
10
6.3569794
20
88.6951852
40
0.0798654
50
35.1978461
51
67.0331611
0
ARC
8
DEFAULT_255_2_778
10
6.3626391
20
88.7011431
40
0.0718243
50
358.625123
51
33.9163394
0
ARC
8
DEFAULT_255_2_778
10
6.3604162
20
88.5841004
40
0.0740421
50
327.0420611
51
1.175799
0
ARC
8
DEFAULT_255_2_778
10
6.361381
20
88.5853218
40
0.0739133
50
291.6436853
51
325.8406333
0
ARC
8
DEFAULT_255_2_778
10
6.3401809
20
88.594374
40
0.0482768
50
265.9160158
51
308.3617549
0
ARC
8
DEFAULT_255_2_778
10
6.3451719
20
88.5833207
40
0.036631
50
312.9754563
51
3.2850623
0
ARC
8
DEFAULT_255_2_778
10
6.3448152
20
88.701002
40
0.0369754
50
357.082104
51
47.4006092
0
ARC
8
DEFAULT_255_2_778
10
6.339634
20
88.6908686
40
0.0480383
50
51.0349629
51
93.4505724
0
ARC
8
DEFAULT_255_2_778
10
6.3340455
20
88.690549
40
0.0483461
50
86.8017862
51
128.8135095
0
ARC
8
DEFAULT_255_2_778
10
6.3287702
20
88.701002
40
0.0369754
50
132.5993908
51
182.917896
0
ARC
8
DEFAULT_255_2_778
10
6.3284135
20
88.5833207
40
0.036631
50
176.7149377
51
227.0245437
0
ARC
8
DEFAULT_255_2_778
10
6.3334908
20
88.594686
40
0.0485752
50
231.7867693
51
273.8385805
0
ARC
8
DEFAULT_255_2_778
10
6.5570034
20
88.5830567
40
0.0766655
50
226.2029837
51
273.3195937
0
ARC
8
DEFAULT_255_2_778
10
6.5622798
20
88.5810746
40
0.0790566
50
176.8492311
51
222.4458356
0
ARC
8
DEFAULT_255_2_778
10
6.5699928
20
88.5829647
40
0.043631
50
176.5112098
51
217.639275
0
ARC
8
DEFAULT_255_2_778
10
6.5593879
20
88.5778664
40
0.0322122
50
221.9818643
51
273.6574471
0
ARC
8
DEFAULT_255_2_778
10
6.5632217
20
88.5783151
40
0.0326438
50
266.8760675
51
317.6392064
0
ARC
8
DEFAULT_255_2_778
10
6.5527926
20
88.5829647
40
0.043631
50
322.360725
51
3.4887902
0
ARC
8
DEFAULT_255_2_778
10
6.5605056
20
88.5810746
40
0.0790566
50
317.5541644
51
3.1507689
0
ARC
8
DEFAULT_255_2_778
10
6.5656687
20
88.5833223
40
0.0769357
50
266.6274163
51
313.7210327
0
LINE
8
DEFAULT_255_2_778
10
6.4394427
20
88.4449198
11
6.3828427
21
88.4449198
0
LINE
8
DEFAULT_255_2_778
10
6.3828427
20
88.4449198
11
6.3394427
21
88.5065198
0
LINE
8
DEFAULT_255_2_778
10
6.2391427
20
88.5856198
11
6.2391427
21
88.6994198
0
LINE
8
DEFAULT_255_2_778
10
6.4344427
20
88.6994198
11
6.4344427
21
88.5856198
0
LINE
8
DEFAULT_255_2_778
10
6.3886427
20
88.5166198
11
6.4394427
21
88.4451198
0
LINE
8
DEFAULT_255_2_778
10
6.4394427
20
88.4451198
11
6.4394427
21
88.4449198
0
LINE
8
DEFAULT_255_2_778
10
6.3817427
20
88.5854198
11
6.3817427
21
88.6991198
0
LINE
8
DEFAULT_255_2_778
10
6.2918427
20
88.6991198
11
6.2918427
21
88.5854198
0
LINE
8
DEFAULT_255_2_778
10
6.3367427
20
88.5462198
11
6.3367427
21
88.5462198
0
LINE
8
DEFAULT_255_2_778
10
6.4833427
20
88.5854198
11
6.4833427
21
88.7745198
0
LINE
8
DEFAULT_255_2_778
10
6.4833427
20
88.7745198
11
6.5264427
21
88.7745198
0
LINE
8
DEFAULT_255_2_778
10
6.5264427
20
88.7745198
11
6.5264427
21
88.5856198
0
LINE
8
DEFAULT_255_2_778
10
6.5963427
20
88.5856198
11
6.5963427
21
88.7745198
0
LINE
8
DEFAULT_255_2_778
10
6.5963427
20
88.7745198
11
6.6394427
21
88.7745198
0
LINE
8
DEFAULT_255_2_778
10
6.6394427
20
88.7745198
11
6.6394427
21
88.5854198
0
LINE
8
DEFAULT_255_2_778
10
6.5611427
20
88.5065198
11
6.5614427
21
88.5065198
0
ARC
8
DEFAULT_255_2_778
10
12.1641553
20
89.8096635
40
5.5033955
50
191.4837585
51
191.8239227
0
ARC
8
DEFAULT_255_2_778
10
8.3589245
20
89.0058972
40
1.6145995
50
189.6626565
51
190.4158531
0
ARC
8
DEFAULT_255_2_778
10
6.1197449
20
88.8387409
40
0.6557616
50
349.0334606
51
350.8880298
0
ARC
8
DEFAULT_255_2_778
10
6.0674183
20
88.8423866
40
0.7078549
50
346.9283592
51
349.5494987
0
ARC
8
DEFAULT_255_2_778
10
7.2958769
20
88.6115243
40
0.1856762
50
15.5793022
51
22.5708948
0
ARC
8
DEFAULT_255_2_778
10
7.3328007
20
88.6163058
40
0.1489195
50
11.1061152
51
17.6230497
0
ARC
8
DEFAULT_255_2_778
10
8.063214
20
88.5005593
40
0.6018696
50
164.5010167
51
166.1150622
0
ARC
8
DEFAULT_255_2_778
10
7.6620856
20
88.6115243
40
0.1856762
50
157.4291052
51
164.4206978
0
LINE
8
DEFAULT_255_2_778
10
6.7201313
20
88.5099917
11
6.6762313
21
88.5099917
0
LINE
8
DEFAULT_255_2_778
10
6.6762313
20
88.5099917
11
6.7392313
21
88.7745917
0
LINE
8
DEFAULT_255_2_778
10
6.7392313
20
88.7745917
11
6.7942313
21
88.7745917
0
LINE
8
DEFAULT_255_2_778
10
6.7942313
20
88.7745917
11
6.8577313
21
88.5099917
0
LINE
8
DEFAULT_255_2_778
10
6.8577313
20
88.5099917
11
6.8138313
21
88.5099917
0
LINE
8
DEFAULT_255_2_778
10
6.8138313
20
88.5099917
11
6.8000313
21
88.5739917
0
LINE
8
DEFAULT_255_2_778
10
6.8000313
20
88.5739917
11
6.7336313
21
88.5739917
0
LINE
8
DEFAULT_255_2_778
10
6.7336313
20
88.5739917
11
6.7199313
21
88.5099917
0
LINE
8
DEFAULT_255_2_778
10
6.7199313
20
88.5099917
11
6.7201313
21
88.5099917
0
LINE
8
DEFAULT_255_2_778
10
6.7569313
20
88.6824917
11
6.7418313
21
88.6110917
0
LINE
8
DEFAULT_255_2_778
10
6.7418313
20
88.6110917
11
6.7926313
21
88.6110917
0
LINE
8
DEFAULT_255_2_778
10
6.7926313
20
88.6110917
11
6.7775313
21
88.6819917
0
LINE
8
DEFAULT_255_2_778
10
6.7569313
20
88.6822917
11
6.7569313
21
88.6824917
0
LINE
8
DEFAULT_255_2_778
10
7.0231313
20
88.5099917
11
6.8741313
21
88.5099917
0
LINE
8
DEFAULT_255_2_778
10
6.8741313
20
88.5099917
11
6.8741313
21
88.7745917
0
LINE
8
DEFAULT_255_2_778
10
6.8741313
20
88.7745917
11
6.9170313
21
88.7745917
0
LINE
8
DEFAULT_255_2_778
10
6.9170313
20
88.7745917
11
6.9170313
21
88.5509917
0
LINE
8
DEFAULT_255_2_778
10
6.9170313
20
88.5509917
11
7.0231313
21
88.5509917
0
LINE
8
DEFAULT_255_2_778
10
7.0231313
20
88.5509917
11
7.0231313
21
88.5099917
0
LINE
8
DEFAULT_255_2_778
10
7.0231313
20
88.5099917
11
7.0231313
21
88.5099917
0
LINE
8
DEFAULT_255_2_778
10
7.1760313
20
88.5099917
11
7.0321313
21
88.5099917
0
LINE
8
DEFAULT_255_2_778
10
7.0321313
20
88.5099917
11
7.0321313
21
88.5509917
0
LINE
8
DEFAULT_255_2_778
10
7.0321313
20
88.5509917
11
7.0823313
21
88.5509917
0
LINE
8
DEFAULT_255_2_778
10
7.0823313
20
88.5509917
11
7.0823313
21
88.7335917
0
LINE
8
DEFAULT_255_2_778
10
7.0823313
20
88.7335917
11
7.0321313
21
88.7335917
0
LINE
8
DEFAULT_255_2_778
10
7.0321313
20
88.7335917
11
7.0321313
21
88.7745917
0
LINE
8
DEFAULT_255_2_778
10
7.0321313
20
88.7745917
11
7.1760313
21
88.7745917
0
LINE
8
DEFAULT_255_2_778
10
7.1760313
20
88.7745917
11
7.1760313
21
88.7335917
0
LINE
8
DEFAULT_255_2_778
10
7.1760313
20
88.7335917
11
7.1257313
21
88.7335917
0
LINE
8
DEFAULT_255_2_778
10
7.1257313
20
88.7335917
11
7.1257313
21
88.5509917
0
LINE
8
DEFAULT_255_2_778
10
7.1257313
20
88.5509917
11
7.1760313
21
88.5509917
0
LINE
8
DEFAULT_255_2_778
10
7.1760313
20
88.5509917
11
7.1760313
21
88.5099917
0
LINE
8
DEFAULT_255_2_778
10
7.1760313
20
88.5099917
11
7.1760313
21
88.5099917
0
LINE
8
DEFAULT_255_2_778
10
7.2940313
20
88.5099917
11
7.2509313
21
88.5099917
0
LINE
8
DEFAULT_255_2_778
10
7.2509313
20
88.5099917
11
7.2509313
21
88.7335917
0
LINE
8
DEFAULT_255_2_778
10
7.2509313
20
88.7335917
11
7.1855313
21
88.7335917
0
LINE
8
DEFAULT_255_2_778
10
7.1855313
20
88.7335917
11
7.1855313
21
88.7745917
0
LINE
8
DEFAULT_255_2_778
10
7.1855313
20
88.7745917
11
7.3596313
21
88.7745917
0
LINE
8
DEFAULT_255_2_778
10
7.3596313
20
88.7745917
11
7.3596313
21
88.7335917
0
LINE
8
DEFAULT_255_2_778
10
7.3596313
20
88.7335917
11
7.2943313
21
88.7335917
0
LINE
8
DEFAULT_255_2_778
10
7.2943313
20
88.7335917
11
7.2943313
21
88.5099917
0
LINE
8
DEFAULT_255_2_778
10
7.2943313
20
88.5099917
11
7.2940313
21
88.5099917
0
LINE
8
DEFAULT_255_2_778
10
7.4996313
20
88.5099917
11
7.4565313
21
88.5099917
0
LINE
8
DEFAULT_255_2_778
10
7.4565313
20
88.5099917
11
7.4565313
21
88.6060917
0
LINE
8
DEFAULT_255_2_778
10
7.4565313
20
88.6060917
11
7.3832313
21
88.7745917
0
LINE
8
DEFAULT_255_2_778
10
7.3832313
20
88.7745917
11
7.4281313
21
88.7745917
0
LINE
8
DEFAULT_255_2_778
10
7.4281313
20
88.7745917
11
7.4673313
21
88.6827917
0
LINE
8
DEFAULT_255_2_778
10
7.4906313
20
88.6827917
11
7.5287313
21
88.7745917
0
LINE
8
DEFAULT_255_2_778
10
7.5287313
20
88.7745917
11
7.5731313
21
88.7745917
0
LINE
8
DEFAULT_255_2_778
10
7.5731313
20
88.7745917
11
7.4998313
21
88.6060917
0
LINE
8
DEFAULT_255_2_778
10
7.4998313
20
88.6060917
11
7.4998313
21
88.5099917
0
LINE
8
DEFAULT_255_2_778
10
7.4998313
20
88.5099917
11
7.4996313
21
88.5099917
0
LINE
8
DEFAULT_255_1_388
10
7.2840985
20
87.3332148
11
7.2840985
21
86.0113
0
LINE
8
DEFAULT_255_1_388
10
7.2840985
20
86.0113
11
7.1160355
21
86.0113
0
LINE
8
DEFAULT_255_1_388
10
7.1160355
20
86.0113
11
7.1160355
21
87.125395
0
LINE
8
DEFAULT_255_1_388
10
7.1160355
20
87.125395
11
6.779006
21
87.0016066
0
LINE
8
DEFAULT_255_1_388
10
6.779006
20
87.0016066
11
6.779006
21
87.1534055
0
LINE
8
DEFAULT_255_1_388
10
6.779006
20
87.1534055
11
7.2578951
21
87.3332148
0
LINE
8
DEFAULT_255_1_388
10
7.2578951
20
87.3332148
11
7.2840985
21
87.3332148
0
LINE
8
DEFAULT_255_1_388
10
8.623181
20
87.3268898
11
8.623181
21
87.2329191
0
LINE
8
DEFAULT_255_1_388
10
8.623181
20
87.2329191
11
8.0783316
21
86.0113
0
LINE
8
DEFAULT_255_1_388
10
8.0783316
20
86.0113
11
7.9030401
21
86.0113
0
LINE
8
DEFAULT_255_1_388
10
7.9030401
20
86.0113
11
8.4460824
21
87.189548
0
LINE
8
DEFAULT_255_1_388
10
8.4460824
20
87.189548
11
7.7340736
21
87.189548
0
LINE
8
DEFAULT_255_1_388
10
7.7340736
20
87.189548
11
7.7340736
21
87.3268898
0
LINE
8
DEFAULT_255_1_388
10
7.7340736
20
87.3268898
11
8.623181
21
87.3268898
0
LINE
8
DEFAULT_255_1_388
10
9.0234601
20
86.6365666
11
8.8897325
21
86.6709021
0
LINE
8
DEFAULT_255_1_388
10
8.8897325
20
86.6709021
11
8.9565963
21
87.3268898
0
LINE
8
DEFAULT_255_1_388
10
8.9565963
20
87.3268898
11
9.6306554
21
87.3268898
0
LINE
8
DEFAULT_255_1_388
10
9.6306554
20
87.3268898
11
9.6306554
21
87.1723803
0
LINE
8
DEFAULT_255_1_388
10
9.6306554
20
87.1723803
11
9.0984559
21
87.1723803
0
LINE
8
DEFAULT_255_1_388
10
9.0984559
20
87.1723803
11
9.0586991
21
86.8136652
0
LINE
8
DEFAULT_255_1_388
10
8.8427472
20
86.3573652
11
9.0008709
21
86.3573652
0
LINE
8
DEFAULT_255_1_388
10
9.0677347
20
86.6727092
11
9.0234601
21
86.6365666
0
ARC
8
DEFAULT_255_1_388
10
9.2673604
20
86.4559241
40
0.4141476
50
93.7181681
51
120.253934
0
ARC
8
DEFAULT_255_1_388
10
9.2779656
20
86.3650284
40
0.5055616
50
89.9660471
51
94.2495185
0
ARC
8
DEFAULT_255_1_388
10
9.2825478
20
86.4313154
40
0.4392953
50
73.8045384
51
90.5585736
0
ARC
8
DEFAULT_255_1_388
10
9.3089736
20
86.527852
40
0.3392225
50
41.3071072
51
73.543002
0
ARC
8
DEFAULT_255_1_388
10
9.2621556
20
86.4875461
40
0.4009977
50
13.5075837
51
41.2174839
0
ARC
8
DEFAULT_255_1_388
10
9.0774653
20
86.4391907
40
0.5918864
50
1.1330171
51
13.8830737
0
ARC
8
DEFAULT_255_1_388
10
8.9178299
20
86.4306522
40
0.7516787
50
359.9925091
51
1.5431298
0
ARC
8
DEFAULT_255_1_388
10
9.0622914
20
86.4260027
40
0.6072343
50
347.8572712
51
0.4294349
0
ARC
8
DEFAULT_255_1_388
10
9.2592049
20
86.3813898
40
0.4053482
50
323.6727442
51
348.1674594
0
ARC
8
DEFAULT_255_1_388
10
9.2923013
20
86.3612175
40
0.3667495
50
316.8171818
51
323.1486802
0
ARC
8
DEFAULT_255_1_388
10
9.2992137
20
86.3570612
40
0.358869
50
281.839603
51
316.5458142
0
ARC
8
DEFAULT_255_1_388
10
9.2569425
20
86.5320363
40
0.5388223
50
269.5770964
51
282.4214641
0
ARC
8
DEFAULT_255_1_388
10
9.2489345
20
86.507993
40
0.5147801
50
256.2425863
51
270.4486481
0
ARC
8
DEFAULT_255_1_388
10
9.2152873
20
86.3730124
40
0.3756708
50
228.9024379
51
256.33135
0
ARC
8
DEFAULT_255_1_388
10
9.2069853
20
86.3599054
40
0.360344
50
193.7536029
51
228.5272638
0
ARC
8
DEFAULT_255_1_388
10
9.3462418
20
86.4007463
40
0.5053599
50
184.9244437
51
194.4976052
0
ARC
8
DEFAULT_255_1_388
10
9.367906
20
86.4047722
40
0.3700839
50
187.3596909
51
198.6733728
0
ARC
8
DEFAULT_255_1_388
10
9.2498303
20
86.3638373
40
0.2451195
50
198.4453795
51
217.7945479
0
ARC
8
DEFAULT_255_1_388
10
9.2165476
20
86.3402563
40
0.2043754
50
218.2887146
51
228.5613203
0
ARC
8
DEFAULT_255_1_388
10
9.2275482
20
86.3550902
40
0.2227819
50
228.9652423
51
258.1237049
0
ARC
8
DEFAULT_255_1_388
10
9.250692
20
86.4541964
40
0.3245374
50
257.7260585
51
270.4013717
0
ARC
8
DEFAULT_255_1_388
10
9.2557418
20
86.4041255
40
0.2744726
50
269.4204315
51
286.420998
0
ARC
8
DEFAULT_255_1_388
10
9.2724474
20
86.3434705
40
0.2115721
50
286.7250065
51
320.6004665
0
ARC
8
DEFAULT_255_1_388
10
9.2293389
20
86.3784527
40
0.2670878
50
320.6712228
51
344.5440474
0
ARC
8
DEFAULT_255_1_388
10
9.0992103
20
86.4166394
40
0.4026927
50
344.241448
51
356.735803
0
ARC
8
DEFAULT_255_1_388
10
8.958841
20
86.4282656
40
0.5435085
50
356.3547471
51
0.0507222
0
ARC
8
DEFAULT_255_1_388
10
9.1090675
20
86.4317812
40
0.3932934
50
359.5579289
51
12.9534322
0
ARC
8
DEFAULT_255_1_388
10
9.2277515
20
86.4605586
40
0.2711827
50
12.6489751
51
41.608121
0
ARC
8
DEFAULT_255_1_388
10
9.2536675
20
86.4825946
40
0.2371737
50
41.7851122
51
85.9892156
0
ARC
8
DEFAULT_255_1_388
10
9.2397985
20
86.3910738
40
0.3295244
50
84.6965848
51
90.0672125
0
ARC
8
DEFAULT_255_1_388
10
9.2371553
20
86.3159118
40
0.4046926
50
89.6804991
51
99.161352
0
ARC
8
DEFAULT_255_1_388
10
9.2140562
20
86.4539848
40
0.2647044
50
98.9836248
51
113.8905702
0
ARC
8
DEFAULT_255_1_388
10
9.1882237
20
86.5149118
40
0.1985386
50
114.195234
51
127.3641866
0
LINE
8
DEFAULT_255_1_388
10
10.4781988
20
87.3277934
11
10.5080165
21
87.3277934
0
LINE
8
DEFAULT_255_1_388
10
10.5080165
20
87.3277934
11
10.5080165
21
87.1859338
0
LINE
8
DEFAULT_255_1_388
10
10.5080165
20
87.1859338
11
10.4772953
21
87.1859338
0
LINE
8
DEFAULT_255_1_388
10
9.8619679
20
86.5118747
11
9.8619679
21
86.5760278
0
LINE
8
DEFAULT_255_1_388
10
10.0300309
20
86.5543422
11
10.0300309
21
86.4928999
0
ARC
8
DEFAULT_255_1_388
10
10.4831844
20
86.6236826
40
0.562282
50
90.6001079
51
104.5146616
0
ARC
8
DEFAULT_255_1_388
10
10.4394804
20
86.78621
40
0.3939917
50
104.2855758
51
133.8630124
0
ARC
8
DEFAULT_255_1_388
10
10.4579056
20
86.7740243
40
0.4155734
50
134.5304124
51
161.6210222
0
ARC
8
DEFAULT_255_1_388
10
10.6438989
20
86.7084421
40
0.6127682
50
161.2850533
51
174.2074364
0
ARC
8
DEFAULT_255_1_388
10
10.8028555
20
86.6865437
40
0.7731446
50
173.7817938
51
174.9251711
0
ARC
8
DEFAULT_255_1_388
10
10.2902749
20
86.531027
40
0.3412588
50
95.8332067
51
138.995412
0
ARC
8
DEFAULT_255_1_388
10
10.3154029
20
86.3871695
40
0.4870358
50
89.8755506
51
97.0540979
0
ARC
8
DEFAULT_255_1_388
10
10.3207418
20
86.4811841
40
0.3930432
50
71.6407016
51
90.6240821
0
ARC
8
DEFAULT_255_1_388
10
10.3376812
20
86.5435433
40
0.3285421
50
39.6368051
51
71.0190743
0
ARC
8
DEFAULT_255_1_388
10
10.2660719
20
86.4816586
40
0.4231706
50
10.6588054
51
39.9044509
0
ARC
8
DEFAULT_255_1_388
10
10.0919265
20
86.4438223
40
0.60133
50
359.6827842
51
11.1326896
0
ARC
8
DEFAULT_255_1_388
10
10.0874601
20
86.4358715
40
0.6058047
50
347.2485908
51
0.4371098
0
ARC
8
DEFAULT_255_1_388
10
10.2750386
20
86.3907379
40
0.4128987
50
318.1408565
51
347.6118497
0
ARC
8
DEFAULT_255_1_388
10
10.3115983
20
86.3606903
40
0.3656244
50
275.6342406
51
317.824739
0
ARC
8
DEFAULT_255_1_388
10
10.2867504
20
86.5068827
40
0.513655
50
269.8872513
51
276.7916069
0
ARC
8
DEFAULT_255_1_388
10
10.2805697
20
86.3915181
40
0.398323
50
246.9139443
51
270.7436787
0
ARC
8
DEFAULT_255_1_388
10
10.2812893
20
86.3755044
40
0.3839368
50
218.1665534
51
245.8780431
0
ARC
8
DEFAULT_255_1_388
10
10.3802265
20
86.4582903
40
0.5128958
50
191.4115343
51
218.6077624
0
ARC
8
DEFAULT_255_1_388
10
10.5982581
20
86.5071777
40
0.7363054
50
179.6344971
51
191.7836758
0
ARC
8
DEFAULT_255_1_388
10
11.2262455
20
86.5835495
40
1.3642984
50
171.4523743
51
180.3158856
0
ARC
8
DEFAULT_255_1_388
10
10.7318182
20
86.6604895
40
0.8639311
50
157.9802296
51
171.6246761
0
ARC
8
DEFAULT_255_1_388
10
10.4827533
20
86.7598038
40
0.5958004
50
141.4299236
51
157.8541251
0
ARC
8
DEFAULT_255_1_388
10
10.4105616
20
86.8108746
40
0.5075416
50
102.871586
51
140.8564533
0
ARC
8
DEFAULT_255_1_388
10
10.4834169
20
86.5363943
40
0.7914163
50
90.377773
51
103.5868422
0
ARC
8
DEFAULT_255_1_388
10
10.287869
20
86.4683543
40
0.2667015
50
89.8751238
51
126.2072139
0
ARC
8
DEFAULT_255_1_388
10
10.2930161
20
86.4509847
40
0.2838229
50
124.9742447
51
144.8960197
0
ARC
8
DEFAULT_255_1_388
10
10.2732406
20
86.4670981
40
0.2583845
50
145.2974778
51
160.2660922
0
ARC
8
DEFAULT_255_1_388
10
10.6188895
20
86.4893151
40
0.5888695
50
179.6512124
51
190.285571
0
ARC
8
DEFAULT_255_1_388
10
10.4283374
20
86.4533968
40
0.3949683
50
190.0944895
51
207.5099647
0
ARC
8
DEFAULT_255_1_388
10
10.3646956
20
86.4231177
40
0.3245464
50
207.9585471
51
216.325377
0
ARC
8
DEFAULT_255_1_388
10
10.3264593
20
86.3916712
40
0.2751259
50
215.7661336
51
232.5457193
0
ARC
8
DEFAULT_255_1_388
10
10.2833709
20
86.3369273
40
0.2054668
50
232.8005815
51
270.6605497
0
ARC
8
DEFAULT_255_1_388
10
10.2885133
20
86.3778853
40
0.2464268
50
269.3550767
51
288.474612
0
ARC
8
DEFAULT_255_1_388
10
10.298964
20
86.3385721
40
0.2058436
50
289.1831976
51
322.9685307
0
ARC
8
DEFAULT_255_1_388
10
10.2301742
20
86.3928279
40
0.2934408
50
322.6007085
51
346.5183319
0
ARC
8
DEFAULT_255_1_388
10
10.0999498
20
86.4260434
40
0.4278249
50
346.2584622
51
358.7739592
0
ARC
8
DEFAULT_255_1_388
10
9.9848073
20
86.4322829
40
0.5430876
50
358.3757628
51
0.0082477
0
ARC
8
DEFAULT_255_1_388
10
10.0704892
20
86.4353856
40
0.4574157
50
359.6211417
51
11.28403
0
ARC
8
DEFAULT_255_1_388
10
10.2141498
20
86.4653535
40
0.3106708
50
11.0483152
51
31.8145585
0
ARC
8
DEFAULT_255_1_388
10
10.2489203
20
86.4842045
40
0.2711963
50
32.3028554
51
38.0820598
0
ARC
8
DEFAULT_255_1_388
10
10.2962436
20
86.5270717
40
0.2075566
50
36.8249851
51
85.741667
0
ARC
8
DEFAULT_255_1_388
10
10.2886849
20
86.4707065
40
0.2643487
50
85.0150021
51
90.050843
0
LINE
8
DEFAULT_255_1_388
10
12.1859356
20
86.4287468
11
12.3603236
21
86.4287468
0
LINE
8
DEFAULT_255_1_388
10
11.3474278
20
86.6076525
11
11.3474278
21
86.7341516
0
LINE
8
DEFAULT_255_1_388
10
12.3603236
20
86.9040217
11
12.1859356
21
86.9040217
0
LINE
8
DEFAULT_255_1_388
10
11.5218158
20
86.7296337
11
11.5218158
21
86.6022312
0
ARC
8
DEFAULT_255_1_388
10
11.743747
20
86.4959329
40
0.6202263
50
340.1774904
51
353.7812217
0
ARC
8
DEFAULT_255_1_388
10
11.9205323
20
86.4300893
40
0.4315926
50
311.4560052
51
340.4420756
0
ARC
8
DEFAULT_255_1_388
10
11.9167862
20
86.4425665
40
0.4434573
50
282.4332229
51
310.7514507
0
ARC
8
DEFAULT_255_1_388
10
11.867368
20
86.6467703
40
0.6535262
50
269.9358869
51
282.8096729
0
ARC
8
DEFAULT_255_1_388
10
11.861562
20
86.7980329
40
0.8048043
50
269.9995752
51
270.3612856
0
ARC
8
DEFAULT_255_1_388
10
11.855611
20
86.5181781
40
0.5249831
50
250.7885263
51
270.6488451
0
ARC
8
DEFAULT_255_1_388
10
11.8366934
20
86.4464853
40
0.4510942
50
219.3628377
51
250.0611024
0
ARC
8
DEFAULT_255_1_388
10
11.9299809
20
86.5257653
40
0.5735046
50
193.5480293
51
219.5755675
0
ARC
8
DEFAULT_255_1_388
10
12.1968018
20
86.595052
40
0.849146
50
181.1220183
51
193.8754971
0
ARC
8
DEFAULT_255_1_388
10
12.4291251
20
86.6074914
40
1.0816971
50
179.9914644
51
181.5398227
0
ARC
8
DEFAULT_255_1_388
10
12.2214561
20
86.7383586
40
0.8740384
50
169.5837606
51
180.275782
0
ARC
8
DEFAULT_255_1_388
10
12.0147909
20
86.7765439
40
0.6638751
50
155.0367033
51
169.6002779
0
ARC
8
DEFAULT_255_1_388
10
11.8870368
20
86.8381336
40
0.5220662
50
136.7831557
51
155.2472983
0
ARC
8
DEFAULT_255_1_388
10
11.8432158
20
86.8753577
40
0.4646502
50
121.7633063
51
136.4281161
0
ARC
8
DEFAULT_255_1_388
10
11.8583998
20
86.8473049
40
0.4964979
50
95.6460018
51
121.5489589
0
ARC
8
DEFAULT_255_1_388
10
11.8760973
20
86.7225704
40
0.6223912
50
89.9245727
51
96.1375919
0
ARC
8
DEFAULT_255_1_388
10
11.8817678
20
86.7359721
40
0.6090084
50
76.6779212
51
90.456405
0
ARC
8
DEFAULT_255_1_388
10
11.9260491
20
86.914906
40
0.42469
50
47.4858803
51
76.9287069
0
ARC
8
DEFAULT_255_1_388
10
11.9095104
20
86.9036623
40
0.4441778
50
16.5424081
51
46.8934505
0
ARC
8
DEFAULT_255_1_388
10
11.7286154
20
86.8442265
40
0.6345318
50
5.4072971
51
17.0363711
0
ARC
8
DEFAULT_255_1_388
10
11.5667879
20
86.8182304
40
0.6250632
50
7.8888693
51
15.9242022
0
ARC
8
DEFAULT_255_1_388
10
11.7902865
20
86.8831309
40
0.3923364
50
15.7650676
51
27.9410069
0
ARC
8
DEFAULT_255_1_388
10
11.9145034
20
86.9496317
40
0.2514401
50
27.8167196
51
46.4007942
0
ARC
8
DEFAULT_255_1_388
10
11.9200875
20
86.9489882
40
0.2480958
50
47.4372362
51
75.0695672
0
ARC
8
DEFAULT_255_1_388
10
11.8853711
20
86.8281277
40
0.3738281
50
74.7009379
51
87.8124314
0
ARC
8
DEFAULT_255_1_388
10
11.8771328
20
86.7097659
40
0.4924321
50
87.3802571
51
90.0251599
0
ARC
8
DEFAULT_255_1_388
10
11.8727976
20
86.8417997
40
0.3604218
50
89.3451886
51
108.5744412
0
ARC
8
DEFAULT_255_1_388
10
11.8573968
20
86.8995836
40
0.3007661
50
109.2998307
51
143.3037387
0
ARC
8
DEFAULT_255_1_388
10
11.9431258
20
86.8336584
40
0.4089031
50
143.075267
51
163.1918576
0
ARC
8
DEFAULT_255_1_388
10
12.1627092
20
86.7643652
40
0.6391492
50
162.9375929
51
174.6208776
0
ARC
8
DEFAULT_255_1_388
10
12.4581474
20
86.7319711
40
0.9363344
50
174.342123
51
180.1430283
0
ARC
8
DEFAULT_255_1_388
10
12.3534015
20
86.5976117
40
0.8315986
50
179.6817261
51
189.150555
0
ARC
8
DEFAULT_255_1_388
10
12.0720764
20
86.5507559
40
0.5464044
50
188.9911061
51
203.5772363
0
ARC
8
DEFAULT_255_1_388
10
11.9506056
20
86.5003539
40
0.4149206
50
203.9075402
51
215.1312435
0
ARC
8
DEFAULT_255_1_388
10
11.8467853
20
86.4198907
40
0.2837747
50
213.9071511
51
263.8848919
0
ARC
8
DEFAULT_255_1_388
10
11.8608847
20
86.5081519
40
0.3730641
50
263.1757928
51
270.1031044
0
ARC
8
DEFAULT_255_1_388
10
11.8644926
20
86.6484511
40
0.5133712
50
269.6722503
51
279.0606936
0
ARC
8
DEFAULT_255_1_388
10
11.8945082
20
86.467015
40
0.3294739
50
278.8749101
51
293.6349581
0
ARC
8
DEFAULT_255_1_388
10
11.9305285
20
86.3824251
40
0.2375405
50
293.8553806
51
310.0518171
0
ARC
8
DEFAULT_255_1_388
10
11.9310794
20
86.3754021
40
0.2318463
50
311.0644687
51
332.0111037
0
ARC
8
DEFAULT_255_1_388
10
11.7969468
20
86.4493702
40
0.3850112
50
331.6586806
51
343.2877423
0
ARC
8
DEFAULT_255_1_388
10
11.5648933
20
86.5206806
40
0.6277712
50
343.1446576
51
351.0103568
0
ARC
8
DEFAULT_255_1_388
10
11.4016256
20
86.5506873
40
0.7937327
50
350.71248
51
351.1626997
0
LINE
8
DEFAULT_255_1_388
10
12.5265794
20
86.4974177
11
12.5265794
21
86.509164
0
LINE
8
DEFAULT_255_1_388
10
13.4165904
20
86.5010319
11
13.4165904
21
86.4892856
0
ARC
8
DEFAULT_255_1_388
10
13.1550239
20
86.512804
40
0.628455
50
166.3005265
51
180.3318609
0
ARC
8
DEFAULT_255_1_388
10
13.0579589
20
86.5345267
40
0.52901
50
153.8608648
51
166.0965672
0
ARC
8
DEFAULT_255_1_388
10
12.9830755
20
86.5746652
40
0.4441126
50
135.1317053
51
154.2534962
0
ARC
8
DEFAULT_255_1_388
10
12.9517405
20
86.6023431
40
0.4023863
50
121.7042632
51
134.7771455
0
ARC
8
DEFAULT_255_1_388
10
12.9592837
20
86.5878469
40
0.4186852
50
93.4001111
51
121.5399523
0
ARC
8
DEFAULT_255_1_388
10
12.9699671
20
86.4948759
40
0.5121521
50
89.9706387
51
93.9763381
0
ARC
8
DEFAULT_255_1_388
10
12.9752656
20
86.5388563
40
0.4681988
50
71.3321659
51
90.6162917
0
ARC
8
DEFAULT_255_1_388
10
12.993569
20
86.6066003
40
0.3981841
50
41.1813875
51
70.7072086
0
ARC
8
DEFAULT_255_1_388
10
12.9398406
20
86.557813
40
0.4707474
50
12.1971434
51
41.3446641
0
ARC
8
DEFAULT_255_1_388
10
12.723167
20
86.5062328
40
0.6934429
50
359.5702713
51
12.5803533
0
ARC
8
DEFAULT_255_1_388
10
12.7763986
20
86.4857207
40
0.6402018
50
347.0196754
51
0.3190452
0
ARC
8
DEFAULT_255_1_388
10
12.8842039
20
86.4625189
40
0.5299421
50
334.350439
51
346.8460534
0
ARC
8
DEFAULT_255_1_388
10
12.9793285
20
86.4131244
40
0.4228234
50
310.4228125
51
334.8045131
0
ARC
8
DEFAULT_255_1_388
10
12.9885264
20
86.4059301
40
0.4113892
50
301.8488154
51
310.0972985
0
ARC
8
DEFAULT_255_1_388
10
12.9849004
20
86.4144573
40
0.4205483
50
274.3078723
51
301.6554173
0
ARC
8
DEFAULT_255_1_388
10
12.972446
20
86.5131943
40
0.5199658
50
269.954904
51
274.859116
0
ARC
8
DEFAULT_255_1_388
10
12.9669284
20
86.4568239
40
0.4636233
50
250.8887647
51
270.6313164
0
ARC
8
DEFAULT_255_1_388
10
12.9500444
20
86.3939405
40
0.398705
50
221.1701369
51
250.2227012
0
ARC
8
DEFAULT_255_1_388
10
13.004511
20
86.4435716
40
0.4723796
50
191.6263861
51
221.3526879
0
ARC
8
DEFAULT_255_1_388
10
13.2168955
20
86.4927203
40
0.6903321
50
179.6101251
51
192.0694841
0
ARC
8
DEFAULT_255_1_388
10
13.2645303
20
86.4856681
40
0.5698993
50
179.636304
51
190.6161344
0
ARC
8
DEFAULT_255_1_388
10
13.0797634
20
86.4496635
40
0.3816643
50
190.4136062
51
208.7168709
0
ARC
8
DEFAULT_255_1_388
10
13.0223669
20
86.4211905
40
0.3176572
50
209.187109
51
217.4221816
0
ARC
8
DEFAULT_255_1_388
10
12.9628139
20
86.3687729
40
0.2385702
50
216.1156863
51
265.2575395
0
ARC
8
DEFAULT_255_1_388
10
12.9717175
20
86.4332608
40
0.3035941
50
264.5891546
51
270.0602378
0
ARC
8
DEFAULT_255_1_388
10
12.9754372
20
86.3905539
40
0.2609091
50
269.2532353
51
291.8793864
0
ARC
8
DEFAULT_255_1_388
10
12.9787251
20
86.3705359
40
0.241148
50
292.9269367
51
323.1777736
0
ARC
8
DEFAULT_255_1_388
10
12.9316536
20
86.4118762
40
0.3036446
50
322.25666
51
323.087958
0
ARC
8
DEFAULT_255_1_388
10
12.9013794
20
86.4301332
40
0.3388345
50
323.6941379
51
343.8493587
0
ARC
8
DEFAULT_255_1_388
10
12.723823
20
86.4841698
40
0.5244204
50
343.5746655
51
355.008149
0
ARC
8
DEFAULT_255_1_388
10
12.4979922
20
86.5075797
40
0.7514406
50
354.728272
51
0.1208026
0
ARC
8
DEFAULT_255_1_388
10
12.6968947
20
86.5127947
40
0.5525482
50
359.6235211
51
11.2016685
0
ARC
8
DEFAULT_255_1_388
10
12.8694775
20
86.5483284
40
0.3763527
50
10.9991302
51
30.8317616
0
ARC
8
DEFAULT_255_1_388
10
12.9140078
20
86.5717988
40
0.3260975
50
31.3007463
51
37.395541
0
ARC
8
DEFAULT_255_1_388
10
12.9698798
20
86.6189773
40
0.253082
50
36.5918894
51
62.2439906
0
ARC
8
DEFAULT_255_1_388
10
12.9751089
20
86.6186378
40
0.2509927
50
63.3364883
51
89.7193846
0
ARC
8
DEFAULT_255_1_388
10
12.9702543
20
86.5538375
40
0.3158485
50
88.8962924
51
90.004475
0
ARC
8
DEFAULT_255_1_388
10
12.966697
20
86.6191071
40
0.250604
50
89.1923115
51
114.7099029
0
ARC
8
DEFAULT_255_1_388
10
12.9699312
20
86.6233675
40
0.2481307
50
115.7996284
51
142.2901353
0
ARC
8
DEFAULT_255_1_388
10
13.0167583
20
86.5814752
40
0.310833
50
141.4607507
51
142.383894
0
ARC
8
DEFAULT_255_1_388
10
13.0315434
20
86.5746449
40
0.3267335
50
143.0176473
51
163.2340089
0
ARC
8
DEFAULT_255_1_388
10
13.2090723
20
86.5184553
40
0.5129308
50
162.9446504
51
174.3733893
0
ARC
8
DEFAULT_255_1_388
10
13.4504695
20
86.4913483
40
0.75583
50
174.1225809
51
180.1563667
0
LINE
8
DEFAULT_255_1_388
10
13.6262174
20
86.9889567
11
13.7843412
21
86.9889567
0
LINE
8
DEFAULT_255_1_388
10
13.7843412
20
86.9889567
11
13.7897625
21
86.866072
0
LINE
8
DEFAULT_255_1_388
10
14.3951507
20
86.6573486
11
14.3951507
21
86.0113
0
LINE
8
DEFAULT_255_1_388
10
14.3951507
20
86.0113
11
14.2279913
21
86.0113
0
LINE
8
DEFAULT_255_1_388
10
14.2279913
20
86.0113
11
14.2279913
21
86.6582521
0
LINE
8
DEFAULT_255_1_388
10
13.7933768
20
86.7079482
11
13.7933768
21
86.0113
0
LINE
8
DEFAULT_255_1_388
10
13.7933768
20
86.0113
11
13.6262174
21
86.0113
0
LINE
8
DEFAULT_255_1_388
10
13.6262174
20
86.0113
11
13.6262174
21
86.9889567
0
ARC
8
DEFAULT_255_1_388
10
14.0827925
20
86.6397868
40
0.3702317
50
116.459579
51
142.3237674
0
ARC
8
DEFAULT_255_1_388
10
14.0764204
20
86.6374216
40
0.3695717
50
89.9344799
51
115.4117431
0
ARC
8
DEFAULT_255_1_388
10
14.0825253
20
86.5457477
40
0.4612803
50
90.0009789
51
90.7058119
0
ARC
8
DEFAULT_255_1_388
10
14.089465
20
86.6154095
40
0.3916802
50
71.6503198
51
91.0163578
0
ARC
8
DEFAULT_255_1_388
10
14.1295715
20
86.7483483
40
0.2529032
50
13.4487463
51
70.7930078
0
ARC
8
DEFAULT_255_1_388
10
13.8706086
20
86.6662303
40
0.5242314
50
1.3250409
51
15.5955556
0
ARC
8
DEFAULT_255_1_388
10
13.6407328
20
86.6516495
40
0.7544396
50
0.4328171
51
2.0283925
0
ARC
8
DEFAULT_255_1_388
10
13.8503531
20
86.657166
40
0.3776398
50
0.1647891
51
8.9343738
0
ARC
8
DEFAULT_255_1_388
10
13.992257
20
86.6802206
40
0.2338783
50
8.7538928
51
22.2899346
0
ARC
8
DEFAULT_255_1_388
10
14.0675001
20
86.7112479
40
0.1524893
50
22.2261896
51
42.6534349
0
ARC
8
DEFAULT_255_1_388
10
14.0746042
20
86.7139551
40
0.1454574
50
43.7652806
51
71.277358
0
ARC
8
DEFAULT_255_1_388
10
14.0459605
20
86.6344698
40
0.2299367
50
70.8751244
51
84.317538
0
ARC
8
DEFAULT_255_1_388
10
14.0328317
20
86.523887
40
0.3412827
50
83.9624774
51
90.1534326
0
ARC
8
DEFAULT_255_1_388
10
14.0297076
20
86.6075668
40
0.2576111
50
89.5084243
51
108.792202
0
ARC
8
DEFAULT_255_1_388
10
14.0226444
20
86.6333171
40
0.2309638
50
109.1912151
51
125.3077659
0
ARC
8
DEFAULT_255_1_388
10
14.0593302
20
86.5814216
40
0.2945169
50
125.2968281
51
154.5573532
0
LINE
8
DEFAULT_255_1_388
10
14.7068805
20
87.2256906
11
14.8740399
21
87.2256906
0
LINE
8
DEFAULT_255_1_388
10
14.8740399
20
87.2256906
11
14.8740399
21
86.9889567
0
LINE
8
DEFAULT_255_1_388
10
14.8740399
20
86.9889567
11
15.0565599
21
86.9889567
0
LINE
8
DEFAULT_255_1_388
10
15.0565599
20
86.9889567
11
15.0565599
21
86.859747
0
LINE
8
DEFAULT_255_1_388
10
15.0565599
20
86.859747
11
14.8740399
21
86.859747
0
LINE
8
DEFAULT_255_1_388
10
14.8740399
20
86.859747
11
14.8740399
21
86.2534553
0
LINE
8
DEFAULT_255_1_388
10
15.0610777
20
86.1468347
11
15.0610777
21
86.0113
0
LINE
8
DEFAULT_255_1_388
10
14.7068805
20
86.2534553
11
14.7068805
21
86.859747
0
LINE
8
DEFAULT_255_1_388
10
14.7068805
20
86.859747
11
14.5288783
21
86.859747
0
LINE
8
DEFAULT_255_1_388
10
14.5288783
20
86.859747
11
14.5288783
21
86.9889567
0
LINE
8
DEFAULT_255_1_388
10
14.5288783
20
86.9889567
11
14.7068805
21
86.9889567
0
LINE
8
DEFAULT_255_1_388
10
14.7068805
20
86.9889567
11
14.7068805
21
87.2256906
0
ARC
8
DEFAULT_255_1_388
10
15.0998906
20
86.2522842
40
0.2258538
50
179.7029045
51
187.9180047
0
ARC
8
DEFAULT_255_1_388
10
15.015948
20
86.2402019
40
0.1410477
50
187.7540838
51
200.2454047
0
ARC
8
DEFAULT_255_1_388
10
14.9686386
20
86.2225591
40
0.0905561
50
200.1304287
51
219.1733455
0
ARC
8
DEFAULT_255_1_388
10
14.9533552
20
86.2121695
40
0.0721626
50
220.4434631
51
249.6169985
0
ARC
8
DEFAULT_255_1_388
10
14.9707779
20
86.2559919
40
0.1193141
50
249.1038184
51
262.7745376
0
ARC
8
DEFAULT_255_1_388
10
14.9806961
20
86.3267481
40
0.1907583
50
262.4921618
51
270.2607019
0
ARC
8
DEFAULT_255_1_388
10
14.9804043
20
86.3509817
40
0.2149929
50
270.309081
51
275.6615459
0
ARC
8
DEFAULT_255_1_388
10
14.964345
20
86.5198342
40
0.3846066
50
275.5607354
51
279.087751
0
ARC
8
DEFAULT_255_1_388
10
14.9271383
20
86.7559428
40
0.6236283
50
279.0369545
51
281.5000133
0
ARC
8
DEFAULT_255_1_388
10
14.8880651
20
86.9536499
40
0.825157
50
281.4217093
51
282.1031556
0
ARC
8
DEFAULT_255_1_388
10
14.9256626
20
86.4993229
40
0.5064619
50
275.2597791
51
285.5081125
0
ARC
8
DEFAULT_255_1_388
10
14.932564
20
86.4367452
40
0.4435166
50
270.0268175
51
275.1130565
0
ARC
8
DEFAULT_255_1_388
10
14.9303091
20
86.2874367
40
0.2942182
50
257.3572424
51
270.4795428
0
ARC
8
DEFAULT_255_1_388
10
14.9063361
20
86.1863952
40
0.1903838
50
230.8036715
51
257.7414447
0
ARC
8
DEFAULT_255_1_388
10
14.8986858
20
86.1740723
40
0.1760087
50
219.9745381
51
230.1985446
0
ARC
8
DEFAULT_255_1_388
10
14.9360145
20
86.2026116
40
0.2229598
50
196.5081334
51
219.4319996
0
ARC
8
DEFAULT_255_1_388
10
15.0502756
20
86.2384617
40
0.3427033
50
184.6408645
51
196.8266009
0
ARC
8
DEFAULT_255_1_388
10
15.1903662
20
86.252601
40
0.4834863
50
179.8987586
51
184.9677262
0
LINE
8
DEFAULT_255_1_388
10
15.724294
20
86.9943781
11
15.724294
21
86.838965
0
LINE
8
DEFAULT_255_1_388
10
15.4188893
20
86.7052375
11
15.4188893
21
86.0113
0
LINE
8
DEFAULT_255_1_388
10
15.4188893
20
86.0113
11
15.2517298
21
86.0113
0
LINE
8
DEFAULT_255_1_388
10
15.2517298
20
86.0113
11
15.2517298
21
86.9889567
0
LINE
8
DEFAULT_255_1_388
10
15.2517298
20
86.9889567
11
15.4143714
21
86.9889567
0
LINE
8
DEFAULT_255_1_388
10
15.4143714
20
86.9889567
11
15.4170821
21
86.8760112
0
ARC
8
DEFAULT_255_1_388
10
15.64931
20
86.3823068
40
0.4627735
50
80.6751522
51
86.893806
0
ARC
8
DEFAULT_255_1_388
10
15.642493
20
86.2731103
40
0.5721798
50
86.8046851
51
90.0423898
0
ARC
8
DEFAULT_255_1_388
10
15.638335
20
86.5498197
40
0.2954939
50
89.2758283
51
106.6212906
0
ARC
8
DEFAULT_255_1_388
10
15.6153374
20
86.6334009
40
0.2088351
50
107.1347109
51
157.6456887
0
ARC
8
DEFAULT_255_1_388
10
15.6921437
20
86.5906908
40
0.296292
50
155.6557383
51
157.256838
0
ARC
8
DEFAULT_255_1_388
10
15.6701051
20
86.7217472
40
0.296341
50
127.8167201
51
148.6300223
0
ARC
8
DEFAULT_255_1_388
10
15.6415798
20
86.7510066
40
0.2557782
50
91.3329934
51
126.7875218
0
ARC
8
DEFAULT_255_1_388
10
15.6501185
20
86.6706718
40
0.3363561
50
89.9858247
51
92.4688453
0
ARC
8
DEFAULT_255_1_388
10
15.6510679
20
86.7015114
40
0.3055179
50
85.3587643
51
90.1624243
0
ARC
8
DEFAULT_255_1_388
10
15.6605744
20
86.8144458
40
0.1921848
50
78.4019195
51
85.4592653
0
ARC
8
DEFAULT_255_1_388
10
15.6768804
20
86.8922142
40
0.1127267
50
67.7849217
51
78.573798
0
ARC
8
DEFAULT_255_1_388
10
15.6890439
20
86.9237374
40
0.0789473
50
63.4805074
51
67.3074739
0
LINE
8
DEFAULT_255_1_388
10
15.8155541
20
86.4974177
11
15.8155541
21
86.509164
0
LINE
8
DEFAULT_255_1_388
10
16.705565
20
86.5010319
11
16.705565
21
86.4892856
0
ARC
8
DEFAULT_255_1_388
10
16.4439985
20
86.512804
40
0.628455
50
166.3005265
51
180.3318609
0
ARC
8
DEFAULT_255_1_388
10
16.3469335
20
86.5345267
40
0.52901
50
153.8608648
51
166.0965672
0
ARC
8
DEFAULT_255_1_388
10
16.2720501
20
86.5746652
40
0.4441126
50
135.1317053
51
154.2534962
0
ARC
8
DEFAULT_255_1_388
10
16.2407151
20
86.6023431
40
0.4023863
50
121.7042632
51
134.7771455
0
ARC
8
DEFAULT_255_1_388
10
16.2482583
20
86.5878469
40
0.4186852
50
93.4001111
51
121.5399523
0
ARC
8
DEFAULT_255_1_388
10
16.2589417
20
86.4948759
40
0.5121521
50
89.9706387
51
93.9763381
0
ARC
8
DEFAULT_255_1_388
10
16.2642402
20
86.5388563
40
0.4681988
50
71.3321659
51
90.6162917
0
ARC
8
DEFAULT_255_1_388
10
16.2825436
20
86.6066003
40
0.3981841
50
41.1813875
51
70.7072086
0
ARC
8
DEFAULT_255_1_388
10
16.2288152
20
86.557813
40
0.4707474
50
12.1971434
51
41.3446641
0
ARC
8
DEFAULT_255_1_388
10
16.0121416
20
86.5062328
40
0.6934429
50
359.5702713
51
12.5803533
0
ARC
8
DEFAULT_255_1_388
10
16.0653732
20
86.4857207
40
0.6402018
50
347.0196754
51
0.3190452
0
ARC
8
DEFAULT_255_1_388
10
16.1731785
20
86.4625189
40
0.5299421
50
334.350439
51
346.8460534
0
ARC
8
DEFAULT_255_1_388
10
16.2683031
20
86.4131244
40
0.4228234
50
310.4228125
51
334.8045131
0
ARC
8
DEFAULT_255_1_388
10
16.277501
20
86.4059301
40
0.4113892
50
301.8488154
51
310.0972985
0
ARC
8
DEFAULT_255_1_388
10
16.273875
20
86.4144573
40
0.4205483
50
274.3078723
51
301.6554173
0
ARC
8
DEFAULT_255_1_388
10
16.2614206
20
86.5131943
40
0.5199658
50
269.954904
51
274.859116
0
ARC
8
DEFAULT_255_1_388
10
16.255903
20
86.4568239
40
0.4636233
50
250.8887647
51
270.6313164
0
ARC
8
DEFAULT_255_1_388
10
16.239019
20
86.3939405
40
0.398705
50
221.1701369
51
250.2227012
0
ARC
8
DEFAULT_255_1_388
10
16.2934856
20
86.4435716
40
0.4723796
50
191.6263861
51
221.3526879
0
ARC
8
DEFAULT_255_1_388
10
16.5058701
20
86.4927203
40
0.6903321
50
179.6101251
51
192.0694841
0
ARC
8
DEFAULT_255_1_388
10
16.5535049
20
86.4856681
40
0.5698993
50
179.636304
51
190.6161344
0
ARC
8
DEFAULT_255_1_388
10
16.368738
20
86.4496635
40
0.3816643
50
190.4136062
51
208.7168709
0
ARC
8
DEFAULT_255_1_388
10
16.3113415
20
86.4211905
40
0.3176572
50
209.187109
51
217.4221816
0
ARC
8
DEFAULT_255_1_388
10
16.2517885
20
86.3687729
40
0.2385702
50
216.1156863
51
265.2575395
0
ARC
8
DEFAULT_255_1_388
10
16.2606921
20
86.4332608
40
0.3035941
50
264.5891546
51
270.0602378
0
ARC
8
DEFAULT_255_1_388
10
16.2644118
20
86.3905539
40
0.2609091
50
269.2532353
51
291.8793864
0
ARC
8
DEFAULT_255_1_388
10
16.2676997
20
86.3705359
40
0.241148
50
292.9269367
51
323.1777736
0
ARC
8
DEFAULT_255_1_388
10
16.2206282
20
86.4118762
40
0.3036446
50
322.25666
51
323.087958
0
ARC
8
DEFAULT_255_1_388
10
16.190354
20
86.4301332
40
0.3388345
50
323.6941379
51
343.8493587
0
ARC
8
DEFAULT_255_1_388
10
16.0127976
20
86.4841698
40
0.5244204
50
343.5746655
51
355.008149
0
ARC
8
DEFAULT_255_1_388
10
15.7869668
20
86.5075797
40
0.7514406
50
354.728272
51
0.1208026
0
ARC
8
DEFAULT_255_1_388
10
15.9858694
20
86.5127947
40
0.5525482
50
359.6235211
51
11.2016685
0
ARC
8
DEFAULT_255_1_388
10
16.1584521
20
86.5483284
40
0.3763527
50
10.9991302
51
30.8317616
0
ARC
8
DEFAULT_255_1_388
10
16.2029824
20
86.5717988
40
0.3260975
50
31.3007463
51
37.395541
0
ARC
8
DEFAULT_255_1_388
10
16.2588544
20
86.6189773
40
0.253082
50
36.5918894
51
62.2439906
0
ARC
8
DEFAULT_255_1_388
10
16.2640835
20
86.6186378
40
0.2509927
50
63.3364883
51
89.7193846
0
ARC
8
DEFAULT_255_1_388
10
16.2592289
20
86.5538375
40
0.3158485
50
88.8962924
51
90.004475
0
ARC
8
DEFAULT_255_1_388
10
16.2556716
20
86.6191071
40
0.250604
50
89.1923115
51
114.7099029
0
ARC
8
DEFAULT_255_1_388
10
16.2589058
20
86.6233675
40
0.2481307
50
115.7996284
51
142.2901353
0
ARC
8
DEFAULT_255_1_388
10
16.3057329
20
86.5814752
40
0.310833
50
141.4607507
51
142.383894
0
ARC
8
DEFAULT_255_1_388
10
16.320518
20
86.5746449
40
0.3267335
50
143.0176473
51
163.2340089
0
ARC
8
DEFAULT_255_1_388
10
16.4980469
20
86.5184553
40
0.5129308
50
162.9446504
51
174.3733893
0
ARC
8
DEFAULT_255_1_388
10
16.7394441
20
86.4913483
40
0.75583
50
174.1225809
51
180.1563667
0
LINE
8
DEFAULT_255_1_388
10
17.0968084
20
87.399175
11
17.0968084
21
86.0113
0
LINE
8
DEFAULT_255_1_388
10
17.0968084
20
86.0113
11
16.929649
21
86.0113
0
LINE
8
DEFAULT_255_1_388
10
16.929649
20
86.0113
11
16.929649
21
87.399175
0
LINE
8
DEFAULT_255_1_388
10
16.929649
20
87.399175
11
17.0968084
21
87.399175
0
LINE
8
DEFAULT_255_1_388
10
17.5648548
20
87.3268898
11
17.5648548
21
86.1531596
0
LINE
8
DEFAULT_255_1_388
10
17.5648548
20
86.1531596
11
18.1883143
21
86.1531596
0
LINE
8
DEFAULT_255_1_388
10
18.1883143
20
86.1531596
11
18.1883143
21
86.0113
0
LINE
8
DEFAULT_255_1_388
10
18.1883143
20
86.0113
11
17.3904669
21
86.0113
0
LINE
8
DEFAULT_255_1_388
10
17.3904669
20
86.0113
11
17.3904669
21
87.3268898
0
LINE
8
DEFAULT_255_1_388
10
17.3904669
20
87.3268898
11
17.5648548
21
87.3268898
0
LINE
8
DEFAULT_255_1_388
10
18.3157169
20
86.4974177
11
18.3157169
21
86.509164
0
LINE
8
DEFAULT_255_1_388
10
19.2057279
20
86.5010319
11
19.2057279
21
86.4892856
0
ARC
8
DEFAULT_255_1_388
10
18.9441613
20
86.512804
40
0.628455
50
166.3005265
51
180.3318609
0
ARC
8
DEFAULT_255_1_388
10
18.8470963
20
86.5345267
40
0.52901
50
153.8608648
51
166.0965672
0
ARC
8
DEFAULT_255_1_388
10
18.7722129
20
86.5746652
40
0.4441126
50
135.1317053
51
154.2534962
0
ARC
8
DEFAULT_255_1_388
10
18.740878
20
86.6023431
40
0.4023863
50
121.7042632
51
134.7771455
0
ARC
8
DEFAULT_255_1_388
10
18.7484212
20
86.5878469
40
0.4186852
50
93.4001111
51
121.5399523
0
ARC
8
DEFAULT_255_1_388
10
18.7591046
20
86.4948759
40
0.5121521
50
89.9706387
51
93.9763381
0
ARC
8
DEFAULT_255_1_388
10
18.764403
20
86.5388563
40
0.4681988
50
71.3321659
51
90.6162917
0
ARC
8
DEFAULT_255_1_388
10
18.7827064
20
86.6066003
40
0.3981841
50
41.1813875
51
70.7072086
0
ARC
8
DEFAULT_255_1_388
10
18.728978
20
86.557813
40
0.4707474
50
12.1971434
51
41.3446641
0
ARC
8
DEFAULT_255_1_388
10
18.5123044
20
86.5062328
40
0.6934429
50
359.5702713
51
12.5803533
0
ARC
8
DEFAULT_255_1_388
10
18.565536
20
86.4857207
40
0.6402018
50
347.0196754
51
0.3190452
0
ARC
8
DEFAULT_255_1_388
10
18.6733413
20
86.4625189
40
0.5299421
50
334.350439
51
346.8460534
0
ARC
8
DEFAULT_255_1_388
10
18.768466
20
86.4131244
40
0.4228234
50
310.4228125
51
334.8045131
0
ARC
8
DEFAULT_255_1_388
10
18.7776638
20
86.4059301
40
0.4113892
50
301.8488154
51
310.0972985
0
ARC
8
DEFAULT_255_1_388
10
18.7740378
20
86.4144573
40
0.4205483
50
274.3078723
51
301.6554173
0
ARC
8
DEFAULT_255_1_388
10
18.7615834
20
86.5131943
40
0.5199658
50
269.954904
51
274.859116
0
ARC
8
DEFAULT_255_1_388
10
18.7560658
20
86.4568239
40
0.4636233
50
250.8887647
51
270.6313164
0
ARC
8
DEFAULT_255_1_388
10
18.7391819
20
86.3939405
40
0.398705
50
221.1701369
51
250.2227012
0
ARC
8
DEFAULT_255_1_388
10
18.7936484
20
86.4435716
40
0.4723796
50
191.6263861
51
221.3526879
0
ARC
8
DEFAULT_255_1_388
10
19.0060329
20
86.4927203
40
0.6903321
50
179.6101251
51
192.0694841
0
ARC
8
DEFAULT_255_1_388
10
19.0536677
20
86.4856681
40
0.5698993
50
179.636304
51
190.6161344
0
ARC
8
DEFAULT_255_1_388
10
18.8689009
20
86.4496635
40
0.3816643
50
190.4136062
51
208.7168709
0
ARC
8
DEFAULT_255_1_388
10
18.8115043
20
86.4211905
40
0.3176572
50
209.187109
51
217.4221816
0
ARC
8
DEFAULT_255_1_388
10
18.7519513
20
86.3687729
40
0.2385702
50
216.1156863
51
265.2575395
0
ARC
8
DEFAULT_255_1_388
10
18.760855
20
86.4332608
40
0.3035941
50
264.5891546
51
270.0602378
0
ARC
8
DEFAULT_255_1_388
10
18.7645746
20
86.3905539
40
0.2609091
50
269.2532353
51
291.8793864
0
ARC
8
DEFAULT_255_1_388
10
18.7678625
20
86.3705359
40
0.241148
50
292.9269367
51
323.1777736
0
ARC
8
DEFAULT_255_1_388
10
18.7207911
20
86.4118762
40
0.3036446
50
322.25666
51
323.087958
0
ARC
8
DEFAULT_255_1_388
10
18.6905168
20
86.4301332
40
0.3388345
50
323.6941379
51
343.8493587
0
ARC
8
DEFAULT_255_1_388
10
18.5129605
20
86.4841698
40
0.5244204
50
343.5746655
51
355.008149
0
ARC
8
DEFAULT_255_1_388
10
18.2871296
20
86.5075797
40
0.7514406
50
354.728272
51
0.1208026
0
ARC
8
DEFAULT_255_1_388
10
18.4860322
20
86.5127947
40
0.5525482
50
359.6235211
51
11.2016685
0
ARC
8
DEFAULT_255_1_388
10
18.6586149
20
86.5483284
40
0.3763527
50
10.9991302
51
30.8317616
0
ARC
8
DEFAULT_255_1_388
10
18.7031453
20
86.5717988
40
0.3260975
50
31.3007463
51
37.395541
0
ARC
8
DEFAULT_255_1_388
10
18.7590172
20
86.6189773
40
0.253082
50
36.5918894
51
62.2439906
0
ARC
8
DEFAULT_255_1_388
10
18.7642464
20
86.6186378
40
0.2509927
50
63.3364883
51
89.7193846
0
ARC
8
DEFAULT_255_1_388
10
18.7593917
20
86.5538375
40
0.3158485
50
88.8962924
51
90.004475
0
ARC
8
DEFAULT_255_1_388
10
18.7558344
20
86.6191071
40
0.250604
50
89.1923115
51
114.7099029
0
ARC
8
DEFAULT_255_1_388
10
18.7590686
20
86.6233675
40
0.2481307
50
115.7996284
51
142.2901353
0
ARC
8
DEFAULT_255_1_388
10
18.8058957
20
86.5814752
40
0.310833
50
141.4607507
51
142.383894
0
ARC
8
DEFAULT_255_1_388
10
18.8206808
20
86.5746449
40
0.3267335
50
143.0176473
51
163.2340089
0
ARC
8
DEFAULT_255_1_388
10
18.9982097
20
86.5184553
40
0.5129308
50
162.9446504
51
174.3733893
0
ARC
8
DEFAULT_255_1_388
10
19.239607
20
86.4913483
40
0.75583
50
174.1225809
51
180.1563667
0
LINE
8
DEFAULT_255_1_388
10
20.0406214
20
86.880529
11
20.0487535
21
86.9889567
0
LINE
8
DEFAULT_255_1_388
10
20.0487535
20
86.9889567
11
20.2014559
21
86.9889567
0
LINE
8
DEFAULT_255_1_388
10
20.2014559
20
86.9889567
11
20.2014559
21
86.0347927
0
LINE
8
DEFAULT_255_1_388
10
19.425294
20
85.7953481
11
19.5120362
21
85.8956438
0
LINE
8
DEFAULT_255_1_388
10
20.0333929
20
86.0248535
11
20.0333929
21
86.108885
0
LINE
8
DEFAULT_255_1_388
10
20.0333929
20
86.2787551
11
20.0333929
21
86.7251159
0
ARC
8
DEFAULT_255_1_388
10
20.1794907
20
86.513122
40
0.8039074
50
169.8802333
51
180.3464902
0
ARC
8
DEFAULT_255_1_388
10
19.9147713
20
86.562287
40
0.5346711
50
152.8534324
51
170.0824729
0
ARC
8
DEFAULT_255_1_388
10
19.8210108
20
86.6066868
40
0.4309932
50
142.0147746
51
152.418569
0
ARC
8
DEFAULT_255_1_388
10
19.7493556
20
86.6719169
40
0.3344504
50
94.3317494
51
143.2674518
0
ARC
8
DEFAULT_255_1_388
10
19.7610415
20
86.5838903
40
0.423138
50
89.9487512
51
95.0093077
0
ARC
8
DEFAULT_255_1_388
10
19.7657213
20
86.6018021
40
0.4052487
50
72.9496911
51
90.6081488
0
ARC
8
DEFAULT_255_1_388
10
19.7887937
20
86.6853718
40
0.3185963
50
37.7743532
51
72.5099202
0
ARC
8
DEFAULT_255_1_388
10
19.6852803
20
86.0304774
40
0.5161937
50
346.3655403
51
0.4789834
0
ARC
8
DEFAULT_255_1_388
10
19.8391636
20
85.9913644
40
0.3574311
50
314.3365584
51
346.6438898
0
ARC
8
DEFAULT_255_1_388
10
19.8276781
20
86.00749
40
0.3770042
50
280.7144
51
313.872307
0
ARC
8
DEFAULT_255_1_388
10
19.7899516
20
86.1756099
40
0.5492378
50
269.6628653
51
281.3208129
0
ARC
8
DEFAULT_255_1_388
10
19.7881176
20
86.1292105
40
0.5028309
50
245.5258654
51
269.8407328
0
ARC
8
DEFAULT_255_1_388
10
19.7452021
20
86.0487065
40
0.4118207
50
232.6664457
51
246.3200328
0
ARC
8
DEFAULT_255_1_388
10
19.6907265
20
85.9764386
40
0.3213227
50
214.3036526
51
232.5750527
0
ARC
8
DEFAULT_255_1_388
10
19.8165297
20
86.1368259
40
0.3884393
50
218.381912
51
236.3657409
0
ARC
8
DEFAULT_255_1_388
10
19.7715067
20
86.0740326
40
0.3112322
50
236.8637655
51
270.6382272
0
ARC
8
DEFAULT_255_1_388
10
19.777675
20
86.1112587
40
0.3484494
50
269.5557858
51
282.3972101
0
ARC
8
DEFAULT_255_1_388
10
19.8042335
20
85.9970767
40
0.2312324
50
282.043923
51
308.3079272
0
ARC
8
DEFAULT_255_1_388
10
19.813845
20
85.981747
40
0.2132542
50
308.8347234
51
315.2037678
0
ARC
8
DEFAULT_255_1_388
10
19.8050159
20
85.9882123
40
0.2240808
50
315.6213011
51
345.6795376
0
ARC
8
DEFAULT_255_1_388
10
19.6948584
20
86.0188736
40
0.3384084
50
345.2627538
51
358.6311244
0
ARC
8
DEFAULT_255_1_388
10
19.595009
20
86.0247581
40
0.4383839
50
358.1739988
51
0.0124651
0
ARC
8
DEFAULT_255_1_388
10
19.7844266
20
86.3241381
40
0.3291173
50
275.6950404
51
319.1537182
0
ARC
8
DEFAULT_255_1_388
10
19.7605897
20
86.4619049
40
0.4686772
50
269.8805882
51
276.9235205
0
ARC
8
DEFAULT_255_1_388
10
19.7546197
20
86.33699
40
0.3437976
50
244.0748846
51
270.8321697
0
ARC
8
DEFAULT_255_1_388
10
19.7630705
20
86.3392423
40
0.3495805
50
217.781776
51
242.9905232
0
ARC
8
DEFAULT_255_1_388
10
19.8306136
20
86.3993567
40
0.4398355
50
217.5209891
51
218.58043
0
ARC
8
DEFAULT_255_1_388
10
19.8621975
20
86.417913
40
0.4762087
50
195.3497149
51
216.9773048
0
ARC
8
DEFAULT_255_1_388
10
20.0897864
20
86.4840667
40
0.7131994
50
183.9387193
51
195.6348167
0
ARC
8
DEFAULT_255_1_388
10
20.3458059
20
86.5070646
40
0.9702086
50
179.929381
51
184.2551265
0
ARC
8
DEFAULT_255_1_388
10
20.1971725
20
86.4858515
40
0.6535206
50
179.6989243
51
188.5749266
0
ARC
8
DEFAULT_255_1_388
10
19.9706916
20
86.4504789
40
0.4242988
50
188.4117627
51
202.0559679
0
ARC
8
DEFAULT_255_1_388
10
19.8617176
20
86.4076952
40
0.3072368
50
202.2924994
51
215.4475859
0
ARC
8
DEFAULT_255_1_388
10
19.7892247
20
86.3515576
40
0.2156547
50
214.4673097
51
264.3362727
0
ARC
8
DEFAULT_255_1_388
10
19.8006915
20
86.4231673
40
0.2880794
50
263.4723224
51
270.0965288
0
ARC
8
DEFAULT_255_1_388
10
19.805215
20
86.4063896
40
0.2713313
50
269.1472473
51
291.7978484
0
ARC
8
DEFAULT_255_1_388
10
19.8122411
20
86.3750081
40
0.2396396
50
293.0243185
51
327.6232391
0
ARC
8
DEFAULT_255_1_388
10
19.7325844
20
86.4332435
40
0.3381603
50
326.5171836
51
332.8160011
0
ARC
8
DEFAULT_255_1_388
10
19.7721026
20
86.5862272
40
0.29591
50
27.9928465
51
47.6314088
0
ARC
8
DEFAULT_255_1_388
10
19.812773
20
86.6249256
40
0.2399437
50
48.5793547
51
88.6245273
0
ARC
8
DEFAULT_255_1_388
10
19.8030849
20
86.5409448
40
0.3242237
50
87.2690754
51
90.0178312
0
ARC
8
DEFAULT_255_1_388
10
19.7998548
20
86.6147957
40
0.2503923
50
89.2839515
51
110.1847982
0
ARC
8
DEFAULT_255_1_388
10
19.7929349
20
86.6447002
40
0.2199699
50
111.180781
51
145.0423499
0
ARC
8
DEFAULT_255_1_388
10
19.829021
20
86.6134759
40
0.2674811
50
143.9895932
51
144.106678
0
ARC
8
DEFAULT_255_1_388
10
19.866028
20
86.591319
40
0.3104736
50
144.7981654
51
162.8715843
0
ARC
8
DEFAULT_255_1_388
10
20.056688
20
86.5300138
40
0.5107383
50
162.598526
51
173.3417416
0
ARC
8
DEFAULT_255_1_388
10
20.3568253
20
86.4927767
40
0.8131718
50
173.1877249
51
180.2459848
0
LINE
8
DEFAULT_255_1_388
10
20.6351668
20
86.9889567
11
20.6351668
21
86.0113
0
LINE
8
DEFAULT_255_1_388
10
20.6351668
20
86.0113
11
20.4680074
21
86.0113
0
LINE
8
DEFAULT_255_1_388
10
20.4680074
20
86.0113
11
20.4680074
21
86.9889567
0
LINE
8
DEFAULT_255_1_388
10
20.4680074
20
86.9889567
11
20.6351668
21
86.9889567
0
ARC
8
DEFAULT_255_1_388
10
20.5645436
20
87.2493428
40
0.1100948
50
161.4148232
51
180.5532607
0
ARC
8
DEFAULT_255_1_388
10
20.5505746
20
87.2531875
40
0.0956324
50
138.1830164
51
160.9307633
0
ARC
8
DEFAULT_255_1_388
10
20.5381933
20
87.2639313
40
0.0792417
50
104.6371663
51
138.0036136
0
ARC
8
DEFAULT_255_1_388
10
20.5502472
20
87.2226963
40
0.1221906
50
92.0601206
51
105.2198859
0
ARC
8
DEFAULT_255_1_388
10
20.5528836
20
87.1838583
40
0.161103
50
89.9790681
51
92.5006086
0
ARC
8
DEFAULT_255_1_388
10
20.5540012
20
87.2094998
40
0.1354654
50
78.0234649
51
90.4478111
0
ARC
8
DEFAULT_255_1_388
10
20.5643597
20
87.2560203
40
0.0878096
50
55.0521508
51
78.336297
0
ARC
8
DEFAULT_255_1_388
10
20.5700131
20
87.2655168
40
0.0767913
50
42.0506198
51
54.4508489
0
ARC
8
DEFAULT_255_1_388
10
20.5548164
20
87.2515821
40
0.0974091
50
1.7493657
51
42.1498724
0
ARC
8
DEFAULT_255_1_388
10
20.526207
20
87.2483166
40
0.1261276
50
359.9832635
51
2.8353994
0
ARC
8
DEFAULT_255_1_388
10
20.544848
20
87.2472412
40
0.1074916
50
342.1062453
51
0.5535864
0
ARC
8
DEFAULT_255_1_388
10
20.5608904
20
87.2428197
40
0.0908695
50
316.7110111
51
341.6513114
0
ARC
8
DEFAULT_255_1_388
10
20.5684336
20
87.2360607
40
0.0807447
50
285.4398289
51
316.5320129
0
ARC
8
DEFAULT_255_1_388
10
20.5560506
20
87.2772023
40
0.1237022
50
272.3543902
51
285.8951677
0
ARC
8
DEFAULT_255_1_388
10
20.5530216
20
87.3187742
40
0.1653687
50
269.9725761
51
272.8112722
0
ARC
8
DEFAULT_255_1_388
10
20.5519268
20
87.2936727
40
0.1402709
50
258.8433431
51
270.4148607
0
ARC
8
DEFAULT_255_1_388
10
20.5418048
20
87.2446739
40
0.0902407
50
238.54281
51
259.1289544
0
ARC
8
DEFAULT_255_1_388
10
20.534137
20
87.2307694
40
0.0743817
50
222.5056676
51
237.9918132
0
ARC
8
DEFAULT_255_1_388
10
20.5484963
20
87.2438295
40
0.0937918
50
184.1070774
51
222.4604165
0
ARC
8
DEFAULT_255_1_388
10
20.5787377
20
87.2481538
40
0.1242838
50
179.9419581
51
185.0970785
0
LINE
8
DEFAULT_255_1_388
10
21.016471
20
86.9889567
11
21.2306158
21
86.6320488
0
LINE
8
DEFAULT_255_1_388
10
21.2306158
20
86.6320488
11
21.4474713
21
86.9889567
0
LINE
8
DEFAULT_255_1_388
10
21.4474713
20
86.9889567
11
21.6426412
21
86.9889567
0
LINE
8
DEFAULT_255_1_388
10
21.6426412
20
86.9889567
11
21.3227794
21
86.5055498
0
LINE
8
DEFAULT_255_1_388
10
21.3227794
20
86.5055498
11
21.6525804
21
86.0113
0
LINE
8
DEFAULT_255_1_388
10
21.6525804
20
86.0113
11
21.4592176
21
86.0113
0
LINE
8
DEFAULT_255_1_388
10
21.4592176
20
86.0113
11
21.2333265
21
86.3772436
0
LINE
8
DEFAULT_255_1_388
10
21.2333265
20
86.3772436
11
21.0074354
21
86.0113
0
LINE
8
DEFAULT_255_1_388
10
21.0074354
20
86.0113
11
20.813169
21
86.0113
0
LINE
8
DEFAULT_255_1_388
10
20.813169
20
86.0113
11
21.1429701
21
86.5055498
0
LINE
8
DEFAULT_255_1_388
10
21.1429701
20
86.5055498
11
20.8231083
21
86.9889567
0
LINE
8
DEFAULT_255_1_388
10
20.8231083
20
86.9889567
11
21.016471
21
86.9889567
0
LINE
8
DEFAULT_255_2_778
10
9.3932417
20
76.5968829
11
10.7161417
21
76.5968829
0
LINE
8
DEFAULT_255_2_778
10
10.7161417
20
76.5968829
11
10.7161417
21
47.4926829
0
LINE
8
DEFAULT_255_2_778
10
9.3932834
20
47.4927333
11
12.0390834
21
47.4927333
0
LINE
8
DEFAULT_255_2_778
10
12.0390834
20
47.4927333
11
12.0390834
21
42.2010333
0
LINE
8
DEFAULT_255_2_778
10
12.0390834
20
42.2010333
11
9.3932834
21
42.2010333
0
LINE
8
DEFAULT_255_2_778
10
9.3932834
20
42.2010333
11
9.3932834
21
47.4927333
0
ARC
8
DEFAULT_255_2_778_1
10
13.1928591
20
42.303477
40
4.816461
50
120.9442904
51
122.351755
0
ARC
8
DEFAULT_255_2_778_1
10
12.7462523
20
43.0071039
40
3.9830657
50
122.3407904
51
124.1946752
0
ARC
8
DEFAULT_255_2_778_1
10
12.3063464
20
43.6536306
40
3.2010724
50
124.1855758
51
126.4338849
0
ARC
8
DEFAULT_255_2_778_1
10
11.9204129
20
44.1763611
40
2.5513094
50
126.4326926
51
128.8877368
0
ARC
8
DEFAULT_255_2_778_1
10
11.5855968
20
44.5907658
40
2.0185498
50
128.8749205
51
131.8726567
0
ARC
8
DEFAULT_255_2_778_1
10
11.2884677
20
44.9217854
40
1.5737356
50
131.8616166
51
135.4168838
0
ARC
8
DEFAULT_255_2_778_1
10
11.025668
20
45.1799765
40
1.2053256
50
135.3893975
51
139.9687014
0
ARC
8
DEFAULT_255_2_778_1
10
10.7927889
20
45.3748102
40
0.9016937
50
139.9301659
51
145.9260426
0
ARC
8
DEFAULT_255_2_778_1
10
10.596654
20
45.5068104
40
0.6652776
50
145.8787362
51
153.8146208
0
ARC
8
DEFAULT_255_2_778_1
10
10.4445553
20
45.5811797
40
0.4959714
50
153.770634
51
164.3484794
0
ARC
8
DEFAULT_255_2_778_1
10
10.3432387
20
45.6093786
40
0.3908039
50
164.3220276
51
179.8083066
0
ARC
8
DEFAULT_255_2_778_1
10
10.3642789
20
45.617515
40
0.4118985
50
180.9499449
51
213.8111542
0
ARC
8
DEFAULT_255_2_778_1
10
10.6401828
20
45.7870896
40
0.73561
50
212.8271214
51
224.258472
0
ARC
8
DEFAULT_255_2_778_1
10
11.0230335
20
46.1564236
40
1.267567
50
224.1376218
51
231.4508261
0
ARC
8
DEFAULT_255_2_778_1
10
11.6657195
20
46.9594168
40
2.2960809
50
231.3955893
51
236.1256478
0
ARC
8
DEFAULT_255_2_778_1
10
13.4980223
20
49.7059293
40
5.5976905
50
236.2233172
51
239.1314682
0
ARC
8
DEFAULT_255_2_778_1
10
25.447927
20
69.4336568
40
28.6623793
50
238.8606853
51
239.0711101
0
ARC
8
DEFAULT_255_2_778_1
10
6.2757281
20
37.3365653
40
8.7248518
50
57.2420924
51
59.4062964
0
ARC
8
DEFAULT_255_2_778_1
10
9.5034241
20
42.3675102
40
2.747542
50
52.8289294
51
57.079028
0
ARC
8
DEFAULT_255_2_778_1
10
10.2780783
20
43.3878488
40
1.466457
50
46.3041868
51
52.8596521
0
ARC
8
DEFAULT_255_2_778_1
10
10.7103073
20
43.8379842
40
0.8424061
50
36.2174211
51
46.4090895
0
ARC
8
DEFAULT_255_2_778_1
10
10.9948088
20
44.0428128
40
0.4918609
50
17.400375
51
36.5489745
0
ARC
8
DEFAULT_255_2_778_1
10
11.1088994
20
44.0826754
40
0.3710912
50
0.0676858
51
16.7951297
0
ARC
8
DEFAULT_255_2_778_1
10
11.0878613
20
44.0845428
40
0.3921317
50
343.8035191
51
359.7912046
0
ARC
8
DEFAULT_255_2_778_1
10
10.9815912
20
44.1150167
40
0.5026844
50
333.2506233
51
343.8465691
0
ARC
8
DEFAULT_255_2_778_1
10
10.8277757
20
44.1917313
40
0.6745679
50
325.6600948
51
333.3122657
0
ARC
8
DEFAULT_255_2_778_1
10
10.6323344
20
44.3245296
40
0.9108568
50
319.7560915
51
325.6976089
0
ARC
8
DEFAULT_255_2_778_1
10
10.404199
20
44.5163002
40
1.2088854
50
315.4577584
51
319.8037947
0
ARC
8
DEFAULT_255_2_778_1
10
10.1408127
20
44.7751507
40
1.5781764
50
311.7298824
51
315.4670864
0
ARC
8
DEFAULT_255_2_778_1
10
9.8317879
20
45.1207074
40
2.0417554
50
308.723055
51
311.7470879
0
ARC
8
DEFAULT_255_2_778_1
10
9.477589
20
45.5619492
40
2.6075745
50
306.1165163
51
308.7300151
0
ARC
8
DEFAULT_255_2_778_1
10
9.0746091
20
46.1132523
40
3.2904564
50
303.9559446
51
306.1266333
0
ARC
8
DEFAULT_255_2_778_1
10
8.6630432
20
46.722515
40
4.0257023
50
302.3733397
51
303.9712246
0
ARC
8
DEFAULT_255_2_778_1
10
8.2434347
20
47.3840058
40
4.8090549
50
300.9434827
51
302.3758078
0
LINE
8
DEFAULT_255_2_778
10
10.7161335
20
42.2010991
11
10.7161335
21
13.0968991
0
LINE
8
DEFAULT_255_2_778
10
10.7161335
20
13.0968991
11
9.3932335
21
13.0968991
0
LINE
8
DEFAULT_255_2_778
10
19.9765335
20
76.5968991
11
18.6536335
21
76.5968991
0
LINE
8
DEFAULT_255_2_778
10
18.6536335
20
76.5968991
11
18.6536335
21
43.5239991
0
LINE
8
DEFAULT_255_2_778
10
17.3307834
20
43.5239333
11
19.9765834
21
43.5239333
0
LINE
8
DEFAULT_255_2_778
10
19.9765834
20
43.5239333
11
19.9765834
21
38.2322333
0
LINE
8
DEFAULT_255_2_778
10
19.9765834
20
38.2322333
11
17.3307834
21
38.2322333
0
LINE
8
DEFAULT_255_2_778
10
17.3307834
20
38.2322333
11
17.3307834
21
43.5239333
0
ARC
8
DEFAULT_255_2_778_1
10
21.1303591
20
38.334677
40
4.816461
50
120.9442904
51
122.351755
0
ARC
8
DEFAULT_255_2_778_1
10
20.6837523
20
39.0383039
40
3.9830657
50
122.3407904
51
124.1946752
0
ARC
8
DEFAULT_255_2_778_1
10
20.2438464
20
39.6848306
40
3.2010724
50
124.1855758
51
126.4338849
0
ARC
8
DEFAULT_255_2_778_1
10
19.8579129
20
40.2075611
40
2.5513094
50
126.4326926
51
128.8877368
0
ARC
8
DEFAULT_255_2_778_1
10
19.5230968
20
40.6219658
40
2.0185498
50
128.8749205
51
131.8726567
0
ARC
8
DEFAULT_255_2_778_1
10
19.2259677
20
40.9529854
40
1.5737356
50
131.8616166
51
135.4168838
0
ARC
8
DEFAULT_255_2_778_1
10
18.963168
20
41.2111765
40
1.2053256
50
135.3893975
51
139.9687014
0
ARC
8
DEFAULT_255_2_778_1
10
18.7302889
20
41.4060102
40
0.9016937
50
139.9301659
51
145.9260426
0
ARC
8
DEFAULT_255_2_778_1
10
18.534154
20
41.5380104
40
0.6652776
50
145.8787362
51
153.8146208
0
ARC
8
DEFAULT_255_2_778_1
10
18.3820553
20
41.6123797
40
0.4959714
50
153.770634
51
164.3484794
0
ARC
8
DEFAULT_255_2_778_1
10
18.2807387
20
41.6405786
40
0.3908039
50
164.3220276
51
179.8083066
0
ARC
8
DEFAULT_255_2_778_1
10
18.3017789
20
41.648715
40
0.4118985
50
180.9499449
51
213.8111542
0
ARC
8
DEFAULT_255_2_778_1
10
18.5776828
20
41.8182896
40
0.73561
50
212.8271214
51
224.258472
0
ARC
8
DEFAULT_255_2_778_1
10
18.9605335
20
42.1876236
40
1.267567
50
224.1376218
51
231.4508261
0
ARC
8
DEFAULT_255_2_778_1
10
19.6032195
20
42.9906168
40
2.2960809
50
231.3955893
51
236.1256478
0
ARC
8
DEFAULT_255_2_778_1
10
21.4355223
20
45.7371293
40
5.5976905
50
236.2233172
51
239.1314682
0
ARC
8
DEFAULT_255_2_778_1
10
33.385427
20
65.4648568
40
28.6623793
50
238.8606853
51
239.0711101
0
ARC
8
DEFAULT_255_2_778_1
10
14.2132281
20
33.3677653
40
8.7248518
50
57.2420924
51
59.4062964
0
ARC
8
DEFAULT_255_2_778_1
10
17.4409241
20
38.3987102
40
2.747542
50
52.8289294
51
57.079028
0
ARC
8
DEFAULT_255_2_778_1
10
18.2155783
20
39.4190488
40
1.466457
50
46.3041868
51
52.8596521
0
ARC
8
DEFAULT_255_2_778_1
10
18.6478073
20
39.8691842
40
0.8424061
50
36.2174211
51
46.4090895
0
ARC
8
DEFAULT_255_2_778_1
10
18.9323088
20
40.0740128
40
0.4918609
50
17.400375
51
36.5489745
0
ARC
8
DEFAULT_255_2_778_1
10
19.0463994
20
40.1138754
40
0.3710912
50
0.0676858
51
16.7951297
0
ARC
8
DEFAULT_255_2_778_1
10
19.0253613
20
40.1157428
40
0.3921317
50
343.8035191
51
359.7912046
0
ARC
8
DEFAULT_255_2_778_1
10
18.9190912
20
40.1462167
40
0.5026844
50
333.2506233
51
343.8465691
0
ARC
8
DEFAULT_255_2_778_1
10
18.7652757
20
40.2229313
40
0.6745679
50
325.6600948
51
333.3122657
0
ARC
8
DEFAULT_255_2_778_1
10
18.5698344
20
40.3557296
40
0.9108568
50
319.7560915
51
325.6976089
0
ARC
8
DEFAULT_255_2_778_1
10
18.341699
20
40.5475002
40
1.2088854
50
315.4577584
51
319.8037947
0
ARC
8
DEFAULT_255_2_778_1
10
18.0783127
20
40.8063507
40
1.5781764
50
311.7298824
51
315.4670864
0
ARC
8
DEFAULT_255_2_778_1
10
17.7692879
20
41.1519074
40
2.0417554
50
308.723055
51
311.7470879
0
ARC
8
DEFAULT_255_2_778_1
10
17.415089
20
41.5931492
40
2.6075745
50
306.1165163
51
308.7300151
0
ARC
8
DEFAULT_255_2_778_1
10
17.0121091
20
42.1444523
40
3.2904564
50
303.9559446
51
306.1266333
0
ARC
8
DEFAULT_255_2_778_1
10
16.6005432
20
42.753715
40
4.0257023
50
302.3733397
51
303.9712246
0
ARC
8
DEFAULT_255_2_778_1
10
16.1809347
20
43.4152058
40
4.8090549
50
300.9434827
51
302.3758078
0
LINE
8
DEFAULT_255_2_778
10
18.6536417
20
38.2322579
11
18.6536417
21
5.1593579
0
LINE
8
DEFAULT_255_2_778
10
18.6536417
20
5.1593579
11
19.9765417
21
5.1593579
0
LINE
8
DEFAULT_255_1_388
10
4.8798318
20
84.1633382
11
4.8798318
21
84.0269
0
LINE
8
DEFAULT_255_1_388
10
4.8798318
20
84.0269
11
4.0178313
21
84.0269
0
LINE
8
DEFAULT_255_1_388
10
4.0178313
20
84.0269
11
4.0178313
21
84.1470741
0
LINE
8
DEFAULT_255_1_388
10
4.0178313
20
84.1470741
11
4.4732278
21
84.6530702
0
LINE
8
DEFAULT_255_1_388
10
4.1596909
20
84.9548607
11
3.9925315
21
84.9548607
0
LINE
8
DEFAULT_255_1_388
10
4.5717163
20
84.545546
11
4.2193262
21
84.1633382
0
LINE
8
DEFAULT_255_1_388
10
4.2193262
20
84.1633382
11
4.8798318
21
84.1633382
0
ARC
8
DEFAULT_255_1_388
10
2.9556337
20
85.9950983
40
2.0258655
50
318.5132526
51
320.7829045
0
ARC
8
DEFAULT_255_1_388
10
3.5504294
20
85.5109929
40
1.2589638
50
320.7372878
51
323.9739031
0
ARC
8
DEFAULT_255_1_388
10
3.9913226
20
85.1915554
40
0.7145141
50
323.8962701
51
328.64194
0
ARC
8
DEFAULT_255_1_388
10
4.2215484
20
85.0495545
40
0.4440242
50
328.8294576
51
331.7891185
0
ARC
8
DEFAULT_255_1_388
10
4.3337804
20
84.9916374
40
0.3177517
50
331.4254512
51
352.9365785
0
ARC
8
DEFAULT_255_1_388
10
4.3490804
20
84.988205
40
0.3021496
50
353.2257659
51
0.0166158
0
ARC
8
DEFAULT_255_1_388
10
4.3727564
20
84.9907894
40
0.2784847
50
359.486299
51
15.9343185
0
ARC
8
DEFAULT_255_1_388
10
4.4297831
20
85.0061269
40
0.2194403
50
16.1712913
51
43.5286088
0
ARC
8
DEFAULT_255_1_388
10
4.4384776
20
85.0148191
40
0.2071504
50
43.4417391
51
83.1661095
0
ARC
8
DEFAULT_255_1_388
10
4.4233937
20
84.9319316
40
0.2912888
50
82.160179
51
90.1505708
0
ARC
8
DEFAULT_255_1_388
10
4.4198418
20
84.8715279
40
0.3517025
50
89.5460741
51
102.5418361
0
ARC
8
DEFAULT_255_1_388
10
4.3925138
20
84.9874933
40
0.2325748
50
102.1738499
51
129.206123
0
ARC
8
DEFAULT_255_1_388
10
4.3836592
20
85.0014664
40
0.2161591
50
129.72865
51
135.753947
0
ARC
8
DEFAULT_255_1_388
10
4.3973074
20
84.9905728
40
0.2335433
50
136.1757367
51
166.3673339
0
ARC
8
DEFAULT_255_1_388
10
4.5105762
20
84.9602148
40
0.3507873
50
165.9090694
51
178.8684636
0
ARC
8
DEFAULT_255_1_388
10
4.6081534
20
84.9549263
40
0.4484624
50
178.4391136
51
180.0083808
0
ARC
8
DEFAULT_255_1_388
10
4.4502235
20
84.9593197
40
0.4577138
50
163.2878482
51
180.5581842
0
ARC
8
DEFAULT_255_1_388
10
4.3600276
20
84.9841393
40
0.3641968
50
133.4540601
51
162.947111
0
ARC
8
DEFAULT_255_1_388
10
4.3801158
20
84.9627789
40
0.3935189
50
100.7869829
51
133.4382499
0
ARC
8
DEFAULT_255_1_388
10
4.4192403
20
84.7885399
40
0.5720313
50
89.660664
51
101.3702276
0
ARC
8
DEFAULT_255_1_388
10
4.4267012
20
84.7954263
40
0.5651495
50
78.2172678
51
90.412935
0
ARC
8
DEFAULT_255_1_388
10
4.4666478
20
84.9781511
40
0.378122
50
55.9269121
51
78.4888449
0
ARC
8
DEFAULT_255_1_388
10
4.4887193
20
85.0162187
40
0.3342379
50
47.929771
51
55.4049217
0
ARC
8
DEFAULT_255_1_388
10
4.5001723
20
85.0278618
40
0.3179217
50
4.334829
51
48.0560205
0
ARC
8
DEFAULT_255_1_388
10
4.3769525
20
85.0087487
40
0.442341
50
359.9251713
51
5.5971671
0
ARC
8
DEFAULT_255_1_388
10
4.425168
20
85.0150728
40
0.3941854
50
337.8914027
51
358.9967534
0
ARC
8
DEFAULT_255_1_388
10
4.119925
20
85.1328295
40
0.7213271
50
326.9132501
51
338.3508308
0
ARC
8
DEFAULT_255_1_388
10
3.6715362
20
85.4202105
40
1.2538973
50
319.6471833
51
327.0959558
0
ARC
8
DEFAULT_255_1_388
10
3.240202
20
85.776005
40
1.8129975
50
317.2588228
51
319.9045804
0
LINE
8
DEFAULT_255_1_388
10
5.7626143
20
85.3424898
11
5.7626143
21
84.468743
0
LINE
8
DEFAULT_255_1_388
10
5.7626143
20
84.468743
11
5.9451343
21
84.468743
0
LINE
8
DEFAULT_255_1_388
10
5.9451343
20
84.468743
11
5.9451343
21
84.3323048
0
LINE
8
DEFAULT_255_1_388
10
5.9451343
20
84.3323048
11
5.7626143
21
84.3323048
0
LINE
8
DEFAULT_255_1_388
10
5.7626143
20
84.3323048
11
5.7626143
21
84.0269
0
LINE
8
DEFAULT_255_1_388
10
5.7626143
20
84.0269
11
5.5945513
21
84.0269
0
LINE
8
DEFAULT_255_1_388
10
5.5945513
20
84.0269
11
5.5945513
21
84.3323048
0
LINE
8
DEFAULT_255_1_388
10
5.5945513
20
84.3323048
11
4.995488
21
84.3323048
0
LINE
8
DEFAULT_255_1_388
10
4.995488
20
84.3323048
11
4.995488
21
84.4307933
0
LINE
8
DEFAULT_255_1_388
10
4.995488
20
84.4307933
11
5.5846121
21
85.3424898
0
LINE
8
DEFAULT_255_1_388
10
5.5846121
20
85.3424898
11
5.7626143
21
85.3424898
0
LINE
8
DEFAULT_255_1_388
10
5.5746729
20
85.0777455
11
5.1852366
21
84.468743
0
LINE
8
DEFAULT_255_1_388
10
5.1852366
20
84.468743
11
5.5945513
21
84.468743
0
LINE
8
DEFAULT_255_1_388
10
5.5945513
20
84.468743
11
5.5945513
21
85.113888
0
LINE
8
DEFAULT_255_1_388
10
5.5945513
20
85.113888
11
5.5746729
21
85.0777455
0
LINE
8
DEFAULT_255_1_388
10
6.200843
20
85.3424898
11
6.5749187
21
84.2573089
0
LINE
8
DEFAULT_255_1_388
10
6.5749187
20
84.2573089
11
6.9508015
21
85.3424898
0
LINE
8
DEFAULT_255_1_388
10
6.9508015
20
85.3424898
11
7.14055
21
85.3424898
0
LINE
8
DEFAULT_255_1_388
10
7.14055
20
85.3424898
11
6.6526252
21
84.0269
0
LINE
8
DEFAULT_255_1_388
10
6.6526252
20
84.0269
11
6.4990193
21
84.0269
0
LINE
8
DEFAULT_255_1_388
10
6.4990193
20
84.0269
11
6.011998
21
85.3424898
0
LINE
8
DEFAULT_255_1_388
10
6.011998
20
85.3424898
11
6.200843
21
85.3424898
0
LINE
8
DEFAULT_255_1_388
10
4.8993322
20
12.5894
11
4.6138058
21
13.1215995
0
LINE
8
DEFAULT_255_1_388
10
4.6138058
20
13.1215995
11
4.3047868
21
13.1215995
0
LINE
8
DEFAULT_255_1_388
10
4.3047868
20
13.1215995
11
4.3047868
21
12.5894
0
LINE
8
DEFAULT_255_1_388
10
4.3047868
20
12.5894
11
4.1303988
21
12.5894
0
LINE
8
DEFAULT_255_1_388
10
4.1303988
20
12.5894
11
4.1303988
21
13.9049898
0
LINE
8
DEFAULT_255_1_388
10
4.1303988
20
13.9049898
11
4.5659169
21
13.9049898
0
LINE
8
DEFAULT_255_1_388
10
4.7764474
20
13.1586456
11
5.0854665
21
12.6002428
0
LINE
8
DEFAULT_255_1_388
10
5.0854665
20
12.6002428
11
5.0854665
21
12.5894
0
LINE
8
DEFAULT_255_1_388
10
5.0854665
20
12.5894
11
4.8993322
21
12.5894
0
LINE
8
DEFAULT_255_1_388
10
4.3047868
20
13.7622267
11
4.3047868
21
13.2634591
0
LINE
8
DEFAULT_255_1_388
10
4.3047868
20
13.2634591
11
4.5713383
21
13.2634591
0
LINE
8
DEFAULT_255_1_388
10
4.5704347
20
13.7622267
11
4.3047868
21
13.7622267
0
ARC
8
DEFAULT_255_1_388
10
4.5706015
20
13.1218346
40
0.7831693
50
80.6535681
51
90.3427203
0
ARC
8
DEFAULT_255_1_388
10
4.6177925
20
13.3988722
40
0.5021479
50
65.6987674
51
80.8330164
0
ARC
8
DEFAULT_255_1_388
10
4.6715219
20
13.5220479
40
0.3677787
50
50.0019152
51
65.4304412
0
ARC
8
DEFAULT_255_1_388
10
4.6961035
20
13.5552603
40
0.3265454
50
11.6284215
51
49.5603681
0
ARC
8
DEFAULT_255_1_388
10
4.5233521
20
13.5130524
40
0.5043009
50
359.5655533
51
12.3693319
0
ARC
8
DEFAULT_255_1_388
10
4.6444858
20
13.5060038
40
0.3831661
50
341.998418
51
0.4822212
0
ARC
8
DEFAULT_255_1_388
10
4.6889044
20
13.4939479
40
0.3372036
50
323.8610842
51
341.6141514
0
ARC
8
DEFAULT_255_1_388
10
4.654959
20
13.5201615
40
0.3800784
50
296.7019299
51
323.6876213
0
ARC
8
DEFAULT_255_1_388
10
4.6053548
20
13.6088532
40
0.4816219
50
290.808313
51
297.2325929
0
ARC
8
DEFAULT_255_1_388
10
4.5742342
20
13.6677377
40
0.404289
50
269.5895908
51
281.8058892
0
ARC
8
DEFAULT_255_1_388
10
4.6024608
20
13.538636
40
0.2721459
50
281.5499321
51
303.9358954
0
ARC
8
DEFAULT_255_1_388
10
4.6179143
20
13.5118588
40
0.2413121
50
304.4410786
51
311.211123
0
ARC
8
DEFAULT_255_1_388
10
4.6327548
20
13.4962152
40
0.2197678
50
310.9874923
51
356.2715203
0
ARC
8
DEFAULT_255_1_388
10
4.5477294
20
13.5088992
40
0.3055212
50
354.9346315
51
0.0617816
0
ARC
8
DEFAULT_255_1_388
10
4.5266135
20
13.5119427
40
0.3266482
50
359.5239293
51
12.8808621
0
ARC
8
DEFAULT_255_1_388
10
4.6365898
20
13.5388638
40
0.2134449
50
12.417206
51
43.1023141
0
ARC
8
DEFAULT_255_1_388
10
4.6435228
20
13.5430253
40
0.2055463
50
43.575886
51
48.2047245
0
ARC
8
DEFAULT_255_1_388
10
4.6244489
20
13.5181151
40
0.2368418
50
48.7809155
51
72.6968768
0
ARC
8
DEFAULT_255_1_388
10
4.5845853
20
13.3971385
40
0.364206
50
72.3699892
51
84.8793749
0
ARC
8
DEFAULT_255_1_388
10
4.5679859
20
13.2461651
40
0.5160674
50
84.5398226
51
89.7281165
0
LINE
8
DEFAULT_255_1_388
10
6.1073979
20
13.9049898
11
6.1073979
21
13.7622267
0
LINE
8
DEFAULT_255_1_388
10
6.1073979
20
13.7622267
11
5.6845297
21
13.7622267
0
LINE
8
DEFAULT_255_1_388
10
5.6845297
20
13.7622267
11
5.6845297
21
12.5894
0
LINE
8
DEFAULT_255_1_388
10
5.6845297
20
12.5894
11
5.5119489
21
12.5894
0
LINE
8
DEFAULT_255_1_388
10
5.5119489
20
12.5894
11
5.5119489
21
13.7622267
0
LINE
8
DEFAULT_255_1_388
10
5.5119489
20
13.7622267
11
5.0899843
21
13.7622267
0
LINE
8
DEFAULT_255_1_388
10
5.0899843
20
13.7622267
11
5.0899843
21
13.9049898
0
LINE
8
DEFAULT_255_1_388
10
5.0899843
20
13.9049898
11
6.1073979
21
13.9049898
0
LINE
8
DEFAULT_255_1_388
10
7.3136564
20
13.9049898
11
7.3136564
21
12.5894
0
LINE
8
DEFAULT_255_1_388
10
7.3136564
20
12.5894
11
7.1392685
21
12.5894
0
LINE
8
DEFAULT_255_1_388
10
7.1392685
20
12.5894
11
6.4769557
21
13.6031993
0
LINE
8
DEFAULT_255_1_388
10
6.4769557
20
13.6031993
11
6.4769557
21
12.5894
0
LINE
8
DEFAULT_255_1_388
10
6.4769557
20
12.5894
11
6.3025678
21
12.5894
0
LINE
8
DEFAULT_255_1_388
10
6.3025678
20
12.5894
11
6.3025678
21
13.9049898
0
LINE
8
DEFAULT_255_1_388
10
6.3025678
20
13.9049898
11
6.4769557
21
13.9049898
0
LINE
8
DEFAULT_255_1_388
10
6.4769557
20
13.9049898
11
7.1410756
21
12.8866727
0
LINE
8
DEFAULT_255_1_388
10
7.1410756
20
12.8866727
11
7.1410756
21
13.9049898
0
LINE
8
DEFAULT_255_1_388
10
7.1410756
20
13.9049898
11
7.3136564
21
13.9049898
0
LINE
8
DEFAULT_255_1_388
10
8.2840846
20
13.9049898
11
8.2840846
21
13.031243
0
LINE
8
DEFAULT_255_1_388
10
8.2840846
20
13.031243
11
8.4666046
21
13.031243
0
LINE
8
DEFAULT_255_1_388
10
8.4666046
20
13.031243
11
8.4666046
21
12.8948048
0
LINE
8
DEFAULT_255_1_388
10
8.4666046
20
12.8948048
11
8.2840846
21
12.8948048
0
LINE
8
DEFAULT_255_1_388
10
8.2840846
20
12.8948048
11
8.2840846
21
12.5894
0
LINE
8
DEFAULT_255_1_388
10
8.2840846
20
12.5894
11
8.1160216
21
12.5894
0
LINE
8
DEFAULT_255_1_388
10
8.1160216
20
12.5894
11
8.1160216
21
12.8948048
0
LINE
8
DEFAULT_255_1_388
10
8.1160216
20
12.8948048
11
7.5169584
21
12.8948048
0
LINE
8
DEFAULT_255_1_388
10
7.5169584
20
12.8948048
11
7.5169584
21
12.9932933
0
LINE
8
DEFAULT_255_1_388
10
7.5169584
20
12.9932933
11
8.1060824
21
13.9049898
0
LINE
8
DEFAULT_255_1_388
10
8.1060824
20
13.9049898
11
8.2840846
21
13.9049898
0
LINE
8
DEFAULT_255_1_388
10
8.0961432
20
13.6402455
11
7.7067069
21
13.031243
0
LINE
8
DEFAULT_255_1_388
10
7.7067069
20
13.031243
11
8.1160216
21
13.031243
0
LINE
8
DEFAULT_255_1_388
10
8.1160216
20
13.031243
11
8.1160216
21
13.676388
0
LINE
8
DEFAULT_255_1_388
10
8.1160216
20
13.676388
11
8.0961432
21
13.6402455
0
LINE
8
DEFAULT_255_1_388
10
4.2624367
20
21.8424898
11
4.2624367
21
20.5269
0
LINE
8
DEFAULT_255_1_388
10
4.2624367
20
20.5269
11
4.0889523
21
20.5269
0
LINE
8
DEFAULT_255_1_388
10
4.0889523
20
20.5269
11
4.0889523
21
21.8424898
0
LINE
8
DEFAULT_255_1_388
10
4.0889523
20
21.8424898
11
4.2624367
21
21.8424898
0
LINE
8
DEFAULT_255_1_388
10
5.5906764
20
21.8424898
11
5.5906764
21
20.5269
0
LINE
8
DEFAULT_255_1_388
10
5.5906764
20
20.5269
11
5.4162885
21
20.5269
0
LINE
8
DEFAULT_255_1_388
10
5.4162885
20
20.5269
11
4.7539757
21
21.5406993
0
LINE
8
DEFAULT_255_1_388
10
4.7539757
20
21.5406993
11
4.7539757
21
20.5269
0
LINE
8
DEFAULT_255_1_388
10
4.7539757
20
20.5269
11
4.5795878
21
20.5269
0
LINE
8
DEFAULT_255_1_388
10
4.5795878
20
20.5269
11
4.5795878
21
21.8424898
0
LINE
8
DEFAULT_255_1_388
10
4.5795878
20
21.8424898
11
4.7539757
21
21.8424898
0
LINE
8
DEFAULT_255_1_388
10
4.7539757
20
21.8424898
11
5.4180956
21
20.8241727
0
LINE
8
DEFAULT_255_1_388
10
5.4180956
20
20.8241727
11
5.4180956
21
21.8424898
0
LINE
8
DEFAULT_255_1_388
10
5.4180956
20
21.8424898
11
5.5906764
21
21.8424898
0
LINE
8
DEFAULT_255_1_388
10
6.5611046
20
21.8424898
11
6.5611046
21
20.968743
0
LINE
8
DEFAULT_255_1_388
10
6.5611046
20
20.968743
11
6.7436247
21
20.968743
0
LINE
8
DEFAULT_255_1_388
10
6.7436247
20
20.968743
11
6.7436247
21
20.8323048
0
LINE
8
DEFAULT_255_1_388
10
6.7436247
20
20.8323048
11
6.5611046
21
20.8323048
0
LINE
8
DEFAULT_255_1_388
10
6.5611046
20
20.8323048
11
6.5611046
21
20.5269
0
LINE
8
DEFAULT_255_1_388
10
6.5611046
20
20.5269
11
6.3930417
21
20.5269
0
LINE
8
DEFAULT_255_1_388
10
6.3930417
20
20.5269
11
6.3930417
21
20.8323048
0
LINE
8
DEFAULT_255_1_388
10
6.3930417
20
20.8323048
11
5.7939784
21
20.8323048
0
LINE
8
DEFAULT_255_1_388
10
5.7939784
20
20.8323048
11
5.7939784
21
20.9307933
0
LINE
8
DEFAULT_255_1_388
10
5.7939784
20
20.9307933
11
6.3831024
21
21.8424898
0
LINE
8
DEFAULT_255_1_388
10
6.3831024
20
21.8424898
11
6.5611046
21
21.8424898
0
LINE
8
DEFAULT_255_1_388
10
6.3731632
20
21.5777455
11
5.983727
21
20.968743
0
LINE
8
DEFAULT_255_1_388
10
5.983727
20
20.968743
11
6.3930417
21
20.968743
0
LINE
8
DEFAULT_255_1_388
10
6.3930417
20
20.968743
11
6.3930417
21
21.613888
0
LINE
8
DEFAULT_255_1_388
10
6.3930417
20
21.613888
11
6.3731632
21
21.5777455
0
LINE
8
DEFAULT_255_1_388
10
7.4935832
20
21.8424898
11
6.9451195
21
20.4139544
0
LINE
8
DEFAULT_255_1_388
10
6.9451195
20
20.4139544
11
6.8014528
21
20.4139544
0
LINE
8
DEFAULT_255_1_388
10
6.8014528
20
20.4139544
11
7.35082
21
21.8424898
0
LINE
8
DEFAULT_255_1_388
10
7.35082
20
21.8424898
11
7.4935832
21
21.8424898
0
LINE
8
DEFAULT_255_1_388
10
8.1567995
20
20.5269
11
7.7004994
21
20.5269
0
LINE
8
DEFAULT_255_1_388
10
7.7004994
20
20.5269
11
7.7004994
21
21.8424898
0
LINE
8
DEFAULT_255_1_388
10
7.7004994
20
21.8424898
11
8.1305961
21
21.8424898
0
LINE
8
DEFAULT_255_1_388
10
8.1631244
20
21.1422274
11
7.8739838
21
21.1422274
0
LINE
8
DEFAULT_255_1_388
10
7.8739838
20
21.1422274
11
7.8739838
21
20.6687596
0
LINE
8
DEFAULT_255_1_388
10
7.8739838
20
20.6687596
11
8.1604137
21
20.6687596
0
LINE
8
DEFAULT_255_1_388
10
7.8739838
20
21.6997267
11
7.8739838
21
21.2813763
0
LINE
8
DEFAULT_255_1_388
10
7.8739838
20
21.2813763
11
8.1360175
21
21.2813763
0
LINE
8
DEFAULT_255_1_388
10
8.1305961
20
21.6997267
11
7.8739838
21
21.6997267
0
ARC
8
DEFAULT_255_1_388
10
8.1348381
20
21.0136824
40
0.8288183
50
82.1256322
51
90.2932506
0
ARC
8
DEFAULT_255_1_388
10
8.1785956
20
21.319459
40
0.5199321
50
69.9044202
51
82.2857574
0
ARC
8
DEFAULT_255_1_388
10
8.2427949
20
21.4929993
40
0.3348993
50
51.1840204
51
70.018125
0
ARC
8
DEFAULT_255_1_388
10
8.2714781
20
21.5346945
40
0.2844579
50
12.1018086
51
50.421322
0
ARC
8
DEFAULT_255_1_388
10
8.1157653
20
21.4955937
40
0.4449429
50
359.5252354
51
12.8212369
0
ARC
8
DEFAULT_255_1_388
10
8.2935083
20
21.4877943
40
0.2672162
50
323.4907456
51
0.8818258
0
ARC
8
DEFAULT_255_1_388
10
8.2464495
20
21.5241523
40
0.3266736
50
298.6824053
51
323.2758285
0
ARC
8
DEFAULT_255_1_388
10
8.2057787
20
21.5917509
40
0.4055105
50
293.1994739
51
299.139634
0
ARC
8
DEFAULT_255_1_388
10
8.2814736
20
20.9071651
40
0.3229926
50
54.0009997
51
74.9168635
0
ARC
8
DEFAULT_255_1_388
10
8.2945663
20
20.9293511
40
0.2973581
50
36.3578854
51
53.5293172
0
ARC
8
DEFAULT_255_1_388
10
8.2803031
20
20.919185
40
0.3148715
50
4.8189348
51
36.3090187
0
ARC
8
DEFAULT_255_1_388
10
8.1926055
20
20.9068383
40
0.4033265
50
359.9373213
51
5.5201284
0
ARC
8
DEFAULT_255_1_388
10
8.1561385
20
20.9022733
40
0.4398126
50
344.7479357
51
0.5372278
0
ARC
8
DEFAULT_255_1_388
10
8.2676284
20
20.8722205
40
0.3243441
50
311.1785587
51
344.6887681
0
ARC
8
DEFAULT_255_1_388
10
8.2347827
20
20.9131084
40
0.3767511
50
286.0417804
51
310.8440924
0
ARC
8
DEFAULT_255_1_388
10
8.1777237
20
21.0983885
40
0.5705957
50
274.1044074
51
286.4070149
0
ARC
8
DEFAULT_255_1_388
10
8.1578452
20
21.3101901
40
0.7832907
50
269.9235077
51
274.4458593
0
ARC
8
DEFAULT_255_1_388
10
8.163017
20
21.0470462
40
0.3782955
50
269.6057074
51
281.3740795
0
ARC
8
DEFAULT_255_1_388
10
8.1889669
20
20.9240569
40
0.2526069
50
281.105298
51
302.5134029
0
ARC
8
DEFAULT_255_1_388
10
8.2055056
20
20.8943944
40
0.2187131
50
303.0365425
51
311.8818034
0
ARC
8
DEFAULT_255_1_388
10
8.2135233
20
20.8848602
40
0.2062624
50
311.9916937
51
351.7143773
0
ARC
8
DEFAULT_255_1_388
10
8.1216258
20
20.9034271
40
0.2999202
50
350.7343295
51
0.2221526
0
ARC
8
DEFAULT_255_1_388
10
8.1095346
20
20.909787
40
0.3120525
50
359.045729
51
17.2295312
0
ARC
8
DEFAULT_255_1_388
10
8.2264377
20
20.9445155
40
0.1901144
50
17.6685208
51
78.9940245
0
ARC
8
DEFAULT_255_1_388
10
8.1682737
20
20.7357011
40
0.4065575
50
76.565218
51
90.7103392
0
LINE
8
DEFAULT_255_1_388
10
8.1632335
20
21.1422274
11
8.1631244
21
21.1422274
0
ARC
8
DEFAULT_255_1_388
10
8.1385563
20
21.6509949
40
0.3696273
50
269.6064514
51
281.4533785
0
ARC
8
DEFAULT_255_1_388
10
8.1636204
20
21.5327283
40
0.2487412
50
281.2044438
51
302.5143998
0
ARC
8
DEFAULT_255_1_388
10
8.1790458
20
21.5049576
40
0.2170405
50
303.0211308
51
309.8378766
0
ARC
8
DEFAULT_255_1_388
10
8.1996575
20
21.4818486
40
0.1860946
50
309.5229446
51
356.9509628
0
ARC
8
DEFAULT_255_1_388
10
8.1250701
20
21.4925831
40
0.2612347
50
355.4699226
51
0.0498632
0
ARC
8
DEFAULT_255_1_388
10
8.0936375
20
21.4950789
40
0.2926762
50
359.5558955
51
11.2092924
0
ARC
8
DEFAULT_255_1_388
10
8.2013342
20
21.5173667
40
0.1827036
50
10.9185717
51
31.322519
0
ARC
8
DEFAULT_255_1_388
10
8.233489
20
21.5352571
40
0.1459418
50
31.8850633
51
52.1415586
0
ARC
8
DEFAULT_255_1_388
10
8.202632
20
21.4916674
40
0.1993088
50
52.8283418
51
71.9850132
0
ARC
8
DEFAULT_255_1_388
10
8.160348
20
21.3672158
40
0.3307407
50
71.686634
51
82.8453416
0
ARC
8
DEFAULT_255_1_388
10
8.1334127
20
21.1636892
40
0.536039
50
82.6981895
51
90.1730083
0
ARC
8
DEFAULT_255_1_388
10
8.1308959
20
21.2515836
40
0.4481429
50
89.8851568
51
90.0383283
0
LINE
8
DEFAULT_255_1_388
10
4.2355367
20
29.7799898
11
4.2355367
21
28.4644
0
LINE
8
DEFAULT_255_1_388
10
4.2355367
20
28.4644
11
4.0620523
21
28.4644
0
LINE
8
DEFAULT_255_1_388
10
4.0620523
20
28.4644
11
4.0620523
21
29.7799898
0
LINE
8
DEFAULT_255_1_388
10
4.0620523
20
29.7799898
11
4.2355367
21
29.7799898
0
LINE
8
DEFAULT_255_1_388
10
5.5637764
20
29.7799898
11
5.5637764
21
28.4644
0
LINE
8
DEFAULT_255_1_388
10
5.5637764
20
28.4644
11
5.3893885
21
28.4644
0
LINE
8
DEFAULT_255_1_388
10
5.3893885
20
28.4644
11
4.7270757
21
29.4781993
0
LINE
8
DEFAULT_255_1_388
10
4.7270757
20
29.4781993
11
4.7270757
21
28.4644
0
LINE
8
DEFAULT_255_1_388
10
4.7270757
20
28.4644
11
4.5526878
21
28.4644
0
LINE
8
DEFAULT_255_1_388
10
4.5526878
20
28.4644
11
4.5526878
21
29.7799898
0
LINE
8
DEFAULT_255_1_388
10
4.5526878
20
29.7799898
11
4.7270757
21
29.7799898
0
LINE
8
DEFAULT_255_1_388
10
4.7270757
20
29.7799898
11
5.3911956
21
28.7616727
0
LINE
8
DEFAULT_255_1_388
10
5.3911956
20
28.7616727
11
5.3911956
21
29.7799898
0
LINE
8
DEFAULT_255_1_388
10
5.3911956
20
29.7799898
11
5.5637764
21
29.7799898
0
LINE
8
DEFAULT_255_1_388
10
6.5342046
20
29.7799898
11
6.5342046
21
28.906243
0
LINE
8
DEFAULT_255_1_388
10
6.5342046
20
28.906243
11
6.7167247
21
28.906243
0
LINE
8
DEFAULT_255_1_388
10
6.7167247
20
28.906243
11
6.7167247
21
28.7698048
0
LINE
8
DEFAULT_255_1_388
10
6.7167247
20
28.7698048
11
6.5342046
21
28.7698048
0
LINE
8
DEFAULT_255_1_388
10
6.5342046
20
28.7698048
11
6.5342046
21
28.4644
0
LINE
8
DEFAULT_255_1_388
10
6.5342046
20
28.4644
11
6.3661417
21
28.4644
0
LINE
8
DEFAULT_255_1_388
10
6.3661417
20
28.4644
11
6.3661417
21
28.7698048
0
LINE
8
DEFAULT_255_1_388
10
6.3661417
20
28.7698048
11
5.7670784
21
28.7698048
0
LINE
8
DEFAULT_255_1_388
10
5.7670784
20
28.7698048
11
5.7670784
21
28.8682933
0
LINE
8
DEFAULT_255_1_388
10
5.7670784
20
28.8682933
11
6.3562024
21
29.7799898
0
LINE
8
DEFAULT_255_1_388
10
6.3562024
20
29.7799898
11
6.5342046
21
29.7799898
0
LINE
8
DEFAULT_255_1_388
10
6.3462632
20
29.5152455
11
5.956827
21
28.906243
0
LINE
8
DEFAULT_255_1_388
10
5.956827
20
28.906243
11
6.3661417
21
28.906243
0
LINE
8
DEFAULT_255_1_388
10
6.3661417
20
28.906243
11
6.3661417
21
29.551388
0
LINE
8
DEFAULT_255_1_388
10
6.3661417
20
29.551388
11
6.3462632
21
29.5152455
0
LINE
8
DEFAULT_255_1_388
10
7.4666832
20
29.7799898
11
6.9182195
21
28.3514544
0
LINE
8
DEFAULT_255_1_388
10
6.9182195
20
28.3514544
11
6.7745528
21
28.3514544
0
LINE
8
DEFAULT_255_1_388
10
6.7745528
20
28.3514544
11
7.32392
21
29.7799898
0
LINE
8
DEFAULT_255_1_388
10
7.32392
20
29.7799898
11
7.4666832
21
29.7799898
0
LINE
8
DEFAULT_255_1_388
10
8.5256607
20
28.4644
11
8.4000652
21
28.8077545
0
LINE
8
DEFAULT_255_1_388
10
8.4000652
20
28.8077545
11
7.8488909
21
28.8077545
0
LINE
8
DEFAULT_255_1_388
10
7.8488909
20
28.8077545
11
7.7251026
21
28.4644
0
LINE
8
DEFAULT_255_1_388
10
7.7251026
20
28.4644
11
7.5461968
21
28.4644
0
LINE
8
DEFAULT_255_1_388
10
7.5461968
20
28.4644
11
8.0485787
21
29.7799898
0
LINE
8
DEFAULT_255_1_388
10
8.0485787
20
29.7799898
11
8.2003775
21
29.7799898
0
LINE
8
DEFAULT_255_1_388
10
8.2003775
20
29.7799898
11
8.7036629
21
28.4644
0
LINE
8
DEFAULT_255_1_388
10
8.7036629
20
28.4644
11
8.5256607
21
28.4644
0
LINE
8
DEFAULT_255_1_388
10
8.1244781
20
29.5658451
11
7.9012977
21
28.9505177
0
LINE
8
DEFAULT_255_1_388
10
7.9012977
20
28.9505177
11
8.3485621
21
28.9505177
0
LINE
8
DEFAULT_255_1_388
10
8.3485621
20
28.9505177
11
8.1244781
21
29.5658451
0
LINE
8
DEFAULT_255_1_388
10
4.7670322
20
36.4019
11
4.4815058
21
36.9340995
0
LINE
8
DEFAULT_255_1_388
10
4.4815058
20
36.9340995
11
4.1724868
21
36.9340995
0
LINE
8
DEFAULT_255_1_388
10
4.1724868
20
36.9340995
11
4.1724868
21
36.4019
0
LINE
8
DEFAULT_255_1_388
10
4.1724868
20
36.4019
11
3.9980988
21
36.4019
0
LINE
8
DEFAULT_255_1_388
10
3.9980988
20
36.4019
11
3.9980988
21
37.7174898
0
LINE
8
DEFAULT_255_1_388
10
3.9980988
20
37.7174898
11
4.4336169
21
37.7174898
0
LINE
8
DEFAULT_255_1_388
10
4.6441474
20
36.9711456
11
4.9531665
21
36.4127428
0
LINE
8
DEFAULT_255_1_388
10
4.9531665
20
36.4127428
11
4.9531665
21
36.4019
0
LINE
8
DEFAULT_255_1_388
10
4.9531665
20
36.4019
11
4.7670322
21
36.4019
0
LINE
8
DEFAULT_255_1_388
10
4.1724868
20
37.5747267
11
4.1724868
21
37.0759591
0
LINE
8
DEFAULT_255_1_388
10
4.1724868
20
37.0759591
11
4.4390383
21
37.0759591
0
LINE
8
DEFAULT_255_1_388
10
4.4381347
20
37.5747267
11
4.1724868
21
37.5747267
0
ARC
8
DEFAULT_255_1_388
10
4.4383015
20
36.9343346
40
0.7831693
50
80.6535681
51
90.3427203
0
ARC
8
DEFAULT_255_1_388
10
4.4854925
20
37.2113722
40
0.5021479
50
65.6987674
51
80.8330164
0
ARC
8
DEFAULT_255_1_388
10
4.5392219
20
37.3345479
40
0.3677787
50
50.0019152
51
65.4304412
0
ARC
8
DEFAULT_255_1_388
10
4.5638035
20
37.3677603
40
0.3265454
50
11.6284215
51
49.5603681
0
ARC
8
DEFAULT_255_1_388
10
4.3910521
20
37.3255524
40
0.5043009
50
359.5655533
51
12.3693319
0
ARC
8
DEFAULT_255_1_388
10
4.5121858
20
37.3185038
40
0.3831661
50
341.998418
51
0.4822212
0
ARC
8
DEFAULT_255_1_388
10
4.5566044
20
37.3064479
40
0.3372036
50
323.8610842
51
341.6141514
0
ARC
8
DEFAULT_255_1_388
10
4.522659
20
37.3326615
40
0.3800784
50
296.7019299
51
323.6876213
0
ARC
8
DEFAULT_255_1_388
10
4.4730548
20
37.4213532
40
0.4816219
50
290.808313
51
297.2325929
0
ARC
8
DEFAULT_255_1_388
10
4.4419342
20
37.4802377
40
0.404289
50
269.5895908
51
281.8058892
0
ARC
8
DEFAULT_255_1_388
10
4.4701608
20
37.351136
40
0.2721459
50
281.5499321
51
303.9358954
0
ARC
8
DEFAULT_255_1_388
10
4.4856143
20
37.3243588
40
0.2413121
50
304.4410786
51
311.211123
0
ARC
8
DEFAULT_255_1_388
10
4.5004548
20
37.3087152
40
0.2197678
50
310.9874923
51
356.2715203
0
ARC
8
DEFAULT_255_1_388
10
4.4154294
20
37.3213992
40
0.3055212
50
354.9346315
51
0.0617816
0
ARC
8
DEFAULT_255_1_388
10
4.3943135
20
37.3244427
40
0.3266482
50
359.5239293
51
12.8808621
0
ARC
8
DEFAULT_255_1_388
10
4.5042898
20
37.3513638
40
0.2134449
50
12.417206
51
43.1023141
0
ARC
8
DEFAULT_255_1_388
10
4.5112228
20
37.3555253
40
0.2055463
50
43.575886
51
48.2047245
0
ARC
8
DEFAULT_255_1_388
10
4.4921489
20
37.3306151
40
0.2368418
50
48.7809155
51
72.6968768
0
ARC
8
DEFAULT_255_1_388
10
4.4522853
20
37.2096385
40
0.364206
50
72.3699892
51
84.8793749
0
ARC
8
DEFAULT_255_1_388
10
4.4356859
20
37.0586651
40
0.5160674
50
84.5398226
51
89.7281165
0
LINE
8
DEFAULT_255_1_388
10
5.9750979
20
37.7174898
11
5.9750979
21
37.5747267
0
LINE
8
DEFAULT_255_1_388
10
5.9750979
20
37.5747267
11
5.5522297
21
37.5747267
0
LINE
8
DEFAULT_255_1_388
10
5.5522297
20
37.5747267
11
5.5522297
21
36.4019
0
LINE
8
DEFAULT_255_1_388
10
5.5522297
20
36.4019
11
5.3796489
21
36.4019
0
LINE
8
DEFAULT_255_1_388
10
5.3796489
20
36.4019
11
5.3796489
21
37.5747267
0
LINE
8
DEFAULT_255_1_388
10
5.3796489
20
37.5747267
11
4.9576843
21
37.5747267
0
LINE
8
DEFAULT_255_1_388
10
4.9576843
20
37.5747267
11
4.9576843
21
37.7174898
0
LINE
8
DEFAULT_255_1_388
10
4.9576843
20
37.7174898
11
5.9750979
21
37.7174898
0
LINE
8
DEFAULT_255_1_388
10
7.1813564
20
37.7174898
11
7.1813564
21
36.4019
0
LINE
8
DEFAULT_255_1_388
10
7.1813564
20
36.4019
11
7.0069685
21
36.4019
0
LINE
8
DEFAULT_255_1_388
10
7.0069685
20
36.4019
11
6.3446557
21
37.4156993
0
LINE
8
DEFAULT_255_1_388
10
6.3446557
20
37.4156993
11
6.3446557
21
36.4019
0
LINE
8
DEFAULT_255_1_388
10
6.3446557
20
36.4019
11
6.1702678
21
36.4019
0
LINE
8
DEFAULT_255_1_388
10
6.1702678
20
36.4019
11
6.1702678
21
37.7174898
0
LINE
8
DEFAULT_255_1_388
10
6.1702678
20
37.7174898
11
6.3446557
21
37.7174898
0
LINE
8
DEFAULT_255_1_388
10
6.3446557
20
37.7174898
11
7.0087756
21
36.6991727
0
LINE
8
DEFAULT_255_1_388
10
7.0087756
20
36.6991727
11
7.0087756
21
37.7174898
0
LINE
8
DEFAULT_255_1_388
10
7.0087756
20
37.7174898
11
7.1813564
21
37.7174898
0
LINE
8
DEFAULT_255_1_388
10
8.3081013
20
36.5383382
11
8.3081013
21
36.4019
0
LINE
8
DEFAULT_255_1_388
10
8.3081013
20
36.4019
11
7.4461008
21
36.4019
0
LINE
8
DEFAULT_255_1_388
10
7.4461008
20
36.4019
11
7.4461008
21
36.5220741
0
LINE
8
DEFAULT_255_1_388
10
7.4461008
20
36.5220741
11
7.9014973
21
37.0280702
0
LINE
8
DEFAULT_255_1_388
10
7.5879604
20
37.3298607
11
7.420801
21
37.3298607
0
LINE
8
DEFAULT_255_1_388
10
7.9999858
20
36.920546
11
7.6475957
21
36.5383382
0
LINE
8
DEFAULT_255_1_388
10
7.6475957
20
36.5383382
11
8.3081013
21
36.5383382
0
ARC
8
DEFAULT_255_1_388
10
6.3839032
20
38.3700983
40
2.0258655
50
318.5132526
51
320.7829045
0
ARC
8
DEFAULT_255_1_388
10
6.9786989
20
37.8859929
40
1.2589638
50
320.7372878
51
323.9739031
0
ARC
8
DEFAULT_255_1_388
10
7.4195921
20
37.5665554
40
0.7145141
50
323.8962701
51
328.64194
0
ARC
8
DEFAULT_255_1_388
10
7.6498178
20
37.4245545
40
0.4440242
50
328.8294576
51
331.7891185
0
ARC
8
DEFAULT_255_1_388
10
7.7620499
20
37.3666374
40
0.3177517
50
331.4254512
51
352.9365785
0
ARC
8
DEFAULT_255_1_388
10
7.7773498
20
37.363205
40
0.3021496
50
353.2257659
51
0.0166158
0
ARC
8
DEFAULT_255_1_388
10
7.8010259
20
37.3657894
40
0.2784847
50
359.486299
51
15.9343185
0
ARC
8
DEFAULT_255_1_388
10
7.8580526
20
37.3811269
40
0.2194403
50
16.1712913
51
43.5286088
0
ARC
8
DEFAULT_255_1_388
10
7.866747
20
37.3898191
40
0.2071504
50
43.4417391
51
83.1661095
0
ARC
8
DEFAULT_255_1_388
10
7.8516631
20
37.3069316
40
0.2912888
50
82.160179
51
90.1505708
0
ARC
8
DEFAULT_255_1_388
10
7.8481113
20
37.2465279
40
0.3517025
50
89.5460741
51
102.5418361
0
ARC
8
DEFAULT_255_1_388
10
7.8207833
20
37.3624933
40
0.2325748
50
102.1738499
51
129.206123
0
ARC
8
DEFAULT_255_1_388
10
7.8119286
20
37.3764664
40
0.2161591
50
129.72865
51
135.753947
0
ARC
8
DEFAULT_255_1_388
10
7.8255769
20
37.3655728
40
0.2335433
50
136.1757367
51
166.3673339
0
ARC
8
DEFAULT_255_1_388
10
7.9388457
20
37.3352148
40
0.3507873
50
165.9090694
51
178.8684636
0
ARC
8
DEFAULT_255_1_388
10
8.0364229
20
37.3299263
40
0.4484624
50
178.4391136
51
180.0083808
0
ARC
8
DEFAULT_255_1_388
10
7.878493
20
37.3343197
40
0.4577138
50
163.2878482
51
180.5581842
0
ARC
8
DEFAULT_255_1_388
10
7.7882971
20
37.3591393
40
0.3641968
50
133.4540601
51
162.947111
0
ARC
8
DEFAULT_255_1_388
10
7.8083853
20
37.3377789
40
0.3935189
50
100.7869829
51
133.4382499
0
ARC
8
DEFAULT_255_1_388
10
7.8475098
20
37.1635399
40
0.5720313
50
89.660664
51
101.3702276
0
ARC
8
DEFAULT_255_1_388
10
7.8549707
20
37.1704263
40
0.5651495
50
78.2172678
51
90.412935
0
ARC
8
DEFAULT_255_1_388
10
7.8949173
20
37.3531511
40
0.378122
50
55.9269121
51
78.4888449
0
ARC
8
DEFAULT_255_1_388
10
7.9169888
20
37.3912187
40
0.3342379
50
47.929771
51
55.4049217
0
ARC
8
DEFAULT_255_1_388
10
7.9284418
20
37.4028618
40
0.3179217
50
4.334829
51
48.0560205
0
ARC
8
DEFAULT_255_1_388
10
7.805222
20
37.3837487
40
0.442341
50
359.9251713
51
5.5971671
0
ARC
8
DEFAULT_255_1_388
10
7.8534375
20
37.3900728
40
0.3941854
50
337.8914027
51
358.9967534
0
ARC
8
DEFAULT_255_1_388
10
7.5481945
20
37.5078295
40
0.7213271
50
326.9132501
51
338.3508308
0
ARC
8
DEFAULT_255_1_388
10
7.0998057
20
37.7952105
40
1.2538973
50
319.6471833
51
327.0959558
0
ARC
8
DEFAULT_255_1_388
10
6.6684715
20
38.151005
40
1.8129975
50
317.2588228
51
319.9045804
0
LINE
8
DEFAULT_255_1_388
10
4.2624367
20
45.6549898
11
4.2624367
21
44.3394
0
LINE
8
DEFAULT_255_1_388
10
4.2624367
20
44.3394
11
4.0889523
21
44.3394
0
LINE
8
DEFAULT_255_1_388
10
4.0889523
20
44.3394
11
4.0889523
21
45.6549898
0
LINE
8
DEFAULT_255_1_388
10
4.0889523
20
45.6549898
11
4.2624367
21
45.6549898
0
LINE
8
DEFAULT_255_1_388
10
5.5906764
20
45.6549898
11
5.5906764
21
44.3394
0
LINE
8
DEFAULT_255_1_388
10
5.5906764
20
44.3394
11
5.4162885
21
44.3394
0
LINE
8
DEFAULT_255_1_388
10
5.4162885
20
44.3394
11
4.7539757
21
45.3531993
0
LINE
8
DEFAULT_255_1_388
10
4.7539757
20
45.3531993
11
4.7539757
21
44.3394
0
LINE
8
DEFAULT_255_1_388
10
4.7539757
20
44.3394
11
4.5795878
21
44.3394
0
LINE
8
DEFAULT_255_1_388
10
4.5795878
20
44.3394
11
4.5795878
21
45.6549898
0
LINE
8
DEFAULT_255_1_388
10
4.5795878
20
45.6549898
11
4.7539757
21
45.6549898
0
LINE
8
DEFAULT_255_1_388
10
4.7539757
20
45.6549898
11
5.4180956
21
44.6366727
0
LINE
8
DEFAULT_255_1_388
10
5.4180956
20
44.6366727
11
5.4180956
21
45.6549898
0
LINE
8
DEFAULT_255_1_388
10
5.4180956
20
45.6549898
11
5.5906764
21
45.6549898
0
LINE
8
DEFAULT_255_1_388
10
6.7174213
20
44.4758382
11
6.7174213
21
44.3394
0
LINE
8
DEFAULT_255_1_388
10
6.7174213
20
44.3394
11
5.8554208
21
44.3394
0
LINE
8
DEFAULT_255_1_388
10
5.8554208
20
44.3394
11
5.8554208
21
44.4595741
0
LINE
8
DEFAULT_255_1_388
10
5.8554208
20
44.4595741
11
6.3108173
21
44.9655702
0
LINE
8
DEFAULT_255_1_388
10
5.9972804
20
45.2673607
11
5.830121
21
45.2673607
0
LINE
8
DEFAULT_255_1_388
10
6.4093058
20
44.858046
11
6.0569157
21
44.4758382
0
LINE
8
DEFAULT_255_1_388
10
6.0569157
20
44.4758382
11
6.7174213
21
44.4758382
0
ARC
8
DEFAULT_255_1_388
10
4.7932232
20
46.3075983
40
2.0258655
50
318.5132526
51
320.7829045
0
ARC
8
DEFAULT_255_1_388
10
5.3880189
20
45.8234929
40
1.2589638
50
320.7372878
51
323.9739031
0
ARC
8
DEFAULT_255_1_388
10
5.8289121
20
45.5040554
40
0.7145141
50
323.8962701
51
328.64194
0
ARC
8
DEFAULT_255_1_388
10
6.0591379
20
45.3620545
40
0.4440242
50
328.8294576
51
331.7891185
0
ARC
8
DEFAULT_255_1_388
10
6.1713699
20
45.3041374
40
0.3177517
50
331.4254512
51
352.9365785
0
ARC
8
DEFAULT_255_1_388
10
6.1866699
20
45.300705
40
0.3021496
50
353.2257659
51
0.0166158
0
ARC
8
DEFAULT_255_1_388
10
6.2103459
20
45.3032894
40
0.2784847
50
359.486299
51
15.9343185
0
ARC
8
DEFAULT_255_1_388
10
6.2673726
20
45.3186269
40
0.2194403
50
16.1712913
51
43.5286088
0
ARC
8
DEFAULT_255_1_388
10
6.2760671
20
45.3273191
40
0.2071504
50
43.4417391
51
83.1661095
0
ARC
8
DEFAULT_255_1_388
10
6.2609832
20
45.2444316
40
0.2912888
50
82.160179
51
90.1505708
0
ARC
8
DEFAULT_255_1_388
10
6.2574313
20
45.1840279
40
0.3517025
50
89.5460741
51
102.5418361
0
ARC
8
DEFAULT_255_1_388
10
6.2301033
20
45.2999933
40
0.2325748
50
102.1738499
51
129.206123
0
ARC
8
DEFAULT_255_1_388
10
6.2212487
20
45.3139664
40
0.2161591
50
129.72865
51
135.753947
0
ARC
8
DEFAULT_255_1_388
10
6.2348969
20
45.3030728
40
0.2335433
50
136.1757367
51
166.3673339
0
ARC
8
DEFAULT_255_1_388
10
6.3481657
20
45.2727148
40
0.3507873
50
165.9090694
51
178.8684636
0
ARC
8
DEFAULT_255_1_388
10
6.4457429
20
45.2674263
40
0.4484624
50
178.4391136
51
180.0083808
0
ARC
8
DEFAULT_255_1_388
10
6.287813
20
45.2718197
40
0.4577138
50
163.2878482
51
180.5581842
0
ARC
8
DEFAULT_255_1_388
10
6.1976171
20
45.2966393
40
0.3641968
50
133.4540601
51
162.947111
0
ARC
8
DEFAULT_255_1_388
10
6.2177053
20
45.2752789
40
0.3935189
50
100.7869829
51
133.4382499
0
ARC
8
DEFAULT_255_1_388
10
6.2568298
20
45.1010399
40
0.5720313
50
89.660664
51
101.3702276
0
ARC
8
DEFAULT_255_1_388
10
6.2642907
20
45.1079263
40
0.5651495
50
78.2172678
51
90.412935
0
ARC
8
DEFAULT_255_1_388
10
6.3042373
20
45.2906511
40
0.378122
50
55.9269121
51
78.4888449
0
ARC
8
DEFAULT_255_1_388
10
6.3263088
20
45.3287187
40
0.3342379
50
47.929771
51
55.4049217
0
ARC
8
DEFAULT_255_1_388
10
6.3377618
20
45.3403618
40
0.3179217
50
4.334829
51
48.0560205
0
ARC
8
DEFAULT_255_1_388
10
6.214542
20
45.3212487
40
0.442341
50
359.9251713
51
5.5971671
0
ARC
8
DEFAULT_255_1_388
10
6.2627575
20
45.3275728
40
0.3941854
50
337.8914027
51
358.9967534
0
ARC
8
DEFAULT_255_1_388
10
5.9575145
20
45.4453295
40
0.7213271
50
326.9132501
51
338.3508308
0
ARC
8
DEFAULT_255_1_388
10
5.5091257
20
45.7327105
40
1.2538973
50
319.6471833
51
327.0959558
0
ARC
8
DEFAULT_255_1_388
10
5.0777915
20
46.088505
40
1.8129975
50
317.2588228
51
319.9045804
0
LINE
8
DEFAULT_255_1_388
10
7.4935832
20
45.6549898
11
6.9451195
21
44.2264544
0
LINE
8
DEFAULT_255_1_388
10
6.9451195
20
44.2264544
11
6.8014528
21
44.2264544
0
LINE
8
DEFAULT_255_1_388
10
6.8014528
20
44.2264544
11
7.35082
21
45.6549898
0
LINE
8
DEFAULT_255_1_388
10
7.35082
20
45.6549898
11
7.4935832
21
45.6549898
0
LINE
8
DEFAULT_255_1_388
10
8.1567995
20
44.3394
11
7.7004994
21
44.3394
0
LINE
8
DEFAULT_255_1_388
10
7.7004994
20
44.3394
11
7.7004994
21
45.6549898
0
LINE
8
DEFAULT_255_1_388
10
7.7004994
20
45.6549898
11
8.1305961
21
45.6549898
0
LINE
8
DEFAULT_255_1_388
10
8.1631244
20
44.9547274
11
7.8739838
21
44.9547274
0
LINE
8
DEFAULT_255_1_388
10
7.8739838
20
44.9547274
11
7.8739838
21
44.4812596
0
LINE
8
DEFAULT_255_1_388
10
7.8739838
20
44.4812596
11
8.1604137
21
44.4812596
0
LINE
8
DEFAULT_255_1_388
10
7.8739838
20
45.5122267
11
7.8739838
21
45.0938763
0
LINE
8
DEFAULT_255_1_388
10
7.8739838
20
45.0938763
11
8.1360175
21
45.0938763
0
LINE
8
DEFAULT_255_1_388
10
8.1305961
20
45.5122267
11
7.8739838
21
45.5122267
0
ARC
8
DEFAULT_255_1_388
10
8.1348381
20
44.8261824
40
0.8288183
50
82.1256322
51
90.2932506
0
ARC
8
DEFAULT_255_1_388
10
8.1785956
20
45.131959
40
0.5199321
50
69.9044202
51
82.2857574
0
ARC
8
DEFAULT_255_1_388
10
8.2427949
20
45.3054993
40
0.3348993
50
51.1840204
51
70.018125
0
ARC
8
DEFAULT_255_1_388
10
8.2714781
20
45.3471945
40
0.2844579
50
12.1018086
51
50.421322
0
ARC
8
DEFAULT_255_1_388
10
8.1157653
20
45.3080937
40
0.4449429
50
359.5252354
51
12.8212369
0
ARC
8
DEFAULT_255_1_388
10
8.2935083
20
45.3002943
40
0.2672162
50
323.4907456
51
0.8818258
0
ARC
8
DEFAULT_255_1_388
10
8.2464495
20
45.3366523
40
0.3266736
50
298.6824053
51
323.2758285
0
ARC
8
DEFAULT_255_1_388
10
8.2057787
20
45.4042509
40
0.4055105
50
293.1994739
51
299.139634
0
ARC
8
DEFAULT_255_1_388
10
8.2814736
20
44.7196651
40
0.3229926
50
54.0009997
51
74.9168635
0
ARC
8
DEFAULT_255_1_388
10
8.2945663
20
44.7418511
40
0.2973581
50
36.3578854
51
53.5293172
0
ARC
8
DEFAULT_255_1_388
10
8.2803031
20
44.731685
40
0.3148715
50
4.8189348
51
36.3090187
0
ARC
8
DEFAULT_255_1_388
10
8.1926055
20
44.7193383
40
0.4033265
50
359.9373213
51
5.5201284
0
ARC
8
DEFAULT_255_1_388
10
8.1561385
20
44.7147733
40
0.4398126
50
344.7479357
51
0.5372278
0
ARC
8
DEFAULT_255_1_388
10
8.2676284
20
44.6847205
40
0.3243441
50
311.1785587
51
344.6887681
0
ARC
8
DEFAULT_255_1_388
10
8.2347827
20
44.7256084
40
0.3767511
50
286.0417804
51
310.8440924
0
ARC
8
DEFAULT_255_1_388
10
8.1777237
20
44.9108885
40
0.5705957
50
274.1044074
51
286.4070149
0
ARC
8
DEFAULT_255_1_388
10
8.1578452
20
45.1226901
40
0.7832907
50
269.9235077
51
274.4458593
0
ARC
8
DEFAULT_255_1_388
10
8.163017
20
44.8595462
40
0.3782955
50
269.6057074
51
281.3740795
0
ARC
8
DEFAULT_255_1_388
10
8.1889669
20
44.7365569
40
0.2526069
50
281.105298
51
302.5134029
0
ARC
8
DEFAULT_255_1_388
10
8.2055056
20
44.7068944
40
0.2187131
50
303.0365425
51
311.8818034
0
ARC
8
DEFAULT_255_1_388
10
8.2135233
20
44.6973602
40
0.2062624
50
311.9916937
51
351.7143773
0
ARC
8
DEFAULT_255_1_388
10
8.1216258
20
44.7159271
40
0.2999202
50
350.7343295
51
0.2221526
0
ARC
8
DEFAULT_255_1_388
10
8.1095346
20
44.722287
40
0.3120525
50
359.045729
51
17.2295312
0
ARC
8
DEFAULT_255_1_388
10
8.2264377
20
44.7570155
40
0.1901144
50
17.6685208
51
78.9940245
0
ARC
8
DEFAULT_255_1_388
10
8.1682737
20
44.5482011
40
0.4065575
50
76.565218
51
90.7103392
0
LINE
8
DEFAULT_255_1_388
10
8.1632335
20
44.9547274
11
8.1631244
21
44.9547274
0
ARC
8
DEFAULT_255_1_388
10
8.1385563
20
45.4634949
40
0.3696273
50
269.6064514
51
281.4533785
0
ARC
8
DEFAULT_255_1_388
10
8.1636204
20
45.3452283
40
0.2487412
50
281.2044438
51
302.5143998
0
ARC
8
DEFAULT_255_1_388
10
8.1790458
20
45.3174576
40
0.2170405
50
303.0211308
51
309.8378766
0
ARC
8
DEFAULT_255_1_388
10
8.1996575
20
45.2943486
40
0.1860946
50
309.5229446
51
356.9509628
0
ARC
8
DEFAULT_255_1_388
10
8.1250701
20
45.3050831
40
0.2612347
50
355.4699226
51
0.0498632
0
ARC
8
DEFAULT_255_1_388
10
8.0936375
20
45.3075789
40
0.2926762
50
359.5558955
51
11.2092924
0
ARC
8
DEFAULT_255_1_388
10
8.2013342
20
45.3298667
40
0.1827036
50
10.9185717
51
31.322519
0
ARC
8
DEFAULT_255_1_388
10
8.233489
20
45.3477571
40
0.1459418
50
31.8850633
51
52.1415586
0
ARC
8
DEFAULT_255_1_388
10
8.202632
20
45.3041674
40
0.1993088
50
52.8283418
51
71.9850132
0
ARC
8
DEFAULT_255_1_388
10
8.160348
20
45.1797158
40
0.3307407
50
71.686634
51
82.8453416
0
ARC
8
DEFAULT_255_1_388
10
8.1334127
20
44.9761892
40
0.536039
50
82.6981895
51
90.1730083
0
ARC
8
DEFAULT_255_1_388
10
8.1308959
20
45.0640836
40
0.4481429
50
89.8851568
51
90.0383283
0
LINE
8
DEFAULT_255_1_388
10
4.2355367
20
53.5924898
11
4.2355367
21
52.2769
0
LINE
8
DEFAULT_255_1_388
10
4.2355367
20
52.2769
11
4.0620523
21
52.2769
0
LINE
8
DEFAULT_255_1_388
10
4.0620523
20
52.2769
11
4.0620523
21
53.5924898
0
LINE
8
DEFAULT_255_1_388
10
4.0620523
20
53.5924898
11
4.2355367
21
53.5924898
0
LINE
8
DEFAULT_255_1_388
10
5.5637764
20
53.5924898
11
5.5637764
21
52.2769
0
LINE
8
DEFAULT_255_1_388
10
5.5637764
20
52.2769
11
5.3893885
21
52.2769
0
LINE
8
DEFAULT_255_1_388
10
5.3893885
20
52.2769
11
4.7270757
21
53.2906993
0
LINE
8
DEFAULT_255_1_388
10
4.7270757
20
53.2906993
11
4.7270757
21
52.2769
0
LINE
8
DEFAULT_255_1_388
10
4.7270757
20
52.2769
11
4.5526878
21
52.2769
0
LINE
8
DEFAULT_255_1_388
10
4.5526878
20
52.2769
11
4.5526878
21
53.5924898
0
LINE
8
DEFAULT_255_1_388
10
4.5526878
20
53.5924898
11
4.7270757
21
53.5924898
0
LINE
8
DEFAULT_255_1_388
10
4.7270757
20
53.5924898
11
5.3911956
21
52.5741727
0
LINE
8
DEFAULT_255_1_388
10
5.3911956
20
52.5741727
11
5.3911956
21
53.5924898
0
LINE
8
DEFAULT_255_1_388
10
5.3911956
20
53.5924898
11
5.5637764
21
53.5924898
0
LINE
8
DEFAULT_255_1_388
10
6.6905213
20
52.4133382
11
6.6905213
21
52.2769
0
LINE
8
DEFAULT_255_1_388
10
6.6905213
20
52.2769
11
5.8285208
21
52.2769
0
LINE
8
DEFAULT_255_1_388
10
5.8285208
20
52.2769
11
5.8285208
21
52.3970741
0
LINE
8
DEFAULT_255_1_388
10
5.8285208
20
52.3970741
11
6.2839173
21
52.9030702
0
LINE
8
DEFAULT_255_1_388
10
5.9703804
20
53.2048607
11
5.803221
21
53.2048607
0
LINE
8
DEFAULT_255_1_388
10
6.3824058
20
52.795546
11
6.0300157
21
52.4133382
0
LINE
8
DEFAULT_255_1_388
10
6.0300157
20
52.4133382
11
6.6905213
21
52.4133382
0
ARC
8
DEFAULT_255_1_388
10
4.7663232
20
54.2450983
40
2.0258655
50
318.5132526
51
320.7829045
0
ARC
8
DEFAULT_255_1_388
10
5.3611189
20
53.7609929
40
1.2589638
50
320.7372878
51
323.9739031
0
ARC
8
DEFAULT_255_1_388
10
5.8020121
20
53.4415554
40
0.7145141
50
323.8962701
51
328.64194
0
ARC
8
DEFAULT_255_1_388
10
6.0322379
20
53.2995545
40
0.4440242
50
328.8294576
51
331.7891185
0
ARC
8
DEFAULT_255_1_388
10
6.1444699
20
53.2416374
40
0.3177517
50
331.4254512
51
352.9365785
0
ARC
8
DEFAULT_255_1_388
10
6.1597699
20
53.238205
40
0.3021496
50
353.2257659
51
0.0166158
0
ARC
8
DEFAULT_255_1_388
10
6.1834459
20
53.2407894
40
0.2784847
50
359.486299
51
15.9343185
0
ARC
8
DEFAULT_255_1_388
10
6.2404726
20
53.2561269
40
0.2194403
50
16.1712913
51
43.5286088
0
ARC
8
DEFAULT_255_1_388
10
6.2491671
20
53.2648191
40
0.2071504
50
43.4417391
51
83.1661095
0
ARC
8
DEFAULT_255_1_388
10
6.2340832
20
53.1819316
40
0.2912888
50
82.160179
51
90.1505708
0
ARC
8
DEFAULT_255_1_388
10
6.2305313
20
53.1215279
40
0.3517025
50
89.5460741
51
102.5418361
0
ARC
8
DEFAULT_255_1_388
10
6.2032033
20
53.2374933
40
0.2325748
50
102.1738499
51
129.206123
0
ARC
8
DEFAULT_255_1_388
10
6.1943487
20
53.2514664
40
0.2161591
50
129.72865
51
135.753947
0
ARC
8
DEFAULT_255_1_388
10
6.2079969
20
53.2405728
40
0.2335433
50
136.1757367
51
166.3673339
0
ARC
8
DEFAULT_255_1_388
10
6.3212657
20
53.2102148
40
0.3507873
50
165.9090694
51
178.8684636
0
ARC
8
DEFAULT_255_1_388
10
6.4188429
20
53.2049263
40
0.4484624
50
178.4391136
51
180.0083808
0
ARC
8
DEFAULT_255_1_388
10
6.260913
20
53.2093197
40
0.4577138
50
163.2878482
51
180.5581842
0
ARC
8
DEFAULT_255_1_388
10
6.1707171
20
53.2341393
40
0.3641968
50
133.4540601
51
162.947111
0
ARC
8
DEFAULT_255_1_388
10
6.1908053
20
53.2127789
40
0.3935189
50
100.7869829
51
133.4382499
0
ARC
8
DEFAULT_255_1_388
10
6.2299298
20
53.0385399
40
0.5720313
50
89.660664
51
101.3702276
0
ARC
8
DEFAULT_255_1_388
10
6.2373907
20
53.0454263
40
0.5651495
50
78.2172678
51
90.412935
0
ARC
8
DEFAULT_255_1_388
10
6.2773373
20
53.2281511
40
0.378122
50
55.9269121
51
78.4888449
0
ARC
8
DEFAULT_255_1_388
10
6.2994088
20
53.2662187
40
0.3342379
50
47.929771
51
55.4049217
0
ARC
8
DEFAULT_255_1_388
10
6.3108618
20
53.2778618
40
0.3179217
50
4.334829
51
48.0560205
0
ARC
8
DEFAULT_255_1_388
10
6.187642
20
53.2587487
40
0.442341
50
359.9251713
51
5.5971671
0
ARC
8
DEFAULT_255_1_388
10
6.2358575
20
53.2650728
40
0.3941854
50
337.8914027
51
358.9967534
0
ARC
8
DEFAULT_255_1_388
10
5.9306145
20
53.3828295
40
0.7213271
50
326.9132501
51
338.3508308
0
ARC
8
DEFAULT_255_1_388
10
5.4822257
20
53.6702105
40
1.2538973
50
319.6471833
51
327.0959558
0
ARC
8
DEFAULT_255_1_388
10
5.0508915
20
54.026005
40
1.8129975
50
317.2588228
51
319.9045804
0
LINE
8
DEFAULT_255_1_388
10
7.4666832
20
53.5924898
11
6.9182195
21
52.1639544
0
LINE
8
DEFAULT_255_1_388
10
6.9182195
20
52.1639544
11
6.7745528
21
52.1639544
0
LINE
8
DEFAULT_255_1_388
10
6.7745528
20
52.1639544
11
7.32392
21
53.5924898
0
LINE
8
DEFAULT_255_1_388
10
7.32392
20
53.5924898
11
7.4666832
21
53.5924898
0
LINE
8
DEFAULT_255_1_388
10
8.5256607
20
52.2769
11
8.4000652
21
52.6202545
0
LINE
8
DEFAULT_255_1_388
10
8.4000652
20
52.6202545
11
7.8488909
21
52.6202545
0
LINE
8
DEFAULT_255_1_388
10
7.8488909
20
52.6202545
11
7.7251026
21
52.2769
0
LINE
8
DEFAULT_255_1_388
10
7.7251026
20
52.2769
11
7.5461968
21
52.2769
0
LINE
8
DEFAULT_255_1_388
10
7.5461968
20
52.2769
11
8.0485787
21
53.5924898
0
LINE
8
DEFAULT_255_1_388
10
8.0485787
20
53.5924898
11
8.2003775
21
53.5924898
0
LINE
8
DEFAULT_255_1_388
10
8.2003775
20
53.5924898
11
8.7036629
21
52.2769
0
LINE
8
DEFAULT_255_1_388
10
8.7036629
20
52.2769
11
8.5256607
21
52.2769
0
LINE
8
DEFAULT_255_1_388
10
8.1244781
20
53.3783451
11
7.9012977
21
52.7630177
0
LINE
8
DEFAULT_255_1_388
10
7.9012977
20
52.7630177
11
8.3485621
21
52.7630177
0
LINE
8
DEFAULT_255_1_388
10
8.3485621
20
52.7630177
11
8.1244781
21
53.3783451
0
LINE
8
DEFAULT_255_1_388
10
4.7670322
20
60.2144
11
4.4815058
21
60.7465995
0
LINE
8
DEFAULT_255_1_388
10
4.4815058
20
60.7465995
11
4.1724868
21
60.7465995
0
LINE
8
DEFAULT_255_1_388
10
4.1724868
20
60.7465995
11
4.1724868
21
60.2144
0
LINE
8
DEFAULT_255_1_388
10
4.1724868
20
60.2144
11
3.9980988
21
60.2144
0
LINE
8
DEFAULT_255_1_388
10
3.9980988
20
60.2144
11
3.9980988
21
61.5299898
0
LINE
8
DEFAULT_255_1_388
10
3.9980988
20
61.5299898
11
4.4336169
21
61.5299898
0
LINE
8
DEFAULT_255_1_388
10
4.6441474
20
60.7836456
11
4.9531665
21
60.2252428
0
LINE
8
DEFAULT_255_1_388
10
4.9531665
20
60.2252428
11
4.9531665
21
60.2144
0
LINE
8
DEFAULT_255_1_388
10
4.9531665
20
60.2144
11
4.7670322
21
60.2144
0
LINE
8
DEFAULT_255_1_388
10
4.1724868
20
61.3872267
11
4.1724868
21
60.8884591
0
LINE
8
DEFAULT_255_1_388
10
4.1724868
20
60.8884591
11
4.4390383
21
60.8884591
0
LINE
8
DEFAULT_255_1_388
10
4.4381347
20
61.3872267
11
4.1724868
21
61.3872267
0
ARC
8
DEFAULT_255_1_388
10
4.4383015
20
60.7468346
40
0.7831693
50
80.6535681
51
90.3427203
0
ARC
8
DEFAULT_255_1_388
10
4.4854925
20
61.0238722
40
0.5021479
50
65.6987674
51
80.8330164
0
ARC
8
DEFAULT_255_1_388
10
4.5392219
20
61.1470479
40
0.3677787
50
50.0019152
51
65.4304412
0
ARC
8
DEFAULT_255_1_388
10
4.5638035
20
61.1802603
40
0.3265454
50
11.6284215
51
49.5603681
0
ARC
8
DEFAULT_255_1_388
10
4.3910521
20
61.1380524
40
0.5043009
50
359.5655533
51
12.3693319
0
ARC
8
DEFAULT_255_1_388
10
4.5121858
20
61.1310038
40
0.3831661
50
341.998418
51
0.4822212
0
ARC
8
DEFAULT_255_1_388
10
4.5566044
20
61.1189479
40
0.3372036
50
323.8610842
51
341.6141514
0
ARC
8
DEFAULT_255_1_388
10
4.522659
20
61.1451615
40
0.3800784
50
296.7019299
51
323.6876213
0
ARC
8
DEFAULT_255_1_388
10
4.4730548
20
61.2338532
40
0.4816219
50
290.808313
51
297.2325929
0
ARC
8
DEFAULT_255_1_388
10
4.4419342
20
61.2927377
40
0.404289
50
269.5895908
51
281.8058892
0
ARC
8
DEFAULT_255_1_388
10
4.4701608
20
61.163636
40
0.2721459
50
281.5499321
51
303.9358954
0
ARC
8
DEFAULT_255_1_388
10
4.4856143
20
61.1368588
40
0.2413121
50
304.4410786
51
311.211123
0
ARC
8
DEFAULT_255_1_388
10
4.5004548
20
61.1212152
40
0.2197678
50
310.9874923
51
356.2715203
0
ARC
8
DEFAULT_255_1_388
10
4.4154294
20
61.1338992
40
0.3055212
50
354.9346315
51
0.0617816
0
ARC
8
DEFAULT_255_1_388
10
4.3943135
20
61.1369427
40
0.3266482
50
359.5239293
51
12.8808621
0
ARC
8
DEFAULT_255_1_388
10
4.5042898
20
61.1638638
40
0.2134449
50
12.417206
51
43.1023141
0
ARC
8
DEFAULT_255_1_388
10
4.5112228
20
61.1680253
40
0.2055463
50
43.575886
51
48.2047245
0
ARC
8
DEFAULT_255_1_388
10
4.4921489
20
61.1431151
40
0.2368418
50
48.7809155
51
72.6968768
0
ARC
8
DEFAULT_255_1_388
10
4.4522853
20
61.0221385
40
0.364206
50
72.3699892
51
84.8793749
0
ARC
8
DEFAULT_255_1_388
10
4.4356859
20
60.8711651
40
0.5160674
50
84.5398226
51
89.7281165
0
LINE
8
DEFAULT_255_1_388
10
5.9750979
20
61.5299898
11
5.9750979
21
61.3872267
0
LINE
8
DEFAULT_255_1_388
10
5.9750979
20
61.3872267
11
5.5522297
21
61.3872267
0
LINE
8
DEFAULT_255_1_388
10
5.5522297
20
61.3872267
11
5.5522297
21
60.2144
0
LINE
8
DEFAULT_255_1_388
10
5.5522297
20
60.2144
11
5.3796489
21
60.2144
0
LINE
8
DEFAULT_255_1_388
10
5.3796489
20
60.2144
11
5.3796489
21
61.3872267
0
LINE
8
DEFAULT_255_1_388
10
5.3796489
20
61.3872267
11
4.9576843
21
61.3872267
0
LINE
8
DEFAULT_255_1_388
10
4.9576843
20
61.3872267
11
4.9576843
21
61.5299898
0
LINE
8
DEFAULT_255_1_388
10
4.9576843
20
61.5299898
11
5.9750979
21
61.5299898
0
LINE
8
DEFAULT_255_1_388
10
7.1813564
20
61.5299898
11
7.1813564
21
60.2144
0
LINE
8
DEFAULT_255_1_388
10
7.1813564
20
60.2144
11
7.0069685
21
60.2144
0
LINE
8
DEFAULT_255_1_388
10
7.0069685
20
60.2144
11
6.3446557
21
61.2281993
0
LINE
8
DEFAULT_255_1_388
10
6.3446557
20
61.2281993
11
6.3446557
21
60.2144
0
LINE
8
DEFAULT_255_1_388
10
6.3446557
20
60.2144
11
6.1702678
21
60.2144
0
LINE
8
DEFAULT_255_1_388
10
6.1702678
20
60.2144
11
6.1702678
21
61.5299898
0
LINE
8
DEFAULT_255_1_388
10
6.1702678
20
61.5299898
11
6.3446557
21
61.5299898
0
LINE
8
DEFAULT_255_1_388
10
6.3446557
20
61.5299898
11
7.0087756
21
60.5116727
0
LINE
8
DEFAULT_255_1_388
10
7.0087756
20
60.5116727
11
7.0087756
21
61.5299898
0
LINE
8
DEFAULT_255_1_388
10
7.0087756
20
61.5299898
11
7.1813564
21
61.5299898
0
LINE
8
DEFAULT_255_1_388
10
8.2710551
20
60.992369
11
8.2710551
21
60.7755135
0
LINE
8
DEFAULT_255_1_388
10
7.4406794
20
60.7529244
11
7.4406794
21
60.9761048
0
LINE
8
DEFAULT_255_1_388
10
8.1038957
20
60.7303353
11
8.1038957
21
61.0041153
0
LINE
8
DEFAULT_255_1_388
10
7.6078388
20
61.0167652
11
7.6078388
21
60.7493102
0
ARC
8
DEFAULT_255_1_388
10
6.8932885
20
60.7700118
40
1.3777776
50
353.8440855
51
0.2287917
0
ARC
8
DEFAULT_255_1_388
10
7.4151903
20
60.7117414
40
0.852639
50
344.4934746
51
353.9763743
0
ARC
8
DEFAULT_255_1_388
10
7.751871
20
60.6160191
40
0.5026273
50
329.2803599
51
344.7473406
0
ARC
8
DEFAULT_255_1_388
10
7.8634206
20
60.5548038
40
0.3754848
50
324.9361395
51
328.6153007
0
ARC
8
DEFAULT_255_1_388
10
7.9059855
20
60.5250586
40
0.3235566
50
280.5801797
51
324.9173226
0
ARC
8
DEFAULT_255_1_388
10
7.8608484
20
60.7130236
40
0.5167077
50
269.5979457
51
281.6732777
0
ARC
8
DEFAULT_255_1_388
10
7.8527388
20
60.6995113
40
0.5032026
50
256.6228565
51
270.5105488
0
ARC
8
DEFAULT_255_1_388
10
7.807513
20
60.5253345
40
0.3233092
50
215.8618351
51
257.2787793
0
ARC
8
DEFAULT_255_1_388
10
7.9223837
20
60.6024106
40
0.4615831
50
197.9695203
51
215.2622745
0
ARC
8
DEFAULT_255_1_388
10
8.2019513
20
60.6967641
40
0.7566307
50
187.8816486
51
198.2346584
0
ARC
8
DEFAULT_255_1_388
10
8.6472751
20
60.7610453
40
1.2065653
50
180.8977266
51
188.0054894
0
ARC
8
DEFAULT_255_1_388
10
8.9522965
20
60.77254
40
1.5117443
50
180.7434591
51
181.152202
0
ARC
8
DEFAULT_255_1_388
10
8.7847961
20
60.9815371
40
1.3441277
50
173.7674302
51
180.2315596
0
ARC
8
DEFAULT_255_1_388
10
8.276583
20
61.0389779
40
0.8326847
50
164.3058537
51
173.9000553
0
ARC
8
DEFAULT_255_1_388
10
7.948983
20
61.1333652
40
0.4917711
50
148.7922028
51
164.5682288
0
ARC
8
DEFAULT_255_1_388
10
7.8420567
20
61.1930457
40
0.3694204
50
144.5883979
51
148.1161588
0
ARC
8
DEFAULT_255_1_388
10
7.8033312
20
61.2200667
40
0.322202
50
101.6440149
51
144.5142619
0
ARC
8
DEFAULT_255_1_388
10
7.8511505
20
61.0300337
40
0.5180451
50
89.528284
51
102.5820197
0
ARC
8
DEFAULT_255_1_388
10
7.8600497
20
61.0256376
40
0.5224441
50
77.0437914
51
90.508231
0
ARC
8
DEFAULT_255_1_388
10
7.905275
20
61.2104272
40
0.3322297
50
48.2777708
51
77.4996087
0
ARC
8
DEFAULT_255_1_388
10
7.913449
20
61.2249557
40
0.315966
50
36.3141586
51
47.6307332
0
ARC
8
DEFAULT_255_1_388
10
7.8157212
20
61.1591159
40
0.4337313
50
18.2931065
51
35.6770203
0
ARC
8
DEFAULT_255_1_388
10
7.5296053
20
61.0609107
40
0.7362203
50
8.0246996
51
18.5605636
0
ARC
8
DEFAULT_255_1_388
10
7.0612409
20
60.9917432
40
1.2096583
50
1.127539
51
8.1718423
0
ARC
8
DEFAULT_255_1_388
10
6.6963542
20
60.9774374
40
1.5747719
50
0.5432713
51
1.38669
0
ARC
8
DEFAULT_255_1_388
10
6.9020921
20
61.0081163
40
1.2018103
50
359.8092569
51
4.9408001
0
ARC
8
DEFAULT_255_1_388
10
7.3757502
20
61.05039
40
0.7262727
50
4.8364937
51
12.2906017
0
ARC
8
DEFAULT_255_1_388
10
7.6856967
20
61.1194485
40
0.4087324
50
12.0806994
51
23.8171225
0
ARC
8
DEFAULT_255_1_388
10
7.8177363
20
61.1753508
40
0.2653719
50
24.2874621
51
31.3934353
0
ARC
8
DEFAULT_255_1_388
10
7.8767799
20
61.2139822
40
0.1948607
50
30.7407708
51
82.4658033
0
ARC
8
DEFAULT_255_1_388
10
7.856546
20
61.1146017
40
0.2961198
50
81.1057101
51
90.2187368
0
ARC
8
DEFAULT_255_1_388
10
7.8525272
20
61.1436421
40
0.2670929
50
89.380395
51
105.6763916
0
ARC
8
DEFAULT_255_1_388
10
7.8318993
20
61.218632
40
0.1893189
50
105.7980655
51
149.7387869
0
ARC
8
DEFAULT_255_1_388
10
7.9516134
20
61.1466719
40
0.3289892
50
149.4208441
51
163.628295
0
ARC
8
DEFAULT_255_1_388
10
8.1868363
20
61.0749345
40
0.5749004
50
163.3764549
51
172.141138
0
ARC
8
DEFAULT_255_1_388
10
8.5581085
20
61.0217582
40
0.9499585
50
172.0258462
51
178.0705453
0
ARC
8
DEFAULT_255_1_388
10
8.9002637
20
61.0055682
40
1.2924734
50
177.8639301
51
179.5036263
0
ARC
8
DEFAULT_255_1_388
10
8.7783656
20
60.7452151
40
1.170534
50
179.7995545
51
185.246089
0
ARC
8
DEFAULT_255_1_388
10
8.3235249
20
60.7021404
40
0.7136613
50
185.1411911
51
193.0082205
0
ARC
8
DEFAULT_255_1_388
10
8.026151
20
60.6318441
40
0.4080987
50
192.7897338
51
205.2507384
0
ARC
8
DEFAULT_255_1_388
10
7.908372
20
60.5792538
40
0.2791522
50
205.8001921
51
211.2545876
0
ARC
8
DEFAULT_255_1_388
10
7.8495259
20
60.5398132
40
0.2084074
50
210.3789935
51
238.4007996
0
ARC
8
DEFAULT_255_1_388
10
7.8473345
20
60.5450786
40
0.2117943
50
239.6521916
51
265.9793852
0
ARC
8
DEFAULT_255_1_388
10
7.8569194
20
60.6207358
40
0.2879689
50
265.1324455
51
270.0603288
0
ARC
8
DEFAULT_255_1_388
10
7.8601571
20
60.5842418
40
0.2514919
50
269.3314378
51
287.2180039
0
ARC
8
DEFAULT_255_1_388
10
7.8756653
20
60.5276291
40
0.1928357
50
287.7957942
51
329.0808983
0
ARC
8
DEFAULT_255_1_388
10
7.767941
20
60.5948651
40
0.319808
50
328.6635261
51
343.3325043
0
ARC
8
DEFAULT_255_1_388
10
7.5234869
20
60.6710195
40
0.5758408
50
343.0498092
51
351.9392499
0
ARC
8
DEFAULT_255_1_388
10
7.133419
20
60.7285205
40
0.9701202
50
351.8071632
51
357.7957897
0
ARC
8
DEFAULT_255_1_388
10
6.7699667
20
60.7473724
40
1.3340376
50
357.5870923
51
359.2682493
0
LINE
8
DEFAULT_255_1_388
10
4.2624367
20
69.4674898
11
4.2624367
21
68.1519
0
LINE
8
DEFAULT_255_1_388
10
4.2624367
20
68.1519
11
4.0889523
21
68.1519
0
LINE
8
DEFAULT_255_1_388
10
4.0889523
20
68.1519
11
4.0889523
21
69.4674898
0
LINE
8
DEFAULT_255_1_388
10
4.0889523
20
69.4674898
11
4.2624367
21
69.4674898
0
LINE
8
DEFAULT_255_1_388
10
5.5906764
20
69.4674898
11
5.5906764
21
68.1519
0
LINE
8
DEFAULT_255_1_388
10
5.5906764
20
68.1519
11
5.4162885
21
68.1519
0
LINE
8
DEFAULT_255_1_388
10
5.4162885
20
68.1519
11
4.7539757
21
69.1656993
0
LINE
8
DEFAULT_255_1_388
10
4.7539757
20
69.1656993
11
4.7539757
21
68.1519
0
LINE
8
DEFAULT_255_1_388
10
4.7539757
20
68.1519
11
4.5795878
21
68.1519
0
LINE
8
DEFAULT_255_1_388
10
4.5795878
20
68.1519
11
4.5795878
21
69.4674898
0
LINE
8
DEFAULT_255_1_388
10
4.5795878
20
69.4674898
11
4.7539757
21
69.4674898
0
LINE
8
DEFAULT_255_1_388
10
4.7539757
20
69.4674898
11
5.4180956
21
68.4491727
0
LINE
8
DEFAULT_255_1_388
10
5.4180956
20
68.4491727
11
5.4180956
21
69.4674898
0
LINE
8
DEFAULT_255_1_388
10
5.4180956
20
69.4674898
11
5.5906764
21
69.4674898
0
LINE
8
DEFAULT_255_1_388
10
6.6803751
20
68.929869
11
6.6803751
21
68.7130135
0
LINE
8
DEFAULT_255_1_388
10
5.8499994
20
68.6904244
11
5.8499994
21
68.9136048
0
LINE
8
DEFAULT_255_1_388
10
6.5132157
20
68.6678353
11
6.5132157
21
68.9416153
0
LINE
8
DEFAULT_255_1_388
10
6.0171588
20
68.9542652
11
6.0171588
21
68.6868102
0
ARC
8
DEFAULT_255_1_388
10
5.3026085
20
68.7075118
40
1.3777776
50
353.8440855
51
0.2287917
0
ARC
8
DEFAULT_255_1_388
10
5.8245103
20
68.6492414
40
0.852639
50
344.4934746
51
353.9763743
0
ARC
8
DEFAULT_255_1_388
10
6.161191
20
68.5535191
40
0.5026273
50
329.2803599
51
344.7473406
0
ARC
8
DEFAULT_255_1_388
10
6.2727406
20
68.4923038
40
0.3754848
50
324.9361395
51
328.6153007
0
ARC
8
DEFAULT_255_1_388
10
6.3153056
20
68.4625586
40
0.3235566
50
280.5801797
51
324.9173226
0
ARC
8
DEFAULT_255_1_388
10
6.2701684
20
68.6505236
40
0.5167077
50
269.5979457
51
281.6732777
0
ARC
8
DEFAULT_255_1_388
10
6.2620588
20
68.6370113
40
0.5032026
50
256.6228565
51
270.5105488
0
ARC
8
DEFAULT_255_1_388
10
6.216833
20
68.4628345
40
0.3233092
50
215.8618351
51
257.2787793
0
ARC
8
DEFAULT_255_1_388
10
6.3317037
20
68.5399106
40
0.4615831
50
197.9695203
51
215.2622745
0
ARC
8
DEFAULT_255_1_388
10
6.6112713
20
68.6342641
40
0.7566307
50
187.8816486
51
198.2346584
0
ARC
8
DEFAULT_255_1_388
10
7.0565951
20
68.6985453
40
1.2065653
50
180.8977266
51
188.0054894
0
ARC
8
DEFAULT_255_1_388
10
7.3616165
20
68.71004
40
1.5117443
50
180.7434591
51
181.152202
0
ARC
8
DEFAULT_255_1_388
10
7.1941161
20
68.9190371
40
1.3441277
50
173.7674302
51
180.2315596
0
ARC
8
DEFAULT_255_1_388
10
6.685903
20
68.9764779
40
0.8326847
50
164.3058537
51
173.9000553
0
ARC
8
DEFAULT_255_1_388
10
6.358303
20
69.0708652
40
0.4917711
50
148.7922028
51
164.5682288
0
ARC
8
DEFAULT_255_1_388
10
6.2513767
20
69.1305457
40
0.3694204
50
144.5883979
51
148.1161588
0
ARC
8
DEFAULT_255_1_388
10
6.2126513
20
69.1575667
40
0.322202
50
101.6440149
51
144.5142619
0
ARC
8
DEFAULT_255_1_388
10
6.2604705
20
68.9675337
40
0.5180451
50
89.528284
51
102.5820197
0
ARC
8
DEFAULT_255_1_388
10
6.2693697
20
68.9631376
40
0.5224441
50
77.0437914
51
90.508231
0
ARC
8
DEFAULT_255_1_388
10
6.314595
20
69.1479272
40
0.3322297
50
48.2777708
51
77.4996087
0
ARC
8
DEFAULT_255_1_388
10
6.322769
20
69.1624557
40
0.315966
50
36.3141586
51
47.6307332
0
ARC
8
DEFAULT_255_1_388
10
6.2250413
20
69.0966159
40
0.4337313
50
18.2931065
51
35.6770203
0
ARC
8
DEFAULT_255_1_388
10
5.9389253
20
68.9984107
40
0.7362203
50
8.0246996
51
18.5605636
0
ARC
8
DEFAULT_255_1_388
10
5.4705609
20
68.9292432
40
1.2096583
50
1.127539
51
8.1718423
0
ARC
8
DEFAULT_255_1_388
10
5.1056742
20
68.9149374
40
1.5747719
50
0.5432713
51
1.38669
0
ARC
8
DEFAULT_255_1_388
10
5.3114121
20
68.9456163
40
1.2018103
50
359.8092569
51
4.9408001
0
ARC
8
DEFAULT_255_1_388
10
5.7850702
20
68.98789
40
0.7262727
50
4.8364937
51
12.2906017
0
ARC
8
DEFAULT_255_1_388
10
6.0950167
20
69.0569485
40
0.4087324
50
12.0806994
51
23.8171225
0
ARC
8
DEFAULT_255_1_388
10
6.2270563
20
69.1128508
40
0.2653719
50
24.2874621
51
31.3934353
0
ARC
8
DEFAULT_255_1_388
10
6.2860999
20
69.1514822
40
0.1948607
50
30.7407708
51
82.4658033
0
ARC
8
DEFAULT_255_1_388
10
6.265866
20
69.0521017
40
0.2961198
50
81.1057101
51
90.2187368
0
ARC
8
DEFAULT_255_1_388
10
6.2618472
20
69.0811421
40
0.2670929
50
89.380395
51
105.6763916
0
ARC
8
DEFAULT_255_1_388
10
6.2412194
20
69.156132
40
0.1893189
50
105.7980655
51
149.7387869
0
ARC
8
DEFAULT_255_1_388
10
6.3609334
20
69.0841719
40
0.3289892
50
149.4208441
51
163.628295
0
ARC
8
DEFAULT_255_1_388
10
6.5961563
20
69.0124345
40
0.5749004
50
163.3764549
51
172.141138
0
ARC
8
DEFAULT_255_1_388
10
6.9674285
20
68.9592582
40
0.9499585
50
172.0258462
51
178.0705453
0
ARC
8
DEFAULT_255_1_388
10
7.3095838
20
68.9430682
40
1.2924734
50
177.8639301
51
179.5036263
0
ARC
8
DEFAULT_255_1_388
10
7.1876856
20
68.6827151
40
1.170534
50
179.7995545
51
185.246089
0
ARC
8
DEFAULT_255_1_388
10
6.7328449
20
68.6396404
40
0.7136613
50
185.1411911
51
193.0082205
0
ARC
8
DEFAULT_255_1_388
10
6.435471
20
68.5693441
40
0.4080987
50
192.7897338
51
205.2507384
0
ARC
8
DEFAULT_255_1_388
10
6.317692
20
68.5167538
40
0.2791522
50
205.8001921
51
211.2545876
0
ARC
8
DEFAULT_255_1_388
10
6.2588459
20
68.4773132
40
0.2084074
50
210.3789935
51
238.4007996
0
ARC
8
DEFAULT_255_1_388
10
6.2566545
20
68.4825786
40
0.2117943
50
239.6521916
51
265.9793852
0
ARC
8
DEFAULT_255_1_388
10
6.2662394
20
68.5582358
40
0.2879689
50
265.1324455
51
270.0603288
0
ARC
8
DEFAULT_255_1_388
10
6.2694771
20
68.5217418
40
0.2514919
50
269.3314378
51
287.2180039
0
ARC
8
DEFAULT_255_1_388
10
6.2849853
20
68.4651291
40
0.1928357
50
287.7957942
51
329.0808983
0
ARC
8
DEFAULT_255_1_388
10
6.177261
20
68.5323651
40
0.319808
50
328.6635261
51
343.3325043
0
ARC
8
DEFAULT_255_1_388
10
5.9328069
20
68.6085195
40
0.5758408
50
343.0498092
51
351.9392499
0
ARC
8
DEFAULT_255_1_388
10
5.5427391
20
68.6660205
40
0.9701202
50
351.8071632
51
357.7957897
0
ARC
8
DEFAULT_255_1_388
10
5.1792868
20
68.6848724
40
1.3340376
50
357.5870923
51
359.2682493
0
LINE
8
DEFAULT_255_1_388
10
7.4935832
20
69.4674898
11
6.9451195
21
68.0389544
0
LINE
8
DEFAULT_255_1_388
10
6.9451195
20
68.0389544
11
6.8014528
21
68.0389544
0
LINE
8
DEFAULT_255_1_388
10
6.8014528
20
68.0389544
11
7.35082
21
69.4674898
0
LINE
8
DEFAULT_255_1_388
10
7.35082
20
69.4674898
11
7.4935832
21
69.4674898
0
LINE
8
DEFAULT_255_1_388
10
8.1567995
20
68.1519
11
7.7004994
21
68.1519
0
LINE
8
DEFAULT_255_1_388
10
7.7004994
20
68.1519
11
7.7004994
21
69.4674898
0
LINE
8
DEFAULT_255_1_388
10
7.7004994
20
69.4674898
11
8.1305961
21
69.4674898
0
LINE
8
DEFAULT_255_1_388
10
8.1631244
20
68.7672274
11
7.8739838
21
68.7672274
0
LINE
8
DEFAULT_255_1_388
10
7.8739838
20
68.7672274
11
7.8739838
21
68.2937596
0
LINE
8
DEFAULT_255_1_388
10
7.8739838
20
68.2937596
11
8.1604137
21
68.2937596
0
LINE
8
DEFAULT_255_1_388
10
7.8739838
20
69.3247267
11
7.8739838
21
68.9063763
0
LINE
8
DEFAULT_255_1_388
10
7.8739838
20
68.9063763
11
8.1360175
21
68.9063763
0
LINE
8
DEFAULT_255_1_388
10
8.1305961
20
69.3247267
11
7.8739838
21
69.3247267
0
ARC
8
DEFAULT_255_1_388
10
8.1348381
20
68.6386824
40
0.8288183
50
82.1256322
51
90.2932506
0
ARC
8
DEFAULT_255_1_388
10
8.1785956
20
68.944459
40
0.5199321
50
69.9044202
51
82.2857574
0
ARC
8
DEFAULT_255_1_388
10
8.2427949
20
69.1179993
40
0.3348993
50
51.1840204
51
70.018125
0
ARC
8
DEFAULT_255_1_388
10
8.2714781
20
69.1596945
40
0.2844579
50
12.1018086
51
50.421322
0
ARC
8
DEFAULT_255_1_388
10
8.1157653
20
69.1205937
40
0.4449429
50
359.5252354
51
12.8212369
0
ARC
8
DEFAULT_255_1_388
10
8.2935083
20
69.1127943
40
0.2672162
50
323.4907456
51
0.8818258
0
ARC
8
DEFAULT_255_1_388
10
8.2464495
20
69.1491523
40
0.3266736
50
298.6824053
51
323.2758285
0
ARC
8
DEFAULT_255_1_388
10
8.2057787
20
69.2167509
40
0.4055105
50
293.1994739
51
299.139634
0
ARC
8
DEFAULT_255_1_388
10
8.2814736
20
68.5321651
40
0.3229926
50
54.0009997
51
74.9168635
0
ARC
8
DEFAULT_255_1_388
10
8.2945663
20
68.5543511
40
0.2973581
50
36.3578854
51
53.5293172
0
ARC
8
DEFAULT_255_1_388
10
8.2803031
20
68.544185
40
0.3148715
50
4.8189348
51
36.3090187
0
ARC
8
DEFAULT_255_1_388
10
8.1926055
20
68.5318383
40
0.4033265
50
359.9373213
51
5.5201284
0
ARC
8
DEFAULT_255_1_388
10
8.1561385
20
68.5272733
40
0.4398126
50
344.7479357
51
0.5372278
0
ARC
8
DEFAULT_255_1_388
10
8.2676284
20
68.4972205
40
0.3243441
50
311.1785587
51
344.6887681
0
ARC
8
DEFAULT_255_1_388
10
8.2347827
20
68.5381084
40
0.3767511
50
286.0417804
51
310.8440924
0
ARC
8
DEFAULT_255_1_388
10
8.1777237
20
68.7233885
40
0.5705957
50
274.1044074
51
286.4070149
0
ARC
8
DEFAULT_255_1_388
10
8.1578452
20
68.9351901
40
0.7832907
50
269.9235077
51
274.4458593
0
ARC
8
DEFAULT_255_1_388
10
8.163017
20
68.6720462
40
0.3782955
50
269.6057074
51
281.3740795
0
ARC
8
DEFAULT_255_1_388
10
8.1889669
20
68.5490569
40
0.2526069
50
281.105298
51
302.5134029
0
ARC
8
DEFAULT_255_1_388
10
8.2055056
20
68.5193944
40
0.2187131
50
303.0365425
51
311.8818034
0
ARC
8
DEFAULT_255_1_388
10
8.2135233
20
68.5098602
40
0.2062624
50
311.9916937
51
351.7143773
0
ARC
8
DEFAULT_255_1_388
10
8.1216258
20
68.5284271
40
0.2999202
50
350.7343295
51
0.2221526
0
ARC
8
DEFAULT_255_1_388
10
8.1095346
20
68.534787
40
0.3120525
50
359.045729
51
17.2295312
0
ARC
8
DEFAULT_255_1_388
10
8.2264377
20
68.5695155
40
0.1901144
50
17.6685208
51
78.9940245
0
ARC
8
DEFAULT_255_1_388
10
8.1682737
20
68.3607011
40
0.4065575
50
76.565218
51
90.7103392
0
LINE
8
DEFAULT_255_1_388
10
8.1632335
20
68.7672274
11
8.1631244
21
68.7672274
0
ARC
8
DEFAULT_255_1_388
10
8.1385563
20
69.2759949
40
0.3696273
50
269.6064514
51
281.4533785
0
ARC
8
DEFAULT_255_1_388
10
8.1636204
20
69.1577283
40
0.2487412
50
281.2044438
51
302.5143998
0
ARC
8
DEFAULT_255_1_388
10
8.1790458
20
69.1299576
40
0.2170405
50
303.0211308
51
309.8378766
0
ARC
8
DEFAULT_255_1_388
10
8.1996575
20
69.1068486
40
0.1860946
50
309.5229446
51
356.9509628
0
ARC
8
DEFAULT_255_1_388
10
8.1250701
20
69.1175831
40
0.2612347
50
355.4699226
51
0.0498632
0
ARC
8
DEFAULT_255_1_388
10
8.0936375
20
69.1200789
40
0.2926762
50
359.5558955
51
11.2092924
0
ARC
8
DEFAULT_255_1_388
10
8.2013342
20
69.1423667
40
0.1827036
50
10.9185717
51
31.322519
0
ARC
8
DEFAULT_255_1_388
10
8.233489
20
69.1602571
40
0.1459418
50
31.8850633
51
52.1415586
0
ARC
8
DEFAULT_255_1_388
10
8.202632
20
69.1166674
40
0.1993088
50
52.8283418
51
71.9850132
0
ARC
8
DEFAULT_255_1_388
10
8.160348
20
68.9922158
40
0.3307407
50
71.686634
51
82.8453416
0
ARC
8
DEFAULT_255_1_388
10
8.1334127
20
68.7886892
40
0.536039
50
82.6981895
51
90.1730083
0
ARC
8
DEFAULT_255_1_388
10
8.1308959
20
68.8765836
40
0.4481429
50
89.8851568
51
90.0383283
0
LINE
8
DEFAULT_255_1_388
10
4.2355367
20
77.4049898
11
4.2355367
21
76.0894
0
LINE
8
DEFAULT_255_1_388
10
4.2355367
20
76.0894
11
4.0620523
21
76.0894
0
LINE
8
DEFAULT_255_1_388
10
4.0620523
20
76.0894
11
4.0620523
21
77.4049898
0
LINE
8
DEFAULT_255_1_388
10
4.0620523
20
77.4049898
11
4.2355367
21
77.4049898
0
LINE
8
DEFAULT_255_1_388
10
5.5637764
20
77.4049898
11
5.5637764
21
76.0894
0
LINE
8
DEFAULT_255_1_388
10
5.5637764
20
76.0894
11
5.3893885
21
76.0894
0
LINE
8
DEFAULT_255_1_388
10
5.3893885
20
76.0894
11
4.7270757
21
77.1031993
0
LINE
8
DEFAULT_255_1_388
10
4.7270757
20
77.1031993
11
4.7270757
21
76.0894
0
LINE
8
DEFAULT_255_1_388
10
4.7270757
20
76.0894
11
4.5526878
21
76.0894
0
LINE
8
DEFAULT_255_1_388
10
4.5526878
20
76.0894
11
4.5526878
21
77.4049898
0
LINE
8
DEFAULT_255_1_388
10
4.5526878
20
77.4049898
11
4.7270757
21
77.4049898
0
LINE
8
DEFAULT_255_1_388
10
4.7270757
20
77.4049898
11
5.3911956
21
76.3866727
0
LINE
8
DEFAULT_255_1_388
10
5.3911956
20
76.3866727
11
5.3911956
21
77.4049898
0
LINE
8
DEFAULT_255_1_388
10
5.3911956
20
77.4049898
11
5.5637764
21
77.4049898
0
LINE
8
DEFAULT_255_1_388
10
6.6534751
20
76.867369
11
6.6534751
21
76.6505135
0
LINE
8
DEFAULT_255_1_388
10
5.8230994
20
76.6279244
11
5.8230994
21
76.8511048
0
LINE
8
DEFAULT_255_1_388
10
6.4863157
20
76.6053353
11
6.4863157
21
76.8791153
0
LINE
8
DEFAULT_255_1_388
10
5.9902588
20
76.8917652
11
5.9902588
21
76.6243102
0
ARC
8
DEFAULT_255_1_388
10
5.2757085
20
76.6450118
40
1.3777776
50
353.8440855
51
0.2287917
0
ARC
8
DEFAULT_255_1_388
10
5.7976103
20
76.5867414
40
0.852639
50
344.4934746
51
353.9763743
0
ARC
8
DEFAULT_255_1_388
10
6.134291
20
76.4910191
40
0.5026273
50
329.2803599
51
344.7473406
0
ARC
8
DEFAULT_255_1_388
10
6.2458406
20
76.4298038
40
0.3754848
50
324.9361395
51
328.6153007
0
ARC
8
DEFAULT_255_1_388
10
6.2884056
20
76.4000586
40
0.3235566
50
280.5801797
51
324.9173226
0
ARC
8
DEFAULT_255_1_388
10
6.2432684
20
76.5880236
40
0.5167077
50
269.5979457
51
281.6732777
0
ARC
8
DEFAULT_255_1_388
10
6.2351588
20
76.5745113
40
0.5032026
50
256.6228565
51
270.5105488
0
ARC
8
DEFAULT_255_1_388
10
6.189933
20
76.4003345
40
0.3233092
50
215.8618351
51
257.2787793
0
ARC
8
DEFAULT_255_1_388
10
6.3048037
20
76.4774106
40
0.4615831
50
197.9695203
51
215.2622745
0
ARC
8
DEFAULT_255_1_388
10
6.5843713
20
76.5717641
40
0.7566307
50
187.8816486
51
198.2346584
0
ARC
8
DEFAULT_255_1_388
10
7.0296951
20
76.6360453
40
1.2065653
50
180.8977266
51
188.0054894
0
ARC
8
DEFAULT_255_1_388
10
7.3347165
20
76.64754
40
1.5117443
50
180.7434591
51
181.152202
0
ARC
8
DEFAULT_255_1_388
10
7.1672161
20
76.8565371
40
1.3441277
50
173.7674302
51
180.2315596
0
ARC
8
DEFAULT_255_1_388
10
6.659003
20
76.9139779
40
0.8326847
50
164.3058537
51
173.9000553
0
ARC
8
DEFAULT_255_1_388
10
6.331403
20
77.0083652
40
0.4917711
50
148.7922028
51
164.5682288
0
ARC
8
DEFAULT_255_1_388
10
6.2244767
20
77.0680457
40
0.3694204
50
144.5883979
51
148.1161588
0
ARC
8
DEFAULT_255_1_388
10
6.1857513
20
77.0950667
40
0.322202
50
101.6440149
51
144.5142619
0
ARC
8
DEFAULT_255_1_388
10
6.2335705
20
76.9050337
40
0.5180451
50
89.528284
51
102.5820197
0
ARC
8
DEFAULT_255_1_388
10
6.2424697
20
76.9006376
40
0.5224441
50
77.0437914
51
90.508231
0
ARC
8
DEFAULT_255_1_388
10
6.287695
20
77.0854272
40
0.3322297
50
48.2777708
51
77.4996087
0
ARC
8
DEFAULT_255_1_388
10
6.295869
20
77.0999557
40
0.315966
50
36.3141586
51
47.6307332
0
ARC
8
DEFAULT_255_1_388
10
6.1981413
20
77.0341159
40
0.4337313
50
18.2931065
51
35.6770203
0
ARC
8
DEFAULT_255_1_388
10
5.9120253
20
76.9359107
40
0.7362203
50
8.0246996
51
18.5605636
0
ARC
8
DEFAULT_255_1_388
10
5.4436609
20
76.8667432
40
1.2096583
50
1.127539
51
8.1718423
0
ARC
8
DEFAULT_255_1_388
10
5.0787742
20
76.8524374
40
1.5747719
50
0.5432713
51
1.38669
0
ARC
8
DEFAULT_255_1_388
10
5.2845121
20
76.8831163
40
1.2018103
50
359.8092569
51
4.9408001
0
ARC
8
DEFAULT_255_1_388
10
5.7581702
20
76.92539
40
0.7262727
50
4.8364937
51
12.2906017
0
ARC
8
DEFAULT_255_1_388
10
6.0681167
20
76.9944485
40
0.4087324
50
12.0806994
51
23.8171225
0
ARC
8
DEFAULT_255_1_388
10
6.2001563
20
77.0503508
40
0.2653719
50
24.2874621
51
31.3934353
0
ARC
8
DEFAULT_255_1_388
10
6.2591999
20
77.0889822
40
0.1948607
50
30.7407708
51
82.4658033
0
ARC
8
DEFAULT_255_1_388
10
6.238966
20
76.9896017
40
0.2961198
50
81.1057101
51
90.2187368
0
ARC
8
DEFAULT_255_1_388
10
6.2349472
20
77.0186421
40
0.2670929
50
89.380395
51
105.6763916
0
ARC
8
DEFAULT_255_1_388
10
6.2143194
20
77.093632
40
0.1893189
50
105.7980655
51
149.7387869
0
ARC
8
DEFAULT_255_1_388
10
6.3340334
20
77.0216719
40
0.3289892
50
149.4208441
51
163.628295
0
ARC
8
DEFAULT_255_1_388
10
6.5692563
20
76.9499345
40
0.5749004
50
163.3764549
51
172.141138
0
ARC
8
DEFAULT_255_1_388
10
6.9405285
20
76.8967582
40
0.9499585
50
172.0258462
51
178.0705453
0
ARC
8
DEFAULT_255_1_388
10
7.2826838
20
76.8805682
40
1.2924734
50
177.8639301
51
179.5036263
0
ARC
8
DEFAULT_255_1_388
10
7.1607856
20
76.6202151
40
1.170534
50
179.7995545
51
185.246089
0
ARC
8
DEFAULT_255_1_388
10
6.7059449
20
76.5771404
40
0.7136613
50
185.1411911
51
193.0082205
0
ARC
8
DEFAULT_255_1_388
10
6.408571
20
76.5068441
40
0.4080987
50
192.7897338
51
205.2507384
0
ARC
8
DEFAULT_255_1_388
10
6.290792
20
76.4542538
40
0.2791522
50
205.8001921
51
211.2545876
0
ARC
8
DEFAULT_255_1_388
10
6.2319459
20
76.4148132
40
0.2084074
50
210.3789935
51
238.4007996
0
ARC
8
DEFAULT_255_1_388
10
6.2297545
20
76.4200786
40
0.2117943
50
239.6521916
51
265.9793852
0
ARC
8
DEFAULT_255_1_388
10
6.2393394
20
76.4957358
40
0.2879689
50
265.1324455
51
270.0603288
0
ARC
8
DEFAULT_255_1_388
10
6.2425771
20
76.4592418
40
0.2514919
50
269.3314378
51
287.2180039
0
ARC
8
DEFAULT_255_1_388
10
6.2580853
20
76.4026291
40
0.1928357
50
287.7957942
51
329.0808983
0
ARC
8
DEFAULT_255_1_388
10
6.150361
20
76.4698651
40
0.319808
50
328.6635261
51
343.3325043
0
ARC
8
DEFAULT_255_1_388
10
5.9059069
20
76.5460195
40
0.5758408
50
343.0498092
51
351.9392499
0
ARC
8
DEFAULT_255_1_388
10
5.5158391
20
76.6035205
40
0.9701202
50
351.8071632
51
357.7957897
0
ARC
8
DEFAULT_255_1_388
10
5.1523868
20
76.6223724
40
1.3340376
50
357.5870923
51
359.2682493
0
LINE
8
DEFAULT_255_1_388
10
7.4666832
20
77.4049898
11
6.9182195
21
75.9764544
0
LINE
8
DEFAULT_255_1_388
10
6.9182195
20
75.9764544
11
6.7745528
21
75.9764544
0
LINE
8
DEFAULT_255_1_388
10
6.7745528
20
75.9764544
11
7.32392
21
77.4049898
0
LINE
8
DEFAULT_255_1_388
10
7.32392
20
77.4049898
11
7.4666832
21
77.4049898
0
LINE
8
DEFAULT_255_1_388
10
8.5256607
20
76.0894
11
8.4000652
21
76.4327545
0
LINE
8
DEFAULT_255_1_388
10
8.4000652
20
76.4327545
11
7.8488909
21
76.4327545
0
LINE
8
DEFAULT_255_1_388
10
7.8488909
20
76.4327545
11
7.7251026
21
76.0894
0
LINE
8
DEFAULT_255_1_388
10
7.7251026
20
76.0894
11
7.5461968
21
76.0894
0
LINE
8
DEFAULT_255_1_388
10
7.5461968
20
76.0894
11
8.0485787
21
77.4049898
0
LINE
8
DEFAULT_255_1_388
10
8.0485787
20
77.4049898
11
8.2003775
21
77.4049898
0
LINE
8
DEFAULT_255_1_388
10
8.2003775
20
77.4049898
11
8.7036629
21
76.0894
0
LINE
8
DEFAULT_255_1_388
10
8.7036629
20
76.0894
11
8.5256607
21
76.0894
0
LINE
8
DEFAULT_255_1_388
10
8.1244781
20
77.1908451
11
7.9012977
21
76.5755177
0
LINE
8
DEFAULT_255_1_388
10
7.9012977
20
76.5755177
11
8.3485621
21
76.5755177
0
LINE
8
DEFAULT_255_1_388
10
8.3485621
20
76.5755177
11
8.1244781
21
77.1908451
0
LINE
8
DEFAULT_255_1_388
10
23.1203856
20
84.804869
11
23.1203856
21
84.5880135
0
LINE
8
DEFAULT_255_1_388
10
22.2900099
20
84.5654244
11
22.2900099
21
84.7886048
0
LINE
8
DEFAULT_255_1_388
10
22.9532262
20
84.5428353
11
22.9532262
21
84.8166153
0
LINE
8
DEFAULT_255_1_388
10
22.4571693
20
84.8292652
11
22.4571693
21
84.5618102
0
ARC
8
DEFAULT_255_1_388
10
21.742619
20
84.5825118
40
1.3777776
50
353.8440855
51
0.2287917
0
ARC
8
DEFAULT_255_1_388
10
22.2645208
20
84.5242414
40
0.852639
50
344.4934746
51
353.9763743
0
ARC
8
DEFAULT_255_1_388
10
22.6012015
20
84.4285191
40
0.5026273
50
329.2803599
51
344.7473406
0
ARC
8
DEFAULT_255_1_388
10
22.7127511
20
84.3673038
40
0.3754848
50
324.9361395
51
328.6153007
0
ARC
8
DEFAULT_255_1_388
10
22.7553161
20
84.3375586
40
0.3235566
50
280.5801797
51
324.9173226
0
ARC
8
DEFAULT_255_1_388
10
22.7101789
20
84.5255236
40
0.5167077
50
269.5979457
51
281.6732777
0
ARC
8
DEFAULT_255_1_388
10
22.7020693
20
84.5120113
40
0.5032026
50
256.6228565
51
270.5105488
0
ARC
8
DEFAULT_255_1_388
10
22.6568435
20
84.3378345
40
0.3233092
50
215.8618351
51
257.2787793
0
ARC
8
DEFAULT_255_1_388
10
22.7717142
20
84.4149106
40
0.4615831
50
197.9695203
51
215.2622745
0
ARC
8
DEFAULT_255_1_388
10
23.0512818
20
84.5092641
40
0.7566307
50
187.8816486
51
198.2346584
0
ARC
8
DEFAULT_255_1_388
10
23.4966056
20
84.5735453
40
1.2065653
50
180.8977266
51
188.0054894
0
ARC
8
DEFAULT_255_1_388
10
23.801627
20
84.58504
40
1.5117443
50
180.7434591
51
181.152202
0
ARC
8
DEFAULT_255_1_388
10
23.6341266
20
84.7940371
40
1.3441277
50
173.7674302
51
180.2315596
0
ARC
8
DEFAULT_255_1_388
10
23.1259135
20
84.8514779
40
0.8326847
50
164.3058537
51
173.9000553
0
ARC
8
DEFAULT_255_1_388
10
22.7983135
20
84.9458652
40
0.4917711
50
148.7922028
51
164.5682288
0
ARC
8
DEFAULT_255_1_388
10
22.6913872
20
85.0055457
40
0.3694204
50
144.5883979
51
148.1161588
0
ARC
8
DEFAULT_255_1_388
10
22.6526618
20
85.0325667
40
0.322202
50
101.6440149
51
144.5142619
0
ARC
8
DEFAULT_255_1_388
10
22.700481
20
84.8425337
40
0.5180451
50
89.528284
51
102.5820197
0
ARC
8
DEFAULT_255_1_388
10
22.7093802
20
84.8381376
40
0.5224441
50
77.0437914
51
90.508231
0
ARC
8
DEFAULT_255_1_388
10
22.7546055
20
85.0229272
40
0.3322297
50
48.2777708
51
77.4996087
0
ARC
8
DEFAULT_255_1_388
10
22.7627795
20
85.0374557
40
0.315966
50
36.3141586
51
47.6307332
0
ARC
8
DEFAULT_255_1_388
10
22.6650518
20
84.9716159
40
0.4337313
50
18.2931065
51
35.6770203
0
ARC
8
DEFAULT_255_1_388
10
22.3789358
20
84.8734107
40
0.7362203
50
8.0246996
51
18.5605636
0
ARC
8
DEFAULT_255_1_388
10
21.9105714
20
84.8042432
40
1.2096583
50
1.127539
51
8.1718423
0
ARC
8
DEFAULT_255_1_388
10
21.5456847
20
84.7899374
40
1.5747719
50
0.5432713
51
1.38669
0
ARC
8
DEFAULT_255_1_388
10
21.7514226
20
84.8206163
40
1.2018103
50
359.8092569
51
4.9408001
0
ARC
8
DEFAULT_255_1_388
10
22.2250807
20
84.86289
40
0.7262727
50
4.8364937
51
12.2906017
0
ARC
8
DEFAULT_255_1_388
10
22.5350272
20
84.9319485
40
0.4087324
50
12.0806994
51
23.8171225
0
ARC
8
DEFAULT_255_1_388
10
22.6670668
20
84.9878508
40
0.2653719
50
24.2874621
51
31.3934353
0
ARC
8
DEFAULT_255_1_388
10
22.7261104
20
85.0264822
40
0.1948607
50
30.7407708
51
82.4658033
0
ARC
8
DEFAULT_255_1_388
10
22.7058765
20
84.9271017
40
0.2961198
50
81.1057101
51
90.2187368
0
ARC
8
DEFAULT_255_1_388
10
22.7018577
20
84.9561421
40
0.2670929
50
89.380395
51
105.6763916
0
ARC
8
DEFAULT_255_1_388
10
22.6812299
20
85.031132
40
0.1893189
50
105.7980655
51
149.7387869
0
ARC
8
DEFAULT_255_1_388
10
22.8009439
20
84.9591719
40
0.3289892
50
149.4208441
51
163.628295
0
ARC
8
DEFAULT_255_1_388
10
23.0361668
20
84.8874345
40
0.5749004
50
163.3764549
51
172.141138
0
ARC
8
DEFAULT_255_1_388
10
23.407439
20
84.8342582
40
0.9499585
50
172.0258462
51
178.0705453
0
ARC
8
DEFAULT_255_1_388
10
23.7495943
20
84.8180682
40
1.2924734
50
177.8639301
51
179.5036263
0
ARC
8
DEFAULT_255_1_388
10
23.6276961
20
84.5577151
40
1.170534
50
179.7995545
51
185.246089
0
ARC
8
DEFAULT_255_1_388
10
23.1728554
20
84.5146404
40
0.7136613
50
185.1411911
51
193.0082205
0
ARC
8
DEFAULT_255_1_388
10
22.8754815
20
84.4443441
40
0.4080987
50
192.7897338
51
205.2507384
0
ARC
8
DEFAULT_255_1_388
10
22.7577025
20
84.3917538
40
0.2791522
50
205.8001921
51
211.2545876
0
ARC
8
DEFAULT_255_1_388
10
22.6988564
20
84.3523132
40
0.2084074
50
210.3789935
51
238.4007996
0
ARC
8
DEFAULT_255_1_388
10
22.696665
20
84.3575786
40
0.2117943
50
239.6521916
51
265.9793852
0
ARC
8
DEFAULT_255_1_388
10
22.7062499
20
84.4332358
40
0.2879689
50
265.1324455
51
270.0603288
0
ARC
8
DEFAULT_255_1_388
10
22.7094876
20
84.3967418
40
0.2514919
50
269.3314378
51
287.2180039
0
ARC
8
DEFAULT_255_1_388
10
22.7249958
20
84.3401291
40
0.1928357
50
287.7957942
51
329.0808983
0
ARC
8
DEFAULT_255_1_388
10
22.6172715
20
84.4073651
40
0.319808
50
328.6635261
51
343.3325043
0
ARC
8
DEFAULT_255_1_388
10
22.3728174
20
84.4835195
40
0.5758408
50
343.0498092
51
351.9392499
0
ARC
8
DEFAULT_255_1_388
10
21.9827496
20
84.5410205
40
0.9701202
50
351.8071632
51
357.7957897
0
ARC
8
DEFAULT_255_1_388
10
21.6192973
20
84.5598724
40
1.3340376
50
357.5870923
51
359.2682493
0
LINE
8
DEFAULT_255_1_388
10
23.4393439
20
85.3424898
11
23.8134196
21
84.2573089
0
LINE
8
DEFAULT_255_1_388
10
23.8134196
20
84.2573089
11
24.1893024
21
85.3424898
0
LINE
8
DEFAULT_255_1_388
10
24.1893024
20
85.3424898
11
24.3790509
21
85.3424898
0
LINE
8
DEFAULT_255_1_388
10
24.3790509
20
85.3424898
11
23.8911261
21
84.0269
0
LINE
8
DEFAULT_255_1_388
10
23.8911261
20
84.0269
11
23.7375202
21
84.0269
0
LINE
8
DEFAULT_255_1_388
10
23.7375202
20
84.0269
11
23.2504989
21
85.3424898
0
LINE
8
DEFAULT_255_1_388
10
23.2504989
20
85.3424898
11
23.4393439
21
85.3424898
0
LINE
8
DEFAULT_255_1_388
10
20.8549322
20
4.6519
11
20.5694058
21
5.1840995
0
LINE
8
DEFAULT_255_1_388
10
20.5694058
20
5.1840995
11
20.2603868
21
5.1840995
0
LINE
8
DEFAULT_255_1_388
10
20.2603868
20
5.1840995
11
20.2603868
21
4.6519
0
LINE
8
DEFAULT_255_1_388
10
20.2603868
20
4.6519
11
20.0859988
21
4.6519
0
LINE
8
DEFAULT_255_1_388
10
20.0859988
20
4.6519
11
20.0859988
21
5.9674898
0
LINE
8
DEFAULT_255_1_388
10
20.0859988
20
5.9674898
11
20.5215169
21
5.9674898
0
LINE
8
DEFAULT_255_1_388
10
20.7320474
20
5.2211456
11
21.0410665
21
4.6627428
0
LINE
8
DEFAULT_255_1_388
10
21.0410665
20
4.6627428
11
21.0410665
21
4.6519
0
LINE
8
DEFAULT_255_1_388
10
21.0410665
20
4.6519
11
20.8549322
21
4.6519
0
LINE
8
DEFAULT_255_1_388
10
20.2603868
20
5.8247267
11
20.2603868
21
5.3259591
0
LINE
8
DEFAULT_255_1_388
10
20.2603868
20
5.3259591
11
20.5269383
21
5.3259591
0
LINE
8
DEFAULT_255_1_388
10
20.5260347
20
5.8247267
11
20.2603868
21
5.8247267
0
ARC
8
DEFAULT_255_1_388
10
20.5262015
20
5.1843346
40
0.7831693
50
80.6535681
51
90.3427203
0
ARC
8
DEFAULT_255_1_388
10
20.5733925
20
5.4613722
40
0.5021479
50
65.6987674
51
80.8330164
0
ARC
8
DEFAULT_255_1_388
10
20.6271219
20
5.5845479
40
0.3677787
50
50.0019152
51
65.4304412
0
ARC
8
DEFAULT_255_1_388
10
20.6517035
20
5.6177603
40
0.3265454
50
11.6284215
51
49.5603681
0
ARC
8
DEFAULT_255_1_388
10
20.4789521
20
5.5755524
40
0.5043009
50
359.5655533
51
12.3693319
0
ARC
8
DEFAULT_255_1_388
10
20.6000858
20
5.5685038
40
0.3831661
50
341.998418
51
0.4822212
0
ARC
8
DEFAULT_255_1_388
10
20.6445044
20
5.5564479
40
0.3372036
50
323.8610842
51
341.6141514
0
ARC
8
DEFAULT_255_1_388
10
20.610559
20
5.5826615
40
0.3800784
50
296.7019299
51
323.6876213
0
ARC
8
DEFAULT_255_1_388
10
20.5609548
20
5.6713532
40
0.4816219
50
290.808313
51
297.2325929
0
ARC
8
DEFAULT_255_1_388
10
20.5298342
20
5.7302377
40
0.404289
50
269.5895908
51
281.8058892
0
ARC
8
DEFAULT_255_1_388
10
20.5580608
20
5.601136
40
0.2721459
50
281.5499321
51
303.9358954
0
ARC
8
DEFAULT_255_1_388
10
20.5735143
20
5.5743588
40
0.2413121
50
304.4410786
51
311.211123
0
ARC
8
DEFAULT_255_1_388
10
20.5883548
20
5.5587152
40
0.2197678
50
310.9874923
51
356.2715203
0
ARC
8
DEFAULT_255_1_388
10
20.5033294
20
5.5713992
40
0.3055212
50
354.9346315
51
0.0617816
0
ARC
8
DEFAULT_255_1_388
10
20.4822135
20
5.5744427
40
0.3266482
50
359.5239293
51
12.8808621
0
ARC
8
DEFAULT_255_1_388
10
20.5921898
20
5.6013638
40
0.2134449
50
12.417206
51
43.1023141
0
ARC
8
DEFAULT_255_1_388
10
20.5991228
20
5.6055253
40
0.2055463
50
43.575886
51
48.2047245
0
ARC
8
DEFAULT_255_1_388
10
20.5800489
20
5.5806151
40
0.2368418
50
48.7809155
51
72.6968768
0
ARC
8
DEFAULT_255_1_388
10
20.5401853
20
5.4596385
40
0.364206
50
72.3699892
51
84.8793749
0
ARC
8
DEFAULT_255_1_388
10
20.5235859
20
5.3086651
40
0.5160674
50
84.5398226
51
89.7281165
0
LINE
8
DEFAULT_255_1_388
10
22.0629979
20
5.9674898
11
22.0629979
21
5.8247267
0
LINE
8
DEFAULT_255_1_388
10
22.0629979
20
5.8247267
11
21.6401297
21
5.8247267
0
LINE
8
DEFAULT_255_1_388
10
21.6401297
20
5.8247267
11
21.6401297
21
4.6519
0
LINE
8
DEFAULT_255_1_388
10
21.6401297
20
4.6519
11
21.4675489
21
4.6519
0
LINE
8
DEFAULT_255_1_388
10
21.4675489
20
4.6519
11
21.4675489
21
5.8247267
0
LINE
8
DEFAULT_255_1_388
10
21.4675489
20
5.8247267
11
21.0455843
21
5.8247267
0
LINE
8
DEFAULT_255_1_388
10
21.0455843
20
5.8247267
11
21.0455843
21
5.9674898
0
LINE
8
DEFAULT_255_1_388
10
21.0455843
20
5.9674898
11
22.0629979
21
5.9674898
0
LINE
8
DEFAULT_255_1_388
10
23.2692564
20
5.9674898
11
23.2692564
21
4.6519
0
LINE
8
DEFAULT_255_1_388
10
23.2692564
20
4.6519
11
23.0948685
21
4.6519
0
LINE
8
DEFAULT_255_1_388
10
23.0948685
20
4.6519
11
22.4325557
21
5.6656993
0
LINE
8
DEFAULT_255_1_388
10
22.4325557
20
5.6656993
11
22.4325557
21
4.6519
0
LINE
8
DEFAULT_255_1_388
10
22.4325557
20
4.6519
11
22.2581678
21
4.6519
0
LINE
8
DEFAULT_255_1_388
10
22.2581678
20
4.6519
11
22.2581678
21
5.9674898
0
LINE
8
DEFAULT_255_1_388
10
22.2581678
20
5.9674898
11
22.4325557
21
5.9674898
0
LINE
8
DEFAULT_255_1_388
10
22.4325557
20
5.9674898
11
23.0966756
21
4.9491727
0
LINE
8
DEFAULT_255_1_388
10
23.0966756
20
4.9491727
11
23.0966756
21
5.9674898
0
LINE
8
DEFAULT_255_1_388
10
23.0966756
20
5.9674898
11
23.2692564
21
5.9674898
0
LINE
8
DEFAULT_255_1_388
10
23.7445313
20
5.2771666
11
23.6108038
21
5.3115021
0
LINE
8
DEFAULT_255_1_388
10
23.6108038
20
5.3115021
11
23.6776675
21
5.9674898
0
LINE
8
DEFAULT_255_1_388
10
23.6776675
20
5.9674898
11
24.3517266
21
5.9674898
0
LINE
8
DEFAULT_255_1_388
10
24.3517266
20
5.9674898
11
24.3517266
21
5.8129803
0
LINE
8
DEFAULT_255_1_388
10
24.3517266
20
5.8129803
11
23.8195271
21
5.8129803
0
LINE
8
DEFAULT_255_1_388
10
23.8195271
20
5.8129803
11
23.7797703
21
5.4542652
0
LINE
8
DEFAULT_255_1_388
10
23.5638184
20
4.9979652
11
23.7219422
21
4.9979652
0
LINE
8
DEFAULT_255_1_388
10
23.788806
20
5.3133092
11
23.7445313
21
5.2771666
0
ARC
8
DEFAULT_255_1_388
10
23.9884317
20
5.0965241
40
0.4141476
50
93.7181681
51
120.253934
0
ARC
8
DEFAULT_255_1_388
10
23.9990369
20
5.0056284
40
0.5055616
50
89.9660471
51
94.2495185
0
ARC
8
DEFAULT_255_1_388
10
24.0036191
20
5.0719154
40
0.4392953
50
73.8045384
51
90.5585736
0
ARC
8
DEFAULT_255_1_388
10
24.0300448
20
5.168452
40
0.3392225
50
41.3071072
51
73.543002
0
ARC
8
DEFAULT_255_1_388
10
23.9832268
20
5.1281461
40
0.4009977
50
13.5075837
51
41.2174839
0
ARC
8
DEFAULT_255_1_388
10
23.7985366
20
5.0797907
40
0.5918864
50
1.1330171
51
13.8830737
0
ARC
8
DEFAULT_255_1_388
10
23.6389012
20
5.0712522
40
0.7516787
50
359.9925091
51
1.5431298
0
ARC
8
DEFAULT_255_1_388
10
23.7833626
20
5.0666027
40
0.6072343
50
347.8572712
51
0.4294349
0
ARC
8
DEFAULT_255_1_388
10
23.9802761
20
5.0219898
40
0.4053482
50
323.6727442
51
348.1674594
0
ARC
8
DEFAULT_255_1_388
10
24.0133726
20
5.0018175
40
0.3667495
50
316.8171818
51
323.1486802
0
ARC
8
DEFAULT_255_1_388
10
24.0202849
20
4.9976612
40
0.358869
50
281.839603
51
316.5458142
0
ARC
8
DEFAULT_255_1_388
10
23.9780137
20
5.1726363
40
0.5388223
50
269.5770964
51
282.4214641
0
ARC
8
DEFAULT_255_1_388
10
23.9700058
20
5.148593
40
0.5147801
50
256.2425863
51
270.4486481
0
ARC
8
DEFAULT_255_1_388
10
23.9363585
20
5.0136124
40
0.3756708
50
228.9024379
51
256.33135
0
ARC
8
DEFAULT_255_1_388
10
23.9280566
20
5.0005054
40
0.360344
50
193.7536029
51
228.5272638
0
ARC
8
DEFAULT_255_1_388
10
24.0673131
20
5.0413463
40
0.5053599
50
184.9244437
51
194.4976052
0
ARC
8
DEFAULT_255_1_388
10
24.0889772
20
5.0453722
40
0.3700839
50
187.3596909
51
198.6733728
0
ARC
8
DEFAULT_255_1_388
10
23.9709015
20
5.0044373
40
0.2451195
50
198.4453795
51
217.7945479
0
ARC
8
DEFAULT_255_1_388
10
23.9376188
20
4.9808563
40
0.2043754
50
218.2887146
51
228.5613203
0
ARC
8
DEFAULT_255_1_388
10
23.9486195
20
4.9956902
40
0.2227819
50
228.9652423
51
258.1237049
0
ARC
8
DEFAULT_255_1_388
10
23.9717632
20
5.0947964
40
0.3245374
50
257.7260585
51
270.4013717
0
ARC
8
DEFAULT_255_1_388
10
23.976813
20
5.0447255
40
0.2744726
50
269.4204315
51
286.420998
0
ARC
8
DEFAULT_255_1_388
10
23.9935186
20
4.9840705
40
0.2115721
50
286.7250065
51
320.6004665
0
ARC
8
DEFAULT_255_1_388
10
23.9504101
20
5.0190527
40
0.2670878
50
320.6712228
51
344.5440474
0
ARC
8
DEFAULT_255_1_388
10
23.8202815
20
5.0572394
40
0.4026927
50
344.241448
51
356.735803
0
ARC
8
DEFAULT_255_1_388
10
23.6799122
20
5.0688656
40
0.5435085
50
356.3547471
51
0.0507222
0
ARC
8
DEFAULT_255_1_388
10
23.8301388
20
5.0723812
40
0.3932934
50
359.5579289
51
12.9534322
0
ARC
8
DEFAULT_255_1_388
10
23.9488227
20
5.1011586
40
0.2711827
50
12.6489751
51
41.608121
0
ARC
8
DEFAULT_255_1_388
10
23.9747387
20
5.1231946
40
0.2371737
50
41.7851122
51
85.9892156
0
ARC
8
DEFAULT_255_1_388
10
23.9608698
20
5.0316738
40
0.3295244
50
84.6965848
51
90.0672125
0
ARC
8
DEFAULT_255_1_388
10
23.9582265
20
4.9565118
40
0.4046926
50
89.6804991
51
99.161352
0
ARC
8
DEFAULT_255_1_388
10
23.9351274
20
5.0945848
40
0.2647044
50
98.9836248
51
113.8905702
0
ARC
8
DEFAULT_255_1_388
10
23.9092949
20
5.1555118
40
0.1985386
50
114.195234
51
127.3641866
0
LINE
8
DEFAULT_255_1_388
10
19.9518367
20
13.9049898
11
19.9518367
21
12.5894
0
LINE
8
DEFAULT_255_1_388
10
19.9518367
20
12.5894
11
19.7783523
21
12.5894
0
LINE
8
DEFAULT_255_1_388
10
19.7783523
20
12.5894
11
19.7783523
21
13.9049898
0
LINE
8
DEFAULT_255_1_388
10
19.7783523
20
13.9049898
11
19.9518367
21
13.9049898
0
LINE
8
DEFAULT_255_1_388
10
21.2800764
20
13.9049898
11
21.2800764
21
12.5894
0
LINE
8
DEFAULT_255_1_388
10
21.2800764
20
12.5894
11
21.1056885
21
12.5894
0
LINE
8
DEFAULT_255_1_388
10
21.1056885
20
12.5894
11
20.4433757
21
13.6031993
0
LINE
8
DEFAULT_255_1_388
10
20.4433757
20
13.6031993
11
20.4433757
21
12.5894
0
LINE
8
DEFAULT_255_1_388
10
20.4433757
20
12.5894
11
20.2689878
21
12.5894
0
LINE
8
DEFAULT_255_1_388
10
20.2689878
20
12.5894
11
20.2689878
21
13.9049898
0
LINE
8
DEFAULT_255_1_388
10
20.2689878
20
13.9049898
11
20.4433757
21
13.9049898
0
LINE
8
DEFAULT_255_1_388
10
20.4433757
20
13.9049898
11
21.1074956
21
12.8866727
0
LINE
8
DEFAULT_255_1_388
10
21.1074956
20
12.8866727
11
21.1074956
21
13.9049898
0
LINE
8
DEFAULT_255_1_388
10
21.1074956
20
13.9049898
11
21.2800764
21
13.9049898
0
LINE
8
DEFAULT_255_1_388
10
21.7553513
20
13.2146666
11
21.6216238
21
13.2490021
0
LINE
8
DEFAULT_255_1_388
10
21.6216238
20
13.2490021
11
21.6884875
21
13.9049898
0
LINE
8
DEFAULT_255_1_388
10
21.6884875
20
13.9049898
11
22.3625466
21
13.9049898
0
LINE
8
DEFAULT_255_1_388
10
22.3625466
20
13.9049898
11
22.3625466
21
13.7504803
0
LINE
8
DEFAULT_255_1_388
10
22.3625466
20
13.7504803
11
21.8303472
21
13.7504803
0
LINE
8
DEFAULT_255_1_388
10
21.8303472
20
13.7504803
11
21.7905903
21
13.3917652
0
LINE
8
DEFAULT_255_1_388
10
21.5746384
20
12.9354652
11
21.7327622
21
12.9354652
0
LINE
8
DEFAULT_255_1_388
10
21.799626
20
13.2508092
11
21.7553513
21
13.2146666
0
ARC
8
DEFAULT_255_1_388
10
21.9992517
20
13.0340241
40
0.4141476
50
93.7181681
51
120.253934
0
ARC
8
DEFAULT_255_1_388
10
22.0098569
20
12.9431284
40
0.5055616
50
89.9660471
51
94.2495185
0
ARC
8
DEFAULT_255_1_388
10
22.0144391
20
13.0094154
40
0.4392953
50
73.8045384
51
90.5585736
0
ARC
8
DEFAULT_255_1_388
10
22.0408649
20
13.105952
40
0.3392225
50
41.3071072
51
73.543002
0
ARC
8
DEFAULT_255_1_388
10
21.9940469
20
13.0656461
40
0.4009977
50
13.5075837
51
41.2174839
0
ARC
8
DEFAULT_255_1_388
10
21.8093566
20
13.0172907
40
0.5918864
50
1.1330171
51
13.8830737
0
ARC
8
DEFAULT_255_1_388
10
21.6497212
20
13.0087522
40
0.7516787
50
359.9925091
51
1.5431298
0
ARC
8
DEFAULT_255_1_388
10
21.7941827
20
13.0041027
40
0.6072343
50
347.8572712
51
0.4294349
0
ARC
8
DEFAULT_255_1_388
10
21.9910961
20
12.9594898
40
0.4053482
50
323.6727442
51
348.1674594
0
ARC
8
DEFAULT_255_1_388
10
22.0241926
20
12.9393175
40
0.3667495
50
316.8171818
51
323.1486802
0
ARC
8
DEFAULT_255_1_388
10
22.031105
20
12.9351612
40
0.358869
50
281.839603
51
316.5458142
0
ARC
8
DEFAULT_255_1_388
10
21.9888337
20
13.1101363
40
0.5388223
50
269.5770964
51
282.4214641
0
ARC
8
DEFAULT_255_1_388
10
21.9808258
20
13.086093
40
0.5147801
50
256.2425863
51
270.4486481
0
ARC
8
DEFAULT_255_1_388
10
21.9471786
20
12.9511124
40
0.3756708
50
228.9024379
51
256.33135
0
ARC
8
DEFAULT_255_1_388
10
21.9388766
20
12.9380054
40
0.360344
50
193.7536029
51
228.5272638
0
ARC
8
DEFAULT_255_1_388
10
22.0781331
20
12.9788463
40
0.5053599
50
184.9244437
51
194.4976052
0
ARC
8
DEFAULT_255_1_388
10
22.0997972
20
12.9828722
40
0.3700839
50
187.3596909
51
198.6733728
0
ARC
8
DEFAULT_255_1_388
10
21.9817216
20
12.9419373
40
0.2451195
50
198.4453795
51
217.7945479
0
ARC
8
DEFAULT_255_1_388
10
21.9484388
20
12.9183563
40
0.2043754
50
218.2887146
51
228.5613203
0
ARC
8
DEFAULT_255_1_388
10
21.9594395
20
12.9331902
40
0.2227819
50
228.9652423
51
258.1237049
0
ARC
8
DEFAULT_255_1_388
10
21.9825832
20
13.0322964
40
0.3245374
50
257.7260585
51
270.4013717
0
ARC
8
DEFAULT_255_1_388
10
21.987633
20
12.9822255
40
0.2744726
50
269.4204315
51
286.420998
0
ARC
8
DEFAULT_255_1_388
10
22.0043386
20
12.9215705
40
0.2115721
50
286.7250065
51
320.6004665
0
ARC
8
DEFAULT_255_1_388
10
21.9612302
20
12.9565527
40
0.2670878
50
320.6712228
51
344.5440474
0
ARC
8
DEFAULT_255_1_388
10
21.8311015
20
12.9947394
40
0.4026927
50
344.241448
51
356.735803
0
ARC
8
DEFAULT_255_1_388
10
21.6907323
20
13.0063656
40
0.5435085
50
356.3547471
51
0.0507222
0
ARC
8
DEFAULT_255_1_388
10
21.8409588
20
13.0098812
40
0.3932934
50
359.5579289
51
12.9534322
0
ARC
8
DEFAULT_255_1_388
10
21.9596428
20
13.0386586
40
0.2711827
50
12.6489751
51
41.608121
0
ARC
8
DEFAULT_255_1_388
10
21.9855588
20
13.0606946
40
0.2371737
50
41.7851122
51
85.9892156
0
ARC
8
DEFAULT_255_1_388
10
21.9716898
20
12.9691738
40
0.3295244
50
84.6965848
51
90.0672125
0
ARC
8
DEFAULT_255_1_388
10
21.9690465
20
12.8940118
40
0.4046926
50
89.6804991
51
99.161352
0
ARC
8
DEFAULT_255_1_388
10
21.9459474
20
13.0320848
40
0.2647044
50
98.9836248
51
113.8905702
0
ARC
8
DEFAULT_255_1_388
10
21.9201149
20
13.0930118
40
0.1985386
50
114.195234
51
127.3641866
0
LINE
8
DEFAULT_255_1_388
10
23.1829832
20
13.9049898
11
22.6345195
21
12.4764544
0
LINE
8
DEFAULT_255_1_388
10
22.6345195
20
12.4764544
11
22.4908528
21
12.4764544
0
LINE
8
DEFAULT_255_1_388
10
22.4908528
20
12.4764544
11
23.04022
21
13.9049898
0
LINE
8
DEFAULT_255_1_388
10
23.04022
20
13.9049898
11
23.1829832
21
13.9049898
0
LINE
8
DEFAULT_255_1_388
10
23.8461995
20
12.5894
11
23.3898994
21
12.5894
0
LINE
8
DEFAULT_255_1_388
10
23.3898994
20
12.5894
11
23.3898994
21
13.9049898
0
LINE
8
DEFAULT_255_1_388
10
23.3898994
20
13.9049898
11
23.8199961
21
13.9049898
0
LINE
8
DEFAULT_255_1_388
10
23.8525244
20
13.2047274
11
23.5633838
21
13.2047274
0
LINE
8
DEFAULT_255_1_388
10
23.5633838
20
13.2047274
11
23.5633838
21
12.7312596
0
LINE
8
DEFAULT_255_1_388
10
23.5633838
20
12.7312596
11
23.8498137
21
12.7312596
0
LINE
8
DEFAULT_255_1_388
10
23.5633838
20
13.7622267
11
23.5633838
21
13.3438763
0
LINE
8
DEFAULT_255_1_388
10
23.5633838
20
13.3438763
11
23.8254175
21
13.3438763
0
LINE
8
DEFAULT_255_1_388
10
23.8199961
20
13.7622267
11
23.5633838
21
13.7622267
0
ARC
8
DEFAULT_255_1_388
10
23.8242381
20
13.0761824
40
0.8288183
50
82.1256322
51
90.2932506
0
ARC
8
DEFAULT_255_1_388
10
23.8679956
20
13.381959
40
0.5199321
50
69.9044202
51
82.2857574
0
ARC
8
DEFAULT_255_1_388
10
23.9321949
20
13.5554993
40
0.3348993
50
51.1840204
51
70.018125
0
ARC
8
DEFAULT_255_1_388
10
23.9608781
20
13.5971945
40
0.2844579
50
12.1018086
51
50.421322
0
ARC
8
DEFAULT_255_1_388
10
23.8051653
20
13.5580937
40
0.4449429
50
359.5252354
51
12.8212369
0
ARC
8
DEFAULT_255_1_388
10
23.9829083
20
13.5502943
40
0.2672162
50
323.4907456
51
0.8818258
0
ARC
8
DEFAULT_255_1_388
10
23.9358495
20
13.5866523
40
0.3266736
50
298.6824053
51
323.2758285
0
ARC
8
DEFAULT_255_1_388
10
23.8951787
20
13.6542509
40
0.4055105
50
293.1994739
51
299.139634
0
ARC
8
DEFAULT_255_1_388
10
23.9708736
20
12.9696651
40
0.3229926
50
54.0009997
51
74.9168635
0
ARC
8
DEFAULT_255_1_388
10
23.9839663
20
12.9918511
40
0.2973581
50
36.3578854
51
53.5293172
0
ARC
8
DEFAULT_255_1_388
10
23.9697031
20
12.981685
40
0.3148715
50
4.8189348
51
36.3090187
0
ARC
8
DEFAULT_255_1_388
10
23.8820055
20
12.9693383
40
0.4033265
50
359.9373213
51
5.5201284
0
ARC
8
DEFAULT_255_1_388
10
23.8455385
20
12.9647733
40
0.4398126
50
344.7479357
51
0.5372278
0
ARC
8
DEFAULT_255_1_388
10
23.9570284
20
12.9347205
40
0.3243441
50
311.1785587
51
344.6887681
0
ARC
8
DEFAULT_255_1_388
10
23.9241827
20
12.9756084
40
0.3767511
50
286.0417804
51
310.8440924
0
ARC
8
DEFAULT_255_1_388
10
23.8671237
20
13.1608885
40
0.5705957
50
274.1044074
51
286.4070149
0
ARC
8
DEFAULT_255_1_388
10
23.8472452
20
13.3726901
40
0.7832907
50
269.9235077
51
274.4458593
0
ARC
8
DEFAULT_255_1_388
10
23.852417
20
13.1095462
40
0.3782955
50
269.6057074
51
281.3740795
0
ARC
8
DEFAULT_255_1_388
10
23.8783669
20
12.9865569
40
0.2526069
50
281.105298
51
302.5134029
0
ARC
8
DEFAULT_255_1_388
10
23.8949056
20
12.9568944
40
0.2187131
50
303.0365425
51
311.8818034
0
ARC
8
DEFAULT_255_1_388
10
23.9029233
20
12.9473602
40
0.2062624
50
311.9916937
51
351.7143773
0
ARC
8
DEFAULT_255_1_388
10
23.8110258
20
12.9659271
40
0.2999202
50
350.7343295
51
0.2221526
0
ARC
8
DEFAULT_255_1_388
10
23.7989346
20
12.972287
40
0.3120525
50
359.045729
51
17.2295312
0
ARC
8
DEFAULT_255_1_388
10
23.9158377
20
13.0070155
40
0.1901144
50
17.6685208
51
78.9940245
0
ARC
8
DEFAULT_255_1_388
10
23.8576737
20
12.7982011
40
0.4065575
50
76.565218
51
90.7103392
0
LINE
8
DEFAULT_255_1_388
10
23.8526335
20
13.2047274
11
23.8525244
21
13.2047274
0
ARC
8
DEFAULT_255_1_388
10
23.8279563
20
13.7134949
40
0.3696273
50
269.6064514
51
281.4533785
0
ARC
8
DEFAULT_255_1_388
10
23.8530204
20
13.5952283
40
0.2487412
50
281.2044438
51
302.5143998
0
ARC
8
DEFAULT_255_1_388
10
23.8684458
20
13.5674576
40
0.2170405
50
303.0211308
51
309.8378766
0
ARC
8
DEFAULT_255_1_388
10
23.8890575
20
13.5443486
40
0.1860946
50
309.5229446
51
356.9509628
0
ARC
8
DEFAULT_255_1_388
10
23.8144701
20
13.5550831
40
0.2612347
50
355.4699226
51
0.0498632
0
ARC
8
DEFAULT_255_1_388
10
23.7830375
20
13.5575789
40
0.2926762
50
359.5558955
51
11.2092924
0
ARC
8
DEFAULT_255_1_388
10
23.8907342
20
13.5798667
40
0.1827036
50
10.9185717
51
31.322519
0
ARC
8
DEFAULT_255_1_388
10
23.922889
20
13.5977571
40
0.1459418
50
31.8850633
51
52.1415586
0
ARC
8
DEFAULT_255_1_388
10
23.892032
20
13.5541674
40
0.1993088
50
52.8283418
51
71.9850132
0
ARC
8
DEFAULT_255_1_388
10
23.849748
20
13.4297158
40
0.3307407
50
71.686634
51
82.8453416
0
ARC
8
DEFAULT_255_1_388
10
23.8228127
20
13.2261892
40
0.536039
50
82.6981895
51
90.1730083
0
ARC
8
DEFAULT_255_1_388
10
23.8202959
20
13.3140836
40
0.4481429
50
89.8851568
51
90.0383283
0
LINE
8
DEFAULT_255_1_388
10
19.9249367
20
21.8424898
11
19.9249367
21
20.5269
0
LINE
8
DEFAULT_255_1_388
10
19.9249367
20
20.5269
11
19.7514523
21
20.5269
0
LINE
8
DEFAULT_255_1_388
10
19.7514523
20
20.5269
11
19.7514523
21
21.8424898
0
LINE
8
DEFAULT_255_1_388
10
19.7514523
20
21.8424898
11
19.9249367
21
21.8424898
0
LINE
8
DEFAULT_255_1_388
10
21.2531764
20
21.8424898
11
21.2531764
21
20.5269
0
LINE
8
DEFAULT_255_1_388
10
21.2531764
20
20.5269
11
21.0787885
21
20.5269
0
LINE
8
DEFAULT_255_1_388
10
21.0787885
20
20.5269
11
20.4164757
21
21.5406993
0
LINE
8
DEFAULT_255_1_388
10
20.4164757
20
21.5406993
11
20.4164757
21
20.5269
0
LINE
8
DEFAULT_255_1_388
10
20.4164757
20
20.5269
11
20.2420878
21
20.5269
0
LINE
8
DEFAULT_255_1_388
10
20.2420878
20
20.5269
11
20.2420878
21
21.8424898
0
LINE
8
DEFAULT_255_1_388
10
20.2420878
20
21.8424898
11
20.4164757
21
21.8424898
0
LINE
8
DEFAULT_255_1_388
10
20.4164757
20
21.8424898
11
21.0805956
21
20.8241727
0
LINE
8
DEFAULT_255_1_388
10
21.0805956
20
20.8241727
11
21.0805956
21
21.8424898
0
LINE
8
DEFAULT_255_1_388
10
21.0805956
20
21.8424898
11
21.2531764
21
21.8424898
0
LINE
8
DEFAULT_255_1_388
10
21.7284513
20
21.1521666
11
21.5947238
21
21.1865021
0
LINE
8
DEFAULT_255_1_388
10
21.5947238
20
21.1865021
11
21.6615875
21
21.8424898
0
LINE
8
DEFAULT_255_1_388
10
21.6615875
20
21.8424898
11
22.3356466
21
21.8424898
0
LINE
8
DEFAULT_255_1_388
10
22.3356466
20
21.8424898
11
22.3356466
21
21.6879803
0
LINE
8
DEFAULT_255_1_388
10
22.3356466
20
21.6879803
11
21.8034472
21
21.6879803
0
LINE
8
DEFAULT_255_1_388
10
21.8034472
20
21.6879803
11
21.7636903
21
21.3292652
0
LINE
8
DEFAULT_255_1_388
10
21.5477384
20
20.8729652
11
21.7058622
21
20.8729652
0
LINE
8
DEFAULT_255_1_388
10
21.772726
20
21.1883092
11
21.7284513
21
21.1521666
0
ARC
8
DEFAULT_255_1_388
10
21.9723517
20
20.9715241
40
0.4141476
50
93.7181681
51
120.253934
0
ARC
8
DEFAULT_255_1_388
10
21.9829569
20
20.8806284
40
0.5055616
50
89.9660471
51
94.2495185
0
ARC
8
DEFAULT_255_1_388
10
21.9875391
20
20.9469154
40
0.4392953
50
73.8045384
51
90.5585736
0
ARC
8
DEFAULT_255_1_388
10
22.0139649
20
21.043452
40
0.3392225
50
41.3071072
51
73.543002
0
ARC
8
DEFAULT_255_1_388
10
21.9671469
20
21.0031461
40
0.4009977
50
13.5075837
51
41.2174839
0
ARC
8
DEFAULT_255_1_388
10
21.7824566
20
20.9547907
40
0.5918864
50
1.1330171
51
13.8830737
0
ARC
8
DEFAULT_255_1_388
10
21.6228212
20
20.9462522
40
0.7516787
50
359.9925091
51
1.5431298
0
ARC
8
DEFAULT_255_1_388
10
21.7672827
20
20.9416027
40
0.6072343
50
347.8572712
51
0.4294349
0
ARC
8
DEFAULT_255_1_388
10
21.9641961
20
20.8969898
40
0.4053482
50
323.6727442
51
348.1674594
0
ARC
8
DEFAULT_255_1_388
10
21.9972926
20
20.8768175
40
0.3667495
50
316.8171818
51
323.1486802
0
ARC
8
DEFAULT_255_1_388
10
22.004205
20
20.8726612
40
0.358869
50
281.839603
51
316.5458142
0
ARC
8
DEFAULT_255_1_388
10
21.9619337
20
21.0476363
40
0.5388223
50
269.5770964
51
282.4214641
0
ARC
8
DEFAULT_255_1_388
10
21.9539258
20
21.023593
40
0.5147801
50
256.2425863
51
270.4486481
0
ARC
8
DEFAULT_255_1_388
10
21.9202786
20
20.8886124
40
0.3756708
50
228.9024379
51
256.33135
0
ARC
8
DEFAULT_255_1_388
10
21.9119766
20
20.8755054
40
0.360344
50
193.7536029
51
228.5272638
0
ARC
8
DEFAULT_255_1_388
10
22.0512331
20
20.9163463
40
0.5053599
50
184.9244437
51
194.4976052
0
ARC
8
DEFAULT_255_1_388
10
22.0728972
20
20.9203722
40
0.3700839
50
187.3596909
51
198.6733728
0
ARC
8
DEFAULT_255_1_388
10
21.9548216
20
20.8794373
40
0.2451195
50
198.4453795
51
217.7945479
0
ARC
8
DEFAULT_255_1_388
10
21.9215388
20
20.8558563
40
0.2043754
50
218.2887146
51
228.5613203
0
ARC
8
DEFAULT_255_1_388
10
21.9325395
20
20.8706902
40
0.2227819
50
228.9652423
51
258.1237049
0
ARC
8
DEFAULT_255_1_388
10
21.9556832
20
20.9697964
40
0.3245374
50
257.7260585
51
270.4013717
0
ARC
8
DEFAULT_255_1_388
10
21.960733
20
20.9197255
40
0.2744726
50
269.4204315
51
286.420998
0
ARC
8
DEFAULT_255_1_388
10
21.9774386
20
20.8590705
40
0.2115721
50
286.7250065
51
320.6004665
0
ARC
8
DEFAULT_255_1_388
10
21.9343302
20
20.8940527
40
0.2670878
50
320.6712228
51
344.5440474
0
ARC
8
DEFAULT_255_1_388
10
21.8042015
20
20.9322394
40
0.4026927
50
344.241448
51
356.735803
0
ARC
8
DEFAULT_255_1_388
10
21.6638323
20
20.9438656
40
0.5435085
50
356.3547471
51
0.0507222
0
ARC
8
DEFAULT_255_1_388
10
21.8140588
20
20.9473812
40
0.3932934
50
359.5579289
51
12.9534322
0
ARC
8
DEFAULT_255_1_388
10
21.9327428
20
20.9761586
40
0.2711827
50
12.6489751
51
41.608121
0
ARC
8
DEFAULT_255_1_388
10
21.9586588
20
20.9981946
40
0.2371737
50
41.7851122
51
85.9892156
0
ARC
8
DEFAULT_255_1_388
10
21.9447898
20
20.9066738
40
0.3295244
50
84.6965848
51
90.0672125
0
ARC
8
DEFAULT_255_1_388
10
21.9421465
20
20.8315118
40
0.4046926
50
89.6804991
51
99.161352
0
ARC
8
DEFAULT_255_1_388
10
21.9190474
20
20.9695848
40
0.2647044
50
98.9836248
51
113.8905702
0
ARC
8
DEFAULT_255_1_388
10
21.8932149
20
21.0305118
40
0.1985386
50
114.195234
51
127.3641866
0
LINE
8
DEFAULT_255_1_388
10
23.1560832
20
21.8424898
11
22.6076195
21
20.4139544
0
LINE
8
DEFAULT_255_1_388
10
22.6076195
20
20.4139544
11
22.4639528
21
20.4139544
0
LINE
8
DEFAULT_255_1_388
10
22.4639528
20
20.4139544
11
23.01332
21
21.8424898
0
LINE
8
DEFAULT_255_1_388
10
23.01332
20
21.8424898
11
23.1560832
21
21.8424898
0
LINE
8
DEFAULT_255_1_388
10
24.2150607
20
20.5269
11
24.0894652
21
20.8702545
0
LINE
8
DEFAULT_255_1_388
10
24.0894652
20
20.8702545
11
23.5382909
21
20.8702545
0
LINE
8
DEFAULT_255_1_388
10
23.5382909
20
20.8702545
11
23.4145026
21
20.5269
0
LINE
8
DEFAULT_255_1_388
10
23.4145026
20
20.5269
11
23.2355968
21
20.5269
0
LINE
8
DEFAULT_255_1_388
10
23.2355968
20
20.5269
11
23.7379787
21
21.8424898
0
LINE
8
DEFAULT_255_1_388
10
23.7379787
20
21.8424898
11
23.8897775
21
21.8424898
0
LINE
8
DEFAULT_255_1_388
10
23.8897775
20
21.8424898
11
24.3930629
21
20.5269
0
LINE
8
DEFAULT_255_1_388
10
24.3930629
20
20.5269
11
24.2150607
21
20.5269
0
LINE
8
DEFAULT_255_1_388
10
23.8138781
20
21.6283451
11
23.5906977
21
21.0130177
0
LINE
8
DEFAULT_255_1_388
10
23.5906977
20
21.0130177
11
24.0379621
21
21.0130177
0
LINE
8
DEFAULT_255_1_388
10
24.0379621
20
21.0130177
11
23.8138781
21
21.6283451
0
LINE
8
DEFAULT_255_1_388
10
20.8549322
20
28.4644
11
20.5694058
21
28.9965995
0
LINE
8
DEFAULT_255_1_388
10
20.5694058
20
28.9965995
11
20.2603868
21
28.9965995
0
LINE
8
DEFAULT_255_1_388
10
20.2603868
20
28.9965995
11
20.2603868
21
28.4644
0
LINE
8
DEFAULT_255_1_388
10
20.2603868
20
28.4644
11
20.0859988
21
28.4644
0
LINE
8
DEFAULT_255_1_388
10
20.0859988
20
28.4644
11
20.0859988
21
29.7799898
0
LINE
8
DEFAULT_255_1_388
10
20.0859988
20
29.7799898
11
20.5215169
21
29.7799898
0
LINE
8
DEFAULT_255_1_388
10
20.7320474
20
29.0336456
11
21.0410665
21
28.4752428
0
LINE
8
DEFAULT_255_1_388
10
21.0410665
20
28.4752428
11
21.0410665
21
28.4644
0
LINE
8
DEFAULT_255_1_388
10
21.0410665
20
28.4644
11
20.8549322
21
28.4644
0
LINE
8
DEFAULT_255_1_388
10
20.2603868
20
29.6372267
11
20.2603868
21
29.1384591
0
LINE
8
DEFAULT_255_1_388
10
20.2603868
20
29.1384591
11
20.5269383
21
29.1384591
0
LINE
8
DEFAULT_255_1_388
10
20.5260347
20
29.6372267
11
20.2603868
21
29.6372267
0
ARC
8
DEFAULT_255_1_388
10
20.5262015
20
28.9968346
40
0.7831693
50
80.6535681
51
90.3427203
0
ARC
8
DEFAULT_255_1_388
10
20.5733925
20
29.2738722
40
0.5021479
50
65.6987674
51
80.8330164
0
ARC
8
DEFAULT_255_1_388
10
20.6271219
20
29.3970479
40
0.3677787
50
50.0019152
51
65.4304412
0
ARC
8
DEFAULT_255_1_388
10
20.6517035
20
29.4302603
40
0.3265454
50
11.6284215
51
49.5603681
0
ARC
8
DEFAULT_255_1_388
10
20.4789521
20
29.3880524
40
0.5043009
50
359.5655533
51
12.3693319
0
ARC
8
DEFAULT_255_1_388
10
20.6000858
20
29.3810038
40
0.3831661
50
341.998418
51
0.4822212
0
ARC
8
DEFAULT_255_1_388
10
20.6445044
20
29.3689479
40
0.3372036
50
323.8610842
51
341.6141514
0
ARC
8
DEFAULT_255_1_388
10
20.610559
20
29.3951615
40
0.3800784
50
296.7019299
51
323.6876213
0
ARC
8
DEFAULT_255_1_388
10
20.5609548
20
29.4838532
40
0.4816219
50
290.808313
51
297.2325929
0
ARC
8
DEFAULT_255_1_388
10
20.5298342
20
29.5427377
40
0.404289
50
269.5895908
51
281.8058892
0
ARC
8
DEFAULT_255_1_388
10
20.5580608
20
29.413636
40
0.2721459
50
281.5499321
51
303.9358954
0
ARC
8
DEFAULT_255_1_388
10
20.5735143
20
29.3868588
40
0.2413121
50
304.4410786
51
311.211123
0
ARC
8
DEFAULT_255_1_388
10
20.5883548
20
29.3712152
40
0.2197678
50
310.9874923
51
356.2715203
0
ARC
8
DEFAULT_255_1_388
10
20.5033294
20
29.3838992
40
0.3055212
50
354.9346315
51
0.0617816
0
ARC
8
DEFAULT_255_1_388
10
20.4822135
20
29.3869427
40
0.3266482
50
359.5239293
51
12.8808621
0
ARC
8
DEFAULT_255_1_388
10
20.5921898
20
29.4138638
40
0.2134449
50
12.417206
51
43.1023141
0
ARC
8
DEFAULT_255_1_388
10
20.5991228
20
29.4180253
40
0.2055463
50
43.575886
51
48.2047245
0
ARC
8
DEFAULT_255_1_388
10
20.5800489
20
29.3931151
40
0.2368418
50
48.7809155
51
72.6968768
0
ARC
8
DEFAULT_255_1_388
10
20.5401853
20
29.2721385
40
0.364206
50
72.3699892
51
84.8793749
0
ARC
8
DEFAULT_255_1_388
10
20.5235859
20
29.1211651
40
0.5160674
50
84.5398226
51
89.7281165
0
LINE
8
DEFAULT_255_1_388
10
22.0629979
20
29.7799898
11
22.0629979
21
29.6372267
0
LINE
8
DEFAULT_255_1_388
10
22.0629979
20
29.6372267
11
21.6401297
21
29.6372267
0
LINE
8
DEFAULT_255_1_388
10
21.6401297
20
29.6372267
11
21.6401297
21
28.4644
0
LINE
8
DEFAULT_255_1_388
10
21.6401297
20
28.4644
11
21.4675489
21
28.4644
0
LINE
8
DEFAULT_255_1_388
10
21.4675489
20
28.4644
11
21.4675489
21
29.6372267
0
LINE
8
DEFAULT_255_1_388
10
21.4675489
20
29.6372267
11
21.0455843
21
29.6372267
0
LINE
8
DEFAULT_255_1_388
10
21.0455843
20
29.6372267
11
21.0455843
21
29.7799898
0
LINE
8
DEFAULT_255_1_388
10
21.0455843
20
29.7799898
11
22.0629979
21
29.7799898
0
LINE
8
DEFAULT_255_1_388
10
23.2692564
20
29.7799898
11
23.2692564
21
28.4644
0
LINE
8
DEFAULT_255_1_388
10
23.2692564
20
28.4644
11
23.0948685
21
28.4644
0
LINE
8
DEFAULT_255_1_388
10
23.0948685
20
28.4644
11
22.4325557
21
29.4781993
0
LINE
8
DEFAULT_255_1_388
10
22.4325557
20
29.4781993
11
22.4325557
21
28.4644
0
LINE
8
DEFAULT_255_1_388
10
22.4325557
20
28.4644
11
22.2581678
21
28.4644
0
LINE
8
DEFAULT_255_1_388
10
22.2581678
20
28.4644
11
22.2581678
21
29.7799898
0
LINE
8
DEFAULT_255_1_388
10
22.2581678
20
29.7799898
11
22.4325557
21
29.7799898
0
LINE
8
DEFAULT_255_1_388
10
22.4325557
20
29.7799898
11
23.0966756
21
28.7616727
0
LINE
8
DEFAULT_255_1_388
10
23.0966756
20
28.7616727
11
23.0966756
21
29.7799898
0
LINE
8
DEFAULT_255_1_388
10
23.0966756
20
29.7799898
11
23.2692564
21
29.7799898
0
LINE
8
DEFAULT_255_1_388
10
23.7770596
20
29.0670775
11
23.7770596
21
29.2035157
0
LINE
8
DEFAULT_255_1_388
10
23.7770596
20
29.2035157
11
23.9026551
21
29.2035157
0
LINE
8
DEFAULT_255_1_388
10
23.6885103
20
29.4348282
11
23.5213509
21
29.4348282
0
LINE
8
DEFAULT_255_1_388
10
23.5096045
20
28.8113687
11
23.6776675
21
28.8113687
0
LINE
8
DEFAULT_255_1_388
10
23.9026551
20
29.0670775
11
23.7770596
21
29.0670775
0
ARC
8
DEFAULT_255_1_388
10
23.8993777
20
29.5851922
40
0.3816905
50
270.491971
51
281.8953028
0
ARC
8
DEFAULT_255_1_388
10
23.9265204
20
29.4612199
40
0.2547877
50
281.6690378
51
301.2943765
0
ARC
8
DEFAULT_255_1_388
10
23.9456655
20
29.4261926
40
0.2149197
50
301.7834992
51
311.754567
0
ARC
8
DEFAULT_255_1_388
10
23.9559697
20
29.414765
40
0.1995326
50
311.7325027
51
354.2803031
0
ARC
8
DEFAULT_255_1_388
10
23.8742113
20
29.428828
40
0.2823461
50
353.0941646
51
0.1174696
0
ARC
8
DEFAULT_255_1_388
10
23.8223671
20
29.4341874
40
0.3342238
50
359.1804452
51
15.0452323
0
ARC
8
DEFAULT_255_1_388
10
23.9737729
20
29.4783546
40
0.1765747
50
13.957816
51
77.6713812
0
ARC
8
DEFAULT_255_1_388
10
23.9302965
20
29.3225464
40
0.3381982
50
76.111571
51
90.7028736
0
ARC
8
DEFAULT_255_1_388
10
23.9236377
20
29.353325
40
0.3074046
50
89.5321574
51
103.5319393
0
ARC
8
DEFAULT_255_1_388
10
23.9010761
20
29.4432443
40
0.2147041
50
103.2930114
51
133.5619756
0
ARC
8
DEFAULT_255_1_388
10
23.8960702
20
29.4499351
40
0.2064084
50
133.8349761
51
173.5343225
0
ARC
8
DEFAULT_255_1_388
10
23.977436
20
29.4355144
40
0.2889266
50
172.5097183
51
180.1360699
0
ARC
8
DEFAULT_255_1_388
10
23.8704124
20
29.439388
40
0.3490913
50
155.3483706
51
180.7484035
0
ARC
8
DEFAULT_255_1_388
10
23.8649099
20
29.4361519
40
0.3454798
50
131.5745177
51
154.4799474
0
ARC
8
DEFAULT_255_1_388
10
23.9001382
20
29.4005422
40
0.3955058
50
96.9874487
51
131.9690874
0
ARC
8
DEFAULT_255_1_388
10
23.9248274
20
29.2604407
40
0.537622
50
89.8592909
51
97.7827481
0
ARC
8
DEFAULT_255_1_388
10
23.9302383
20
29.230936
40
0.5671399
50
78.3654493
51
90.4132586
0
ARC
8
DEFAULT_255_1_388
10
23.9705025
20
29.4175918
40
0.3762034
50
56.6229818
51
78.6387103
0
ARC
8
DEFAULT_255_1_388
10
23.9946854
20
29.4598846
40
0.3275964
50
47.0254604
51
56.085558
0
ARC
8
DEFAULT_255_1_388
10
23.9969105
20
29.4643189
40
0.3228382
50
10.9207523
51
46.777927
0
ARC
8
DEFAULT_255_1_388
10
23.8434699
20
29.4288401
40
0.4802559
50
359.6364235
51
11.6087615
0
ARC
8
DEFAULT_255_1_388
10
24.0498864
20
29.4271404
40
0.273833
50
332.3549969
51
359.7179765
0
ARC
8
DEFAULT_255_1_388
10
23.9767265
20
29.4618285
40
0.3547505
50
325.2332381
51
332.8746682
0
ARC
8
DEFAULT_255_1_388
10
23.9938848
20
29.4498763
40
0.3338396
50
292.9803892
51
325.2391113
0
ARC
8
DEFAULT_255_1_388
10
23.9628044
20
29.5103679
40
0.4016959
50
292.542178
51
293.6931461
0
ARC
8
DEFAULT_255_1_388
10
24.0071616
20
28.7838036
40
0.372079
50
57.643292
51
72.8626085
0
ARC
8
DEFAULT_255_1_388
10
24.047045
20
28.8484273
40
0.2961455
50
36.7246661
51
57.4701329
0
ARC
8
DEFAULT_255_1_388
10
24.0457607
20
28.849847
40
0.2963321
50
8.054535
51
36.3561529
0
ARC
8
DEFAULT_255_1_388
10
23.948728
20
28.8324073
40
0.3948682
50
359.8316595
51
8.5873361
0
ARC
8
DEFAULT_255_1_388
10
23.9064754
20
28.826997
40
0.4371398
50
343.9831631
51
0.557075
0
ARC
8
DEFAULT_255_1_388
10
24.0061803
20
28.7996963
40
0.3337749
50
311.6358204
51
343.7652116
0
ARC
8
DEFAULT_255_1_388
10
23.9636057
20
28.8476955
40
0.3979351
50
279.7829743
51
311.625622
0
ARC
8
DEFAULT_255_1_388
10
23.9297192
20
29.0093642
40
0.5630417
50
269.7285092
51
280.3857694
0
ARC
8
DEFAULT_255_1_388
10
23.9227505
20
29.0047241
40
0.5584119
50
256.6827433
51
270.4412869
0
ARC
8
DEFAULT_255_1_388
10
23.8846492
20
28.8489698
40
0.3980715
50
229.4223821
51
256.8554507
0
ARC
8
DEFAULT_255_1_388
10
23.8380045
20
28.7964683
40
0.3278564
50
181.8183354
51
229.6455015
0
ARC
8
DEFAULT_255_1_388
10
23.9549655
20
28.8111825
40
0.4453611
50
179.9760419
51
183.2330638
0
ARC
8
DEFAULT_255_1_388
10
23.9356207
20
28.8088781
40
0.2579652
50
179.4467996
51
196.2871626
0
ARC
8
DEFAULT_255_1_388
10
23.8807661
20
28.7938709
40
0.2011057
50
196.5661293
51
227.7059371
0
ARC
8
DEFAULT_255_1_388
10
23.8992268
20
28.8145155
40
0.2287994
50
227.7653015
51
257.8763321
0
ARC
8
DEFAULT_255_1_388
10
23.9245351
20
28.9205961
40
0.3378385
50
257.4583525
51
270.4267406
0
ARC
8
DEFAULT_255_1_388
10
23.9296601
20
28.953223
40
0.3704652
50
269.5965319
51
280.8788143
0
ARC
8
DEFAULT_255_1_388
10
23.9554829
20
28.8242529
40
0.2389415
50
280.6347277
51
299.8594068
0
ARC
8
DEFAULT_255_1_388
10
23.9769598
20
28.7834736
40
0.19289
50
300.3575552
51
314.5515667
0
ARC
8
DEFAULT_255_1_388
10
23.9676274
20
28.7903025
40
0.204312
50
315.0730962
51
345.0429362
0
ARC
8
DEFAULT_255_1_388
10
23.8637781
20
28.8205539
40
0.31246
50
344.598526
51
357.9270698
0
ARC
8
DEFAULT_255_1_388
10
23.7628086
20
28.8274705
40
0.4136265
50
357.4755098
51
0.0224936
0
ARC
8
DEFAULT_255_1_388
10
23.8780964
20
28.8302099
40
0.2983498
50
359.5051035
51
13.4236939
0
ARC
8
DEFAULT_255_1_388
10
23.9756054
20
28.8551637
40
0.1977186
50
12.9497905
51
48.7550905
0
ARC
8
DEFAULT_255_1_388
10
23.9550976
20
28.8271373
40
0.2323321
50
49.509109
51
72.1832965
0
ARC
8
DEFAULT_255_1_388
10
23.9148444
20
28.7076632
40
0.358397
50
71.9008458
51
84.3555134
0
ARC
8
DEFAULT_255_1_388
10
23.8966839
20
28.5544712
40
0.512641
50
84.019632
51
89.3326067
0
LINE
8
DEFAULT_255_1_388
10
19.9518367
20
37.7174898
11
19.9518367
21
36.4019
0
LINE
8
DEFAULT_255_1_388
10
19.9518367
20
36.4019
11
19.7783523
21
36.4019
0
LINE
8
DEFAULT_255_1_388
10
19.7783523
20
36.4019
11
19.7783523
21
37.7174898
0
LINE
8
DEFAULT_255_1_388
10
19.7783523
20
37.7174898
11
19.9518367
21
37.7174898
0
LINE
8
DEFAULT_255_1_388
10
21.2800764
20
37.7174898
11
21.2800764
21
36.4019
0
LINE
8
DEFAULT_255_1_388
10
21.2800764
20
36.4019
11
21.1056885
21
36.4019
0
LINE
8
DEFAULT_255_1_388
10
21.1056885
20
36.4019
11
20.4433757
21
37.4156993
0
LINE
8
DEFAULT_255_1_388
10
20.4433757
20
37.4156993
11
20.4433757
21
36.4019
0
LINE
8
DEFAULT_255_1_388
10
20.4433757
20
36.4019
11
20.2689878
21
36.4019
0
LINE
8
DEFAULT_255_1_388
10
20.2689878
20
36.4019
11
20.2689878
21
37.7174898
0
LINE
8
DEFAULT_255_1_388
10
20.2689878
20
37.7174898
11
20.4433757
21
37.7174898
0
LINE
8
DEFAULT_255_1_388
10
20.4433757
20
37.7174898
11
21.1074956
21
36.6991727
0
LINE
8
DEFAULT_255_1_388
10
21.1074956
20
36.6991727
11
21.1074956
21
37.7174898
0
LINE
8
DEFAULT_255_1_388
10
21.1074956
20
37.7174898
11
21.2800764
21
37.7174898
0
LINE
8
DEFAULT_255_1_388
10
21.7878796
20
37.0045775
11
21.7878796
21
37.1410157
0
LINE
8
DEFAULT_255_1_388
10
21.7878796
20
37.1410157
11
21.9134751
21
37.1410157
0
LINE
8
DEFAULT_255_1_388
10
21.6993303
20
37.3723282
11
21.5321709
21
37.3723282
0
LINE
8
DEFAULT_255_1_388
10
21.5204246
20
36.7488688
11
21.6884875
21
36.7488688
0
LINE
8
DEFAULT_255_1_388
10
21.9134751
20
37.0045775
11
21.7878796
21
37.0045775
0
ARC
8
DEFAULT_255_1_388
10
21.9101977
20
37.5226922
40
0.3816905
50
270.491971
51
281.8953028
0
ARC
8
DEFAULT_255_1_388
10
21.9373404
20
37.3987199
40
0.2547877
50
281.6690378
51
301.2943765
0
ARC
8
DEFAULT_255_1_388
10
21.9564856
20
37.3636926
40
0.2149197
50
301.7834992
51
311.754567
0
ARC
8
DEFAULT_255_1_388
10
21.9667897
20
37.352265
40
0.1995326
50
311.7325027
51
354.2803031
0
ARC
8
DEFAULT_255_1_388
10
21.8850313
20
37.366328
40
0.2823461
50
353.0941646
51
0.1174696
0
ARC
8
DEFAULT_255_1_388
10
21.8331871
20
37.3716874
40
0.3342238
50
359.1804452
51
15.0452323
0
ARC
8
DEFAULT_255_1_388
10
21.9845929
20
37.4158546
40
0.1765747
50
13.957816
51
77.6713812
0
ARC
8
DEFAULT_255_1_388
10
21.9411165
20
37.2600464
40
0.3381982
50
76.111571
51
90.7028736
0
ARC
8
DEFAULT_255_1_388
10
21.9344577
20
37.290825
40
0.3074046
50
89.5321574
51
103.5319393
0
ARC
8
DEFAULT_255_1_388
10
21.9118961
20
37.3807443
40
0.2147041
50
103.2930114
51
133.5619756
0
ARC
8
DEFAULT_255_1_388
10
21.9068902
20
37.3874351
40
0.2064084
50
133.8349761
51
173.5343225
0
ARC
8
DEFAULT_255_1_388
10
21.988256
20
37.3730144
40
0.2889266
50
172.5097183
51
180.1360699
0
ARC
8
DEFAULT_255_1_388
10
21.8812324
20
37.376888
40
0.3490913
50
155.3483706
51
180.7484035
0
ARC
8
DEFAULT_255_1_388
10
21.8757299
20
37.3736519
40
0.3454798
50
131.5745177
51
154.4799474
0
ARC
8
DEFAULT_255_1_388
10
21.9109582
20
37.3380422
40
0.3955058
50
96.9874487
51
131.9690874
0
ARC
8
DEFAULT_255_1_388
10
21.9356475
20
37.1979407
40
0.537622
50
89.8592909
51
97.7827481
0
ARC
8
DEFAULT_255_1_388
10
21.9410584
20
37.168436
40
0.5671399
50
78.3654493
51
90.4132586
0
ARC
8
DEFAULT_255_1_388
10
21.9813225
20
37.3550918
40
0.3762034
50
56.6229818
51
78.6387103
0
ARC
8
DEFAULT_255_1_388
10
22.0055054
20
37.3973846
40
0.3275964
50
47.0254604
51
56.085558
0
ARC
8
DEFAULT_255_1_388
10
22.0077305
20
37.4018189
40
0.3228382
50
10.9207523
51
46.777927
0
ARC
8
DEFAULT_255_1_388
10
21.8542899
20
37.3663401
40
0.4802559
50
359.6364235
51
11.6087615
0
ARC
8
DEFAULT_255_1_388
10
22.0607065
20
37.3646404
40
0.273833
50
332.3549969
51
359.7179765
0
ARC
8
DEFAULT_255_1_388
10
21.9875465
20
37.3993285
40
0.3547505
50
325.2332381
51
332.8746682
0
ARC
8
DEFAULT_255_1_388
10
22.0047048
20
37.3873763
40
0.3338396
50
292.9803892
51
325.2391113
0
ARC
8
DEFAULT_255_1_388
10
21.9736244
20
37.4478679
40
0.4016959
50
292.542178
51
293.6931461
0
ARC
8
DEFAULT_255_1_388
10
22.0179816
20
36.7213036
40
0.372079
50
57.643292
51
72.8626085
0
ARC
8
DEFAULT_255_1_388
10
22.057865
20
36.7859273
40
0.2961455
50
36.7246661
51
57.4701329
0
ARC
8
DEFAULT_255_1_388
10
22.0565807
20
36.787347
40
0.2963321
50
8.054535
51
36.3561529
0
ARC
8
DEFAULT_255_1_388
10
21.959548
20
36.7699073
40
0.3948682
50
359.8316595
51
8.5873361
0
ARC
8
DEFAULT_255_1_388
10
21.9172954
20
36.764497
40
0.4371398
50
343.9831631
51
0.557075
0
ARC
8
DEFAULT_255_1_388
10
22.0170004
20
36.7371963
40
0.3337749
50
311.6358204
51
343.7652116
0
ARC
8
DEFAULT_255_1_388
10
21.9744257
20
36.7851955
40
0.3979351
50
279.7829743
51
311.625622
0
ARC
8
DEFAULT_255_1_388
10
21.9405392
20
36.9468642
40
0.5630417
50
269.7285092
51
280.3857694
0
ARC
8
DEFAULT_255_1_388
10
21.9335705
20
36.9422241
40
0.5584119
50
256.6827433
51
270.4412869
0
ARC
8
DEFAULT_255_1_388
10
21.8954692
20
36.7864698
40
0.3980715
50
229.4223821
51
256.8554507
0
ARC
8
DEFAULT_255_1_388
10
21.8488245
20
36.7339683
40
0.3278564
50
181.8183354
51
229.6455015
0
ARC
8
DEFAULT_255_1_388
10
21.9657855
20
36.7486825
40
0.4453611
50
179.9760419
51
183.2330638
0
ARC
8
DEFAULT_255_1_388
10
21.9464407
20
36.7463781
40
0.2579652
50
179.4467996
51
196.2871626
0
ARC
8
DEFAULT_255_1_388
10
21.8915861
20
36.7313709
40
0.2011057
50
196.5661293
51
227.7059371
0
ARC
8
DEFAULT_255_1_388
10
21.9100468
20
36.7520155
40
0.2287994
50
227.7653015
51
257.8763321
0
ARC
8
DEFAULT_255_1_388
10
21.9353551
20
36.8580961
40
0.3378385
50
257.4583525
51
270.4267406
0
ARC
8
DEFAULT_255_1_388
10
21.9404801
20
36.890723
40
0.3704652
50
269.5965319
51
280.8788143
0
ARC
8
DEFAULT_255_1_388
10
21.9663029
20
36.7617529
40
0.2389415
50
280.6347277
51
299.8594068
0
ARC
8
DEFAULT_255_1_388
10
21.9877798
20
36.7209736
40
0.19289
50
300.3575552
51
314.5515667
0
ARC
8
DEFAULT_255_1_388
10
21.9784474
20
36.7278025
40
0.204312
50
315.0730962
51
345.0429362
0
ARC
8
DEFAULT_255_1_388
10
21.8745982
20
36.7580539
40
0.31246
50
344.598526
51
357.9270698
0
ARC
8
DEFAULT_255_1_388
10
21.7736286
20
36.7649705
40
0.4136265
50
357.4755098
51
0.0224936
0
ARC
8
DEFAULT_255_1_388
10
21.8889164
20
36.7677099
40
0.2983498
50
359.5051035
51
13.4236939
0
ARC
8
DEFAULT_255_1_388
10
21.9864254
20
36.7926637
40
0.1977186
50
12.9497905
51
48.7550905
0
ARC
8
DEFAULT_255_1_388
10
21.9659176
20
36.7646373
40
0.2323321
50
49.509109
51
72.1832965
0
ARC
8
DEFAULT_255_1_388
10
21.9256644
20
36.6451632
40
0.358397
50
71.9008458
51
84.3555134
0
ARC
8
DEFAULT_255_1_388
10
21.9075039
20
36.4919712
40
0.512641
50
84.019632
51
89.3326067
0
LINE
8
DEFAULT_255_1_388
10
23.1829832
20
37.7174898
11
22.6345195
21
36.2889544
0
LINE
8
DEFAULT_255_1_388
10
22.6345195
20
36.2889544
11
22.4908528
21
36.2889544
0
LINE
8
DEFAULT_255_1_388
10
22.4908528
20
36.2889544
11
23.04022
21
37.7174898
0
LINE
8
DEFAULT_255_1_388
10
23.04022
20
37.7174898
11
23.1829832
21
37.7174898
0
LINE
8
DEFAULT_255_1_388
10
23.8461995
20
36.4019
11
23.3898994
21
36.4019
0
LINE
8
DEFAULT_255_1_388
10
23.3898994
20
36.4019
11
23.3898994
21
37.7174898
0
LINE
8
DEFAULT_255_1_388
10
23.3898994
20
37.7174898
11
23.8199961
21
37.7174898
0
LINE
8
DEFAULT_255_1_388
10
23.8525244
20
37.0172274
11
23.5633838
21
37.0172274
0
LINE
8
DEFAULT_255_1_388
10
23.5633838
20
37.0172274
11
23.5633838
21
36.5437596
0
LINE
8
DEFAULT_255_1_388
10
23.5633838
20
36.5437596
11
23.8498137
21
36.5437596
0
LINE
8
DEFAULT_255_1_388
10
23.5633838
20
37.5747267
11
23.5633838
21
37.1563763
0
LINE
8
DEFAULT_255_1_388
10
23.5633838
20
37.1563763
11
23.8254175
21
37.1563763
0
LINE
8
DEFAULT_255_1_388
10
23.8199961
20
37.5747267
11
23.5633838
21
37.5747267
0
ARC
8
DEFAULT_255_1_388
10
23.8242381
20
36.8886824
40
0.8288183
50
82.1256322
51
90.2932506
0
ARC
8
DEFAULT_255_1_388
10
23.8679956
20
37.194459
40
0.5199321
50
69.9044202
51
82.2857574
0
ARC
8
DEFAULT_255_1_388
10
23.9321949
20
37.3679993
40
0.3348993
50
51.1840204
51
70.018125
0
ARC
8
DEFAULT_255_1_388
10
23.9608781
20
37.4096945
40
0.2844579
50
12.1018086
51
50.421322
0
ARC
8
DEFAULT_255_1_388
10
23.8051653
20
37.3705937
40
0.4449429
50
359.5252354
51
12.8212369
0
ARC
8
DEFAULT_255_1_388
10
23.9829083
20
37.3627943
40
0.2672162
50
323.4907456
51
0.8818258
0
ARC
8
DEFAULT_255_1_388
10
23.9358495
20
37.3991523
40
0.3266736
50
298.6824053
51
323.2758285
0
ARC
8
DEFAULT_255_1_388
10
23.8951787
20
37.4667509
40
0.4055105
50
293.1994739
51
299.139634
0
ARC
8
DEFAULT_255_1_388
10
23.9708736
20
36.7821651
40
0.3229926
50
54.0009997
51
74.9168635
0
ARC
8
DEFAULT_255_1_388
10
23.9839663
20
36.8043511
40
0.2973581
50
36.3578854
51
53.5293172
0
ARC
8
DEFAULT_255_1_388
10
23.9697031
20
36.794185
40
0.3148715
50
4.8189348
51
36.3090187
0
ARC
8
DEFAULT_255_1_388
10
23.8820055
20
36.7818383
40
0.4033265
50
359.9373213
51
5.5201284
0
ARC
8
DEFAULT_255_1_388
10
23.8455385
20
36.7772733
40
0.4398126
50
344.7479357
51
0.5372278
0
ARC
8
DEFAULT_255_1_388
10
23.9570284
20
36.7472205
40
0.3243441
50
311.1785587
51
344.6887681
0
ARC
8
DEFAULT_255_1_388
10
23.9241827
20
36.7881084
40
0.3767511
50
286.0417804
51
310.8440924
0
ARC
8
DEFAULT_255_1_388
10
23.8671237
20
36.9733885
40
0.5705957
50
274.1044074
51
286.4070149
0
ARC
8
DEFAULT_255_1_388
10
23.8472452
20
37.1851901
40
0.7832907
50
269.9235077
51
274.4458593
0
ARC
8
DEFAULT_255_1_388
10
23.852417
20
36.9220462
40
0.3782955
50
269.6057074
51
281.3740795
0
ARC
8
DEFAULT_255_1_388
10
23.8783669
20
36.7990569
40
0.2526069
50
281.105298
51
302.5134029
0
ARC
8
DEFAULT_255_1_388
10
23.8949056
20
36.7693944
40
0.2187131
50
303.0365425
51
311.8818034
0
ARC
8
DEFAULT_255_1_388
10
23.9029233
20
36.7598602
40
0.2062624
50
311.9916937
51
351.7143773
0
ARC
8
DEFAULT_255_1_388
10
23.8110258
20
36.7784271
40
0.2999202
50
350.7343295
51
0.2221526
0
ARC
8
DEFAULT_255_1_388
10
23.7989346
20
36.784787
40
0.3120525
50
359.045729
51
17.2295312
0
ARC
8
DEFAULT_255_1_388
10
23.9158377
20
36.8195155
40
0.1901144
50
17.6685208
51
78.9940245
0
ARC
8
DEFAULT_255_1_388
10
23.8576737
20
36.6107011
40
0.4065575
50
76.565218
51
90.7103392
0
LINE
8
DEFAULT_255_1_388
10
23.8526335
20
37.0172274
11
23.8525244
21
37.0172274
0
ARC
8
DEFAULT_255_1_388
10
23.8279563
20
37.5259949
40
0.3696273
50
269.6064514
51
281.4533785
0
ARC
8
DEFAULT_255_1_388
10
23.8530204
20
37.4077283
40
0.2487412
50
281.2044438
51
302.5143998
0
ARC
8
DEFAULT_255_1_388
10
23.8684458
20
37.3799576
40
0.2170405
50
303.0211308
51
309.8378766
0
ARC
8
DEFAULT_255_1_388
10
23.8890575
20
37.3568486
40
0.1860946
50
309.5229446
51
356.9509628
0
ARC
8
DEFAULT_255_1_388
10
23.8144701
20
37.3675831
40
0.2612347
50
355.4699226
51
0.0498632
0
ARC
8
DEFAULT_255_1_388
10
23.7830375
20
37.3700789
40
0.2926762
50
359.5558955
51
11.2092924
0
ARC
8
DEFAULT_255_1_388
10
23.8907342
20
37.3923667
40
0.1827036
50
10.9185717
51
31.322519
0
ARC
8
DEFAULT_255_1_388
10
23.922889
20
37.4102571
40
0.1459418
50
31.8850633
51
52.1415586
0
ARC
8
DEFAULT_255_1_388
10
23.892032
20
37.3666674
40
0.1993088
50
52.8283418
51
71.9850132
0
ARC
8
DEFAULT_255_1_388
10
23.849748
20
37.2422158
40
0.3307407
50
71.686634
51
82.8453416
0
ARC
8
DEFAULT_255_1_388
10
23.8228127
20
37.0386892
40
0.536039
50
82.6981895
51
90.1730083
0
ARC
8
DEFAULT_255_1_388
10
23.8202959
20
37.1265836
40
0.4481429
50
89.8851568
51
90.0383283
0
LINE
8
DEFAULT_255_1_388
10
19.9249367
20
45.6549898
11
19.9249367
21
44.3394
0
LINE
8
DEFAULT_255_1_388
10
19.9249367
20
44.3394
11
19.7514523
21
44.3394
0
LINE
8
DEFAULT_255_1_388
10
19.7514523
20
44.3394
11
19.7514523
21
45.6549898
0
LINE
8
DEFAULT_255_1_388
10
19.7514523
20
45.6549898
11
19.9249367
21
45.6549898
0
LINE
8
DEFAULT_255_1_388
10
21.2531764
20
45.6549898
11
21.2531764
21
44.3394
0
LINE
8
DEFAULT_255_1_388
10
21.2531764
20
44.3394
11
21.0787885
21
44.3394
0
LINE
8
DEFAULT_255_1_388
10
21.0787885
20
44.3394
11
20.4164757
21
45.3531993
0
LINE
8
DEFAULT_255_1_388
10
20.4164757
20
45.3531993
11
20.4164757
21
44.3394
0
LINE
8
DEFAULT_255_1_388
10
20.4164757
20
44.3394
11
20.2420878
21
44.3394
0
LINE
8
DEFAULT_255_1_388
10
20.2420878
20
44.3394
11
20.2420878
21
45.6549898
0
LINE
8
DEFAULT_255_1_388
10
20.2420878
20
45.6549898
11
20.4164757
21
45.6549898
0
LINE
8
DEFAULT_255_1_388
10
20.4164757
20
45.6549898
11
21.0805956
21
44.6366727
0
LINE
8
DEFAULT_255_1_388
10
21.0805956
20
44.6366727
11
21.0805956
21
45.6549898
0
LINE
8
DEFAULT_255_1_388
10
21.0805956
20
45.6549898
11
21.2531764
21
45.6549898
0
LINE
8
DEFAULT_255_1_388
10
21.7609796
20
44.9420775
11
21.7609796
21
45.0785157
0
LINE
8
DEFAULT_255_1_388
10
21.7609796
20
45.0785157
11
21.8865751
21
45.0785157
0
LINE
8
DEFAULT_255_1_388
10
21.6724303
20
45.3098282
11
21.5052709
21
45.3098282
0
LINE
8
DEFAULT_255_1_388
10
21.4935246
20
44.6863688
11
21.6615875
21
44.6863688
0
LINE
8
DEFAULT_255_1_388
10
21.8865751
20
44.9420775
11
21.7609796
21
44.9420775
0
ARC
8
DEFAULT_255_1_388
10
21.8832977
20
45.4601922
40
0.3816905
50
270.491971
51
281.8953028
0
ARC
8
DEFAULT_255_1_388
10
21.9104404
20
45.3362199
40
0.2547877
50
281.6690378
51
301.2943765
0
ARC
8
DEFAULT_255_1_388
10
21.9295856
20
45.3011926
40
0.2149197
50
301.7834992
51
311.754567
0
ARC
8
DEFAULT_255_1_388
10
21.9398897
20
45.289765
40
0.1995326
50
311.7325027
51
354.2803031
0
ARC
8
DEFAULT_255_1_388
10
21.8581313
20
45.303828
40
0.2823461
50
353.0941646
51
0.1174696
0
ARC
8
DEFAULT_255_1_388
10
21.8062871
20
45.3091874
40
0.3342238
50
359.1804452
51
15.0452323
0
ARC
8
DEFAULT_255_1_388
10
21.9576929
20
45.3533546
40
0.1765747
50
13.957816
51
77.6713812
0
ARC
8
DEFAULT_255_1_388
10
21.9142165
20
45.1975464
40
0.3381982
50
76.111571
51
90.7028736
0
ARC
8
DEFAULT_255_1_388
10
21.9075577
20
45.228325
40
0.3074046
50
89.5321574
51
103.5319393
0
ARC
8
DEFAULT_255_1_388
10
21.8849961
20
45.3182443
40
0.2147041
50
103.2930114
51
133.5619756
0
ARC
8
DEFAULT_255_1_388
10
21.8799902
20
45.3249351
40
0.2064084
50
133.8349761
51
173.5343225
0
ARC
8
DEFAULT_255_1_388
10
21.961356
20
45.3105144
40
0.2889266
50
172.5097183
51
180.1360699
0
ARC
8
DEFAULT_255_1_388
10
21.8543324
20
45.314388
40
0.3490913
50
155.3483706
51
180.7484035
0
ARC
8
DEFAULT_255_1_388
10
21.8488299
20
45.3111519
40
0.3454798
50
131.5745177
51
154.4799474
0
ARC
8
DEFAULT_255_1_388
10
21.8840582
20
45.2755422
40
0.3955058
50
96.9874487
51
131.9690874
0
ARC
8
DEFAULT_255_1_388
10
21.9087475
20
45.1354407
40
0.537622
50
89.8592909
51
97.7827481
0
ARC
8
DEFAULT_255_1_388
10
21.9141584
20
45.105936
40
0.5671399
50
78.3654493
51
90.4132586
0
ARC
8
DEFAULT_255_1_388
10
21.9544225
20
45.2925918
40
0.3762034
50
56.6229818
51
78.6387103
0
ARC
8
DEFAULT_255_1_388
10
21.9786054
20
45.3348846
40
0.3275964
50
47.0254604
51
56.085558
0
ARC
8
DEFAULT_255_1_388
10
21.9808305
20
45.3393189
40
0.3228382
50
10.9207523
51
46.777927
0
ARC
8
DEFAULT_255_1_388
10
21.8273899
20
45.3038401
40
0.4802559
50
359.6364235
51
11.6087615
0
ARC
8
DEFAULT_255_1_388
10
22.0338065
20
45.3021404
40
0.273833
50
332.3549969
51
359.7179765
0
ARC
8
DEFAULT_255_1_388
10
21.9606465
20
45.3368285
40
0.3547505
50
325.2332381
51
332.8746682
0
ARC
8
DEFAULT_255_1_388
10
21.9778048
20
45.3248763
40
0.3338396
50
292.9803892
51
325.2391113
0
ARC
8
DEFAULT_255_1_388
10
21.9467244
20
45.3853679
40
0.4016959
50
292.542178
51
293.6931461
0
ARC
8
DEFAULT_255_1_388
10
21.9910816
20
44.6588036
40
0.372079
50
57.643292
51
72.8626085
0
ARC
8
DEFAULT_255_1_388
10
22.030965
20
44.7234273
40
0.2961455
50
36.7246661
51
57.4701329
0
ARC
8
DEFAULT_255_1_388
10
22.0296807
20
44.724847
40
0.2963321
50
8.054535
51
36.3561529
0
ARC
8
DEFAULT_255_1_388
10
21.932648
20
44.7074073
40
0.3948682
50
359.8316595
51
8.5873361
0
ARC
8
DEFAULT_255_1_388
10
21.8903954
20
44.701997
40
0.4371398
50
343.9831631
51
0.557075
0
ARC
8
DEFAULT_255_1_388
10
21.9901004
20
44.6746963
40
0.3337749
50
311.6358204
51
343.7652116
0
ARC
8
DEFAULT_255_1_388
10
21.9475257
20
44.7226955
40
0.3979351
50
279.7829743
51
311.625622
0
ARC
8
DEFAULT_255_1_388
10
21.9136392
20
44.8843642
40
0.5630417
50
269.7285092
51
280.3857694
0
ARC
8
DEFAULT_255_1_388
10
21.9066705
20
44.8797241
40
0.5584119
50
256.6827433
51
270.4412869
0
ARC
8
DEFAULT_255_1_388
10
21.8685692
20
44.7239698
40
0.3980715
50
229.4223821
51
256.8554507
0
ARC
8
DEFAULT_255_1_388
10
21.8219245
20
44.6714683
40
0.3278564
50
181.8183354
51
229.6455015
0
ARC
8
DEFAULT_255_1_388
10
21.9388855
20
44.6861825
40
0.4453611
50
179.9760419
51
183.2330638
0
ARC
8
DEFAULT_255_1_388
10
21.9195407
20
44.6838781
40
0.2579652
50
179.4467996
51
196.2871626
0
ARC
8
DEFAULT_255_1_388
10
21.8646861
20
44.6688709
40
0.2011057
50
196.5661293
51
227.7059371
0
ARC
8
DEFAULT_255_1_388
10
21.8831468
20
44.6895155
40
0.2287994
50
227.7653015
51
257.8763321
0
ARC
8
DEFAULT_255_1_388
10
21.9084551
20
44.7955961
40
0.3378385
50
257.4583525
51
270.4267406
0
ARC
8
DEFAULT_255_1_388
10
21.9135801
20
44.828223
40
0.3704652
50
269.5965319
51
280.8788143
0
ARC
8
DEFAULT_255_1_388
10
21.9394029
20
44.6992529
40
0.2389415
50
280.6347277
51
299.8594068
0
ARC
8
DEFAULT_255_1_388
10
21.9608798
20
44.6584736
40
0.19289
50
300.3575552
51
314.5515667
0
ARC
8
DEFAULT_255_1_388
10
21.9515474
20
44.6653025
40
0.204312
50
315.0730962
51
345.0429362
0
ARC
8
DEFAULT_255_1_388
10
21.8476982
20
44.6955539
40
0.31246
50
344.598526
51
357.9270698
0
ARC
8
DEFAULT_255_1_388
10
21.7467286
20
44.7024705
40
0.4136265
50
357.4755098
51
0.0224936
0
ARC
8
DEFAULT_255_1_388
10
21.8620164
20
44.7052099
40
0.2983498
50
359.5051035
51
13.4236939
0
ARC
8
DEFAULT_255_1_388
10
21.9595254
20
44.7301637
40
0.1977186
50
12.9497905
51
48.7550905
0
ARC
8
DEFAULT_255_1_388
10
21.9390176
20
44.7021373
40
0.2323321
50
49.509109
51
72.1832965
0
ARC
8
DEFAULT_255_1_388
10
21.8987644
20
44.5826632
40
0.358397
50
71.9008458
51
84.3555134
0
ARC
8
DEFAULT_255_1_388
10
21.8806039
20
44.4294712
40
0.512641
50
84.019632
51
89.3326067
0
LINE
8
DEFAULT_255_1_388
10
23.1560832
20
45.6549898
11
22.6076195
21
44.2264544
0
LINE
8
DEFAULT_255_1_388
10
22.6076195
20
44.2264544
11
22.4639528
21
44.2264544
0
LINE
8
DEFAULT_255_1_388
10
22.4639528
20
44.2264544
11
23.01332
21
45.6549898
0
LINE
8
DEFAULT_255_1_388
10
23.01332
20
45.6549898
11
23.1560832
21
45.6549898
0
LINE
8
DEFAULT_255_1_388
10
24.2150607
20
44.3394
11
24.0894652
21
44.6827545
0
LINE
8
DEFAULT_255_1_388
10
24.0894652
20
44.6827545
11
23.5382909
21
44.6827545
0
LINE
8
DEFAULT_255_1_388
10
23.5382909
20
44.6827545
11
23.4145026
21
44.3394
0
LINE
8
DEFAULT_255_1_388
10
23.4145026
20
44.3394
11
23.2355968
21
44.3394
0
LINE
8
DEFAULT_255_1_388
10
23.2355968
20
44.3394
11
23.7379787
21
45.6549898
0
LINE
8
DEFAULT_255_1_388
10
23.7379787
20
45.6549898
11
23.8897775
21
45.6549898
0
LINE
8
DEFAULT_255_1_388
10
23.8897775
20
45.6549898
11
24.3930629
21
44.3394
0
LINE
8
DEFAULT_255_1_388
10
24.3930629
20
44.3394
11
24.2150607
21
44.3394
0
LINE
8
DEFAULT_255_1_388
10
23.8138781
20
45.4408451
11
23.5906977
21
44.8255177
0
LINE
8
DEFAULT_255_1_388
10
23.5906977
20
44.8255177
11
24.0379621
21
44.8255177
0
LINE
8
DEFAULT_255_1_388
10
24.0379621
20
44.8255177
11
23.8138781
21
45.4408451
0
LINE
8
DEFAULT_255_1_388
10
19.9249367
20
53.5924898
11
19.9249367
21
52.2769
0
LINE
8
DEFAULT_255_1_388
10
19.9249367
20
52.2769
11
19.7514523
21
52.2769
0
LINE
8
DEFAULT_255_1_388
10
19.7514523
20
52.2769
11
19.7514523
21
53.5924898
0
LINE
8
DEFAULT_255_1_388
10
19.7514523
20
53.5924898
11
19.9249367
21
53.5924898
0
LINE
8
DEFAULT_255_1_388
10
21.2531764
20
53.5924898
11
21.2531764
21
52.2769
0
LINE
8
DEFAULT_255_1_388
10
21.2531764
20
52.2769
11
21.0787885
21
52.2769
0
LINE
8
DEFAULT_255_1_388
10
21.0787885
20
52.2769
11
20.4164757
21
53.2906993
0
LINE
8
DEFAULT_255_1_388
10
20.4164757
20
53.2906993
11
20.4164757
21
52.2769
0
LINE
8
DEFAULT_255_1_388
10
20.4164757
20
52.2769
11
20.2420878
21
52.2769
0
LINE
8
DEFAULT_255_1_388
10
20.2420878
20
52.2769
11
20.2420878
21
53.5924898
0
LINE
8
DEFAULT_255_1_388
10
20.2420878
20
53.5924898
11
20.4164757
21
53.5924898
0
LINE
8
DEFAULT_255_1_388
10
20.4164757
20
53.5924898
11
21.0805956
21
52.5741727
0
LINE
8
DEFAULT_255_1_388
10
21.0805956
20
52.5741727
11
21.0805956
21
53.5924898
0
LINE
8
DEFAULT_255_1_388
10
21.0805956
20
53.5924898
11
21.2531764
21
53.5924898
0
LINE
8
DEFAULT_255_1_388
10
21.7609796
20
52.8795775
11
21.7609796
21
53.0160157
0
LINE
8
DEFAULT_255_1_388
10
21.7609796
20
53.0160157
11
21.8865751
21
53.0160157
0
LINE
8
DEFAULT_255_1_388
10
21.6724303
20
53.2473282
11
21.5052709
21
53.2473282
0
LINE
8
DEFAULT_255_1_388
10
21.4935246
20
52.6238688
11
21.6615875
21
52.6238688
0
LINE
8
DEFAULT_255_1_388
10
21.8865751
20
52.8795775
11
21.7609796
21
52.8795775
0
ARC
8
DEFAULT_255_1_388
10
21.8832977
20
53.3976922
40
0.3816905
50
270.491971
51
281.8953028
0
ARC
8
DEFAULT_255_1_388
10
21.9104404
20
53.2737199
40
0.2547877
50
281.6690378
51
301.2943765
0
ARC
8
DEFAULT_255_1_388
10
21.9295856
20
53.2386926
40
0.2149197
50
301.7834992
51
311.754567
0
ARC
8
DEFAULT_255_1_388
10
21.9398897
20
53.227265
40
0.1995326
50
311.7325027
51
354.2803031
0
ARC
8
DEFAULT_255_1_388
10
21.8581313
20
53.241328
40
0.2823461
50
353.0941646
51
0.1174696
0
ARC
8
DEFAULT_255_1_388
10
21.8062871
20
53.2466874
40
0.3342238
50
359.1804452
51
15.0452323
0
ARC
8
DEFAULT_255_1_388
10
21.9576929
20
53.2908546
40
0.1765747
50
13.957816
51
77.6713812
0
ARC
8
DEFAULT_255_1_388
10
21.9142165
20
53.1350464
40
0.3381982
50
76.111571
51
90.7028736
0
ARC
8
DEFAULT_255_1_388
10
21.9075577
20
53.165825
40
0.3074046
50
89.5321574
51
103.5319393
0
ARC
8
DEFAULT_255_1_388
10
21.8849961
20
53.2557443
40
0.2147041
50
103.2930114
51
133.5619756
0
ARC
8
DEFAULT_255_1_388
10
21.8799902
20
53.2624351
40
0.2064084
50
133.8349761
51
173.5343225
0
ARC
8
DEFAULT_255_1_388
10
21.961356
20
53.2480144
40
0.2889266
50
172.5097183
51
180.1360699
0
ARC
8
DEFAULT_255_1_388
10
21.8543324
20
53.251888
40
0.3490913
50
155.3483706
51
180.7484035
0
ARC
8
DEFAULT_255_1_388
10
21.8488299
20
53.2486519
40
0.3454798
50
131.5745177
51
154.4799474
0
ARC
8
DEFAULT_255_1_388
10
21.8840582
20
53.2130422
40
0.3955058
50
96.9874487
51
131.9690874
0
ARC
8
DEFAULT_255_1_388
10
21.9087475
20
53.0729407
40
0.537622
50
89.8592909
51
97.7827481
0
ARC
8
DEFAULT_255_1_388
10
21.9141584
20
53.043436
40
0.5671399
50
78.3654493
51
90.4132586
0
ARC
8
DEFAULT_255_1_388
10
21.9544225
20
53.2300918
40
0.3762034
50
56.6229818
51
78.6387103
0
ARC
8
DEFAULT_255_1_388
10
21.9786054
20
53.2723846
40
0.3275964
50
47.0254604
51
56.085558
0
ARC
8
DEFAULT_255_1_388
10
21.9808305
20
53.2768189
40
0.3228382
50
10.9207523
51
46.777927
0
ARC
8
DEFAULT_255_1_388
10
21.8273899
20
53.2413401
40
0.4802559
50
359.6364235
51
11.6087615
0
ARC
8
DEFAULT_255_1_388
10
22.0338065
20
53.2396404
40
0.273833
50
332.3549969
51
359.7179765
0
ARC
8
DEFAULT_255_1_388
10
21.9606465
20
53.2743285
40
0.3547505
50
325.2332381
51
332.8746682
0
ARC
8
DEFAULT_255_1_388
10
21.9778048
20
53.2623763
40
0.3338396
50
292.9803892
51
325.2391113
0
ARC
8
DEFAULT_255_1_388
10
21.9467244
20
53.3228679
40
0.4016959
50
292.542178
51
293.6931461
0
ARC
8
DEFAULT_255_1_388
10
21.9910816
20
52.5963036
40
0.372079
50
57.643292
51
72.8626085
0
ARC
8
DEFAULT_255_1_388
10
22.030965
20
52.6609273
40
0.2961455
50
36.7246661
51
57.4701329
0
ARC
8
DEFAULT_255_1_388
10
22.0296807
20
52.662347
40
0.2963321
50
8.054535
51
36.3561529
0
ARC
8
DEFAULT_255_1_388
10
21.932648
20
52.6449073
40
0.3948682
50
359.8316595
51
8.5873361
0
ARC
8
DEFAULT_255_1_388
10
21.8903954
20
52.639497
40
0.4371398
50
343.9831631
51
0.557075
0
ARC
8
DEFAULT_255_1_388
10
21.9901004
20
52.6121963
40
0.3337749
50
311.6358204
51
343.7652116
0
ARC
8
DEFAULT_255_1_388
10
21.9475257
20
52.6601955
40
0.3979351
50
279.7829743
51
311.625622
0
ARC
8
DEFAULT_255_1_388
10
21.9136392
20
52.8218642
40
0.5630417
50
269.7285092
51
280.3857694
0
ARC
8
DEFAULT_255_1_388
10
21.9066705
20
52.8172241
40
0.5584119
50
256.6827433
51
270.4412869
0
ARC
8
DEFAULT_255_1_388
10
21.8685692
20
52.6614698
40
0.3980715
50
229.4223821
51
256.8554507
0
ARC
8
DEFAULT_255_1_388
10
21.8219245
20
52.6089683
40
0.3278564
50
181.8183354
51
229.6455015
0
ARC
8
DEFAULT_255_1_388
10
21.9388855
20
52.6236825
40
0.4453611
50
179.9760419
51
183.2330638
0
ARC
8
DEFAULT_255_1_388
10
21.9195407
20
52.6213781
40
0.2579652
50
179.4467996
51
196.2871626
0
ARC
8
DEFAULT_255_1_388
10
21.8646861
20
52.6063709
40
0.2011057
50
196.5661293
51
227.7059371
0
ARC
8
DEFAULT_255_1_388
10
21.8831468
20
52.6270155
40
0.2287994
50
227.7653015
51
257.8763321
0
ARC
8
DEFAULT_255_1_388
10
21.9084551
20
52.7330961
40
0.3378385
50
257.4583525
51
270.4267406
0
ARC
8
DEFAULT_255_1_388
10
21.9135801
20
52.765723
40
0.3704652
50
269.5965319
51
280.8788143
0
ARC
8
DEFAULT_255_1_388
10
21.9394029
20
52.6367529
40
0.2389415
50
280.6347277
51
299.8594068
0
ARC
8
DEFAULT_255_1_388
10
21.9608798
20
52.5959736
40
0.19289
50
300.3575552
51
314.5515667
0
ARC
8
DEFAULT_255_1_388
10
21.9515474
20
52.6028025
40
0.204312
50
315.0730962
51
345.0429362
0
ARC
8
DEFAULT_255_1_388
10
21.8476982
20
52.6330539
40
0.31246
50
344.598526
51
357.9270698
0
ARC
8
DEFAULT_255_1_388
10
21.7467286
20
52.6399705
40
0.4136265
50
357.4755098
51
0.0224936
0
ARC
8
DEFAULT_255_1_388
10
21.8620164
20
52.6427099
40
0.2983498
50
359.5051035
51
13.4236939
0
ARC
8
DEFAULT_255_1_388
10
21.9595254
20
52.6676637
40
0.1977186
50
12.9497905
51
48.7550905
0
ARC
8
DEFAULT_255_1_388
10
21.9390176
20
52.6396373
40
0.2323321
50
49.509109
51
72.1832965
0
ARC
8
DEFAULT_255_1_388
10
21.8987644
20
52.5201632
40
0.358397
50
71.9008458
51
84.3555134
0
ARC
8
DEFAULT_255_1_388
10
21.8806039
20
52.3669712
40
0.512641
50
84.019632
51
89.3326067
0
LINE
8
DEFAULT_255_1_388
10
23.1560832
20
53.5924898
11
22.6076195
21
52.1639544
0
LINE
8
DEFAULT_255_1_388
10
22.6076195
20
52.1639544
11
22.4639528
21
52.1639544
0
LINE
8
DEFAULT_255_1_388
10
22.4639528
20
52.1639544
11
23.01332
21
53.5924898
0
LINE
8
DEFAULT_255_1_388
10
23.01332
20
53.5924898
11
23.1560832
21
53.5924898
0
LINE
8
DEFAULT_255_1_388
10
24.2150607
20
52.2769
11
24.0894652
21
52.6202545
0
LINE
8
DEFAULT_255_1_388
10
24.0894652
20
52.6202545
11
23.5382909
21
52.6202545
0
LINE
8
DEFAULT_255_1_388
10
23.5382909
20
52.6202545
11
23.4145026
21
52.2769
0
LINE
8
DEFAULT_255_1_388
10
23.4145026
20
52.2769
11
23.2355968
21
52.2769
0
LINE
8
DEFAULT_255_1_388
10
23.2355968
20
52.2769
11
23.7379787
21
53.5924898
0
LINE
8
DEFAULT_255_1_388
10
23.7379787
20
53.5924898
11
23.8897775
21
53.5924898
0
LINE
8
DEFAULT_255_1_388
10
23.8897775
20
53.5924898
11
24.3930629
21
52.2769
0
LINE
8
DEFAULT_255_1_388
10
24.3930629
20
52.2769
11
24.2150607
21
52.2769
0
LINE
8
DEFAULT_255_1_388
10
23.8138781
20
53.3783451
11
23.5906977
21
52.7630177
0
LINE
8
DEFAULT_255_1_388
10
23.5906977
20
52.7630177
11
24.0379621
21
52.7630177
0
LINE
8
DEFAULT_255_1_388
10
24.0379621
20
52.7630177
11
23.8138781
21
53.3783451
0
LINE
8
DEFAULT_255_1_388
10
20.8632322
20
60.2144
11
20.5777058
21
60.7465995
0
LINE
8
DEFAULT_255_1_388
10
20.5777058
20
60.7465995
11
20.2686868
21
60.7465995
0
LINE
8
DEFAULT_255_1_388
10
20.2686868
20
60.7465995
11
20.2686868
21
60.2144
0
LINE
8
DEFAULT_255_1_388
10
20.2686868
20
60.2144
11
20.0942988
21
60.2144
0
LINE
8
DEFAULT_255_1_388
10
20.0942988
20
60.2144
11
20.0942988
21
61.5299898
0
LINE
8
DEFAULT_255_1_388
10
20.0942988
20
61.5299898
11
20.5298169
21
61.5299898
0
LINE
8
DEFAULT_255_1_388
10
20.7403474
20
60.7836456
11
21.0493665
21
60.2252428
0
LINE
8
DEFAULT_255_1_388
10
21.0493665
20
60.2252428
11
21.0493665
21
60.2144
0
LINE
8
DEFAULT_255_1_388
10
21.0493665
20
60.2144
11
20.8632322
21
60.2144
0
LINE
8
DEFAULT_255_1_388
10
20.2686868
20
61.3872267
11
20.2686868
21
60.8884591
0
LINE
8
DEFAULT_255_1_388
10
20.2686868
20
60.8884591
11
20.5352383
21
60.8884591
0
LINE
8
DEFAULT_255_1_388
10
20.5343347
20
61.3872267
11
20.2686868
21
61.3872267
0
ARC
8
DEFAULT_255_1_388
10
20.5345015
20
60.7468346
40
0.7831693
50
80.6535681
51
90.3427203
0
ARC
8
DEFAULT_255_1_388
10
20.5816925
20
61.0238722
40
0.5021479
50
65.6987674
51
80.8330164
0
ARC
8
DEFAULT_255_1_388
10
20.6354219
20
61.1470479
40
0.3677787
50
50.0019152
51
65.4304412
0
ARC
8
DEFAULT_255_1_388
10
20.6600035
20
61.1802603
40
0.3265454
50
11.6284215
51
49.5603681
0
ARC
8
DEFAULT_255_1_388
10
20.4872521
20
61.1380524
40
0.5043009
50
359.5655533
51
12.3693319
0
ARC
8
DEFAULT_255_1_388
10
20.6083858
20
61.1310038
40
0.3831661
50
341.998418
51
0.4822212
0
ARC
8
DEFAULT_255_1_388
10
20.6528044
20
61.1189479
40
0.3372036
50
323.8610842
51
341.6141514
0
ARC
8
DEFAULT_255_1_388
10
20.618859
20
61.1451615
40
0.3800784
50
296.7019299
51
323.6876213
0
ARC
8
DEFAULT_255_1_388
10
20.5692548
20
61.2338532
40
0.4816219
50
290.808313
51
297.2325929
0
ARC
8
DEFAULT_255_1_388
10
20.5381342
20
61.2927377
40
0.404289
50
269.5895908
51
281.8058892
0
ARC
8
DEFAULT_255_1_388
10
20.5663608
20
61.163636
40
0.2721459
50
281.5499321
51
303.9358954
0
ARC
8
DEFAULT_255_1_388
10
20.5818143
20
61.1368588
40
0.2413121
50
304.4410786
51
311.211123
0
ARC
8
DEFAULT_255_1_388
10
20.5966548
20
61.1212152
40
0.2197678
50
310.9874923
51
356.2715203
0
ARC
8
DEFAULT_255_1_388
10
20.5116294
20
61.1338992
40
0.3055212
50
354.9346315
51
0.0617816
0
ARC
8
DEFAULT_255_1_388
10
20.4905135
20
61.1369427
40
0.3266482
50
359.5239293
51
12.8808621
0
ARC
8
DEFAULT_255_1_388
10
20.6004898
20
61.1638638
40
0.2134449
50
12.417206
51
43.1023141
0
ARC
8
DEFAULT_255_1_388
10
20.6074228
20
61.1680253
40
0.2055463
50
43.575886
51
48.2047245
0
ARC
8
DEFAULT_255_1_388
10
20.5883489
20
61.1431151
40
0.2368418
50
48.7809155
51
72.6968768
0
ARC
8
DEFAULT_255_1_388
10
20.5484853
20
61.0221385
40
0.364206
50
72.3699892
51
84.8793749
0
ARC
8
DEFAULT_255_1_388
10
20.5318859
20
60.8711651
40
0.5160674
50
84.5398226
51
89.7281165
0
LINE
8
DEFAULT_255_1_388
10
22.0712979
20
61.5299898
11
22.0712979
21
61.3872267
0
LINE
8
DEFAULT_255_1_388
10
22.0712979
20
61.3872267
11
21.6484297
21
61.3872267
0
LINE
8
DEFAULT_255_1_388
10
21.6484297
20
61.3872267
11
21.6484297
21
60.2144
0
LINE
8
DEFAULT_255_1_388
10
21.6484297
20
60.2144
11
21.4758489
21
60.2144
0
LINE
8
DEFAULT_255_1_388
10
21.4758489
20
60.2144
11
21.4758489
21
61.3872267
0
LINE
8
DEFAULT_255_1_388
10
21.4758489
20
61.3872267
11
21.0538843
21
61.3872267
0
LINE
8
DEFAULT_255_1_388
10
21.0538843
20
61.3872267
11
21.0538843
21
61.5299898
0
LINE
8
DEFAULT_255_1_388
10
21.0538843
20
61.5299898
11
22.0712979
21
61.5299898
0
LINE
8
DEFAULT_255_1_388
10
23.2775564
20
61.5299898
11
23.2775564
21
60.2144
0
LINE
8
DEFAULT_255_1_388
10
23.2775564
20
60.2144
11
23.1031685
21
60.2144
0
LINE
8
DEFAULT_255_1_388
10
23.1031685
20
60.2144
11
22.4408557
21
61.2281993
0
LINE
8
DEFAULT_255_1_388
10
22.4408557
20
61.2281993
11
22.4408557
21
60.2144
0
LINE
8
DEFAULT_255_1_388
10
22.4408557
20
60.2144
11
22.2664678
21
60.2144
0
LINE
8
DEFAULT_255_1_388
10
22.2664678
20
60.2144
11
22.2664678
21
61.5299898
0
LINE
8
DEFAULT_255_1_388
10
22.2664678
20
61.5299898
11
22.4408557
21
61.5299898
0
LINE
8
DEFAULT_255_1_388
10
22.4408557
20
61.5299898
11
23.1049756
21
60.5116727
0
LINE
8
DEFAULT_255_1_388
10
23.1049756
20
60.5116727
11
23.1049756
21
61.5299898
0
LINE
8
DEFAULT_255_1_388
10
23.1049756
20
61.5299898
11
23.2775564
21
61.5299898
0
LINE
8
DEFAULT_255_1_388
10
24.091668
20
61.5363148
11
24.091668
21
60.2144
0
LINE
8
DEFAULT_255_1_388
10
24.091668
20
60.2144
11
23.923605
21
60.2144
0
LINE
8
DEFAULT_255_1_388
10
23.923605
20
60.2144
11
23.923605
21
61.328495
0
LINE
8
DEFAULT_255_1_388
10
23.923605
20
61.328495
11
23.5865754
21
61.2047066
0
LINE
8
DEFAULT_255_1_388
10
23.5865754
20
61.2047066
11
23.5865754
21
61.3565055
0
LINE
8
DEFAULT_255_1_388
10
23.5865754
20
61.3565055
11
24.0654646
21
61.5363148
0
LINE
8
DEFAULT_255_1_388
10
24.0654646
20
61.5363148
11
24.091668
21
61.5363148
0
LINE
8
DEFAULT_255_1_388
10
19.9518367
20
69.4674898
11
19.9518367
21
68.1519
0
LINE
8
DEFAULT_255_1_388
10
19.9518367
20
68.1519
11
19.7783523
21
68.1519
0
LINE
8
DEFAULT_255_1_388
10
19.7783523
20
68.1519
11
19.7783523
21
69.4674898
0
LINE
8
DEFAULT_255_1_388
10
19.7783523
20
69.4674898
11
19.9518367
21
69.4674898
0
LINE
8
DEFAULT_255_1_388
10
21.2800764
20
69.4674898
11
21.2800764
21
68.1519
0
LINE
8
DEFAULT_255_1_388
10
21.2800764
20
68.1519
11
21.1056885
21
68.1519
0
LINE
8
DEFAULT_255_1_388
10
21.1056885
20
68.1519
11
20.4433757
21
69.1656993
0
LINE
8
DEFAULT_255_1_388
10
20.4433757
20
69.1656993
11
20.4433757
21
68.1519
0
LINE
8
DEFAULT_255_1_388
10
20.4433757
20
68.1519
11
20.2689878
21
68.1519
0
LINE
8
DEFAULT_255_1_388
10
20.2689878
20
68.1519
11
20.2689878
21
69.4674898
0
LINE
8
DEFAULT_255_1_388
10
20.2689878
20
69.4674898
11
20.4433757
21
69.4674898
0
LINE
8
DEFAULT_255_1_388
10
20.4433757
20
69.4674898
11
21.1074956
21
68.4491727
0
LINE
8
DEFAULT_255_1_388
10
21.1074956
20
68.4491727
11
21.1074956
21
69.4674898
0
LINE
8
DEFAULT_255_1_388
10
21.1074956
20
69.4674898
11
21.2800764
21
69.4674898
0
LINE
8
DEFAULT_255_1_388
10
22.094188
20
69.4738148
11
22.094188
21
68.1519
0
LINE
8
DEFAULT_255_1_388
10
22.094188
20
68.1519
11
21.926125
21
68.1519
0
LINE
8
DEFAULT_255_1_388
10
21.926125
20
68.1519
11
21.926125
21
69.265995
0
LINE
8
DEFAULT_255_1_388
10
21.926125
20
69.265995
11
21.5890955
21
69.1422066
0
LINE
8
DEFAULT_255_1_388
10
21.5890955
20
69.1422066
11
21.5890955
21
69.2940055
0
LINE
8
DEFAULT_255_1_388
10
21.5890955
20
69.2940055
11
22.0679846
21
69.4738148
0
LINE
8
DEFAULT_255_1_388
10
22.0679846
20
69.4738148
11
22.094188
21
69.4738148
0
LINE
8
DEFAULT_255_1_388
10
23.1829832
20
69.4674898
11
22.6345195
21
68.0389544
0
LINE
8
DEFAULT_255_1_388
10
22.6345195
20
68.0389544
11
22.4908528
21
68.0389544
0
LINE
8
DEFAULT_255_1_388
10
22.4908528
20
68.0389544
11
23.04022
21
69.4674898
0
LINE
8
DEFAULT_255_1_388
10
23.04022
20
69.4674898
11
23.1829832
21
69.4674898
0
LINE
8
DEFAULT_255_1_388
10
23.8461995
20
68.1519
11
23.3898994
21
68.1519
0
LINE
8
DEFAULT_255_1_388
10
23.3898994
20
68.1519
11
23.3898994
21
69.4674898
0
LINE
8
DEFAULT_255_1_388
10
23.3898994
20
69.4674898
11
23.8199961
21
69.4674898
0
LINE
8
DEFAULT_255_1_388
10
23.8525244
20
68.7672274
11
23.5633838
21
68.7672274
0
LINE
8
DEFAULT_255_1_388
10
23.5633838
20
68.7672274
11
23.5633838
21
68.2937596
0
LINE
8
DEFAULT_255_1_388
10
23.5633838
20
68.2937596
11
23.8498137
21
68.2937596
0
LINE
8
DEFAULT_255_1_388
10
23.5633838
20
69.3247267
11
23.5633838
21
68.9063763
0
LINE
8
DEFAULT_255_1_388
10
23.5633838
20
68.9063763
11
23.8254175
21
68.9063763
0
LINE
8
DEFAULT_255_1_388
10
23.8199961
20
69.3247267
11
23.5633838
21
69.3247267
0
ARC
8
DEFAULT_255_1_388
10
23.8242381
20
68.6386824
40
0.8288183
50
82.1256322
51
90.2932506
0
ARC
8
DEFAULT_255_1_388
10
23.8679956
20
68.944459
40
0.5199321
50
69.9044202
51
82.2857574
0
ARC
8
DEFAULT_255_1_388
10
23.9321949
20
69.1179993
40
0.3348993
50
51.1840204
51
70.018125
0
ARC
8
DEFAULT_255_1_388
10
23.9608781
20
69.1596945
40
0.2844579
50
12.1018086
51
50.421322
0
ARC
8
DEFAULT_255_1_388
10
23.8051653
20
69.1205937
40
0.4449429
50
359.5252354
51
12.8212369
0
ARC
8
DEFAULT_255_1_388
10
23.9829083
20
69.1127943
40
0.2672162
50
323.4907456
51
0.8818258
0
ARC
8
DEFAULT_255_1_388
10
23.9358495
20
69.1491523
40
0.3266736
50
298.6824053
51
323.2758285
0
ARC
8
DEFAULT_255_1_388
10
23.8951787
20
69.2167509
40
0.4055105
50
293.1994739
51
299.139634
0
ARC
8
DEFAULT_255_1_388
10
23.9708736
20
68.5321651
40
0.3229926
50
54.0009997
51
74.9168635
0
ARC
8
DEFAULT_255_1_388
10
23.9839663
20
68.5543511
40
0.2973581
50
36.3578854
51
53.5293172
0
ARC
8
DEFAULT_255_1_388
10
23.9697031
20
68.544185
40
0.3148715
50
4.8189348
51
36.3090187
0
ARC
8
DEFAULT_255_1_388
10
23.8820055
20
68.5318383
40
0.4033265
50
359.9373213
51
5.5201284
0
ARC
8
DEFAULT_255_1_388
10
23.8455385
20
68.5272733
40
0.4398126
50
344.7479357
51
0.5372278
0
ARC
8
DEFAULT_255_1_388
10
23.9570284
20
68.4972205
40
0.3243441
50
311.1785587
51
344.6887681
0
ARC
8
DEFAULT_255_1_388
10
23.9241827
20
68.5381084
40
0.3767511
50
286.0417804
51
310.8440924
0
ARC
8
DEFAULT_255_1_388
10
23.8671237
20
68.7233885
40
0.5705957
50
274.1044074
51
286.4070149
0
ARC
8
DEFAULT_255_1_388
10
23.8472452
20
68.9351901
40
0.7832907
50
269.9235077
51
274.4458593
0
ARC
8
DEFAULT_255_1_388
10
23.852417
20
68.6720462
40
0.3782955
50
269.6057074
51
281.3740795
0
ARC
8
DEFAULT_255_1_388
10
23.8783669
20
68.5490569
40
0.2526069
50
281.105298
51
302.5134029
0
ARC
8
DEFAULT_255_1_388
10
23.8949056
20
68.5193944
40
0.2187131
50
303.0365425
51
311.8818034
0
ARC
8
DEFAULT_255_1_388
10
23.9029233
20
68.5098602
40
0.2062624
50
311.9916937
51
351.7143773
0
ARC
8
DEFAULT_255_1_388
10
23.8110258
20
68.5284271
40
0.2999202
50
350.7343295
51
0.2221526
0
ARC
8
DEFAULT_255_1_388
10
23.7989346
20
68.534787
40
0.3120525
50
359.045729
51
17.2295312
0
ARC
8
DEFAULT_255_1_388
10
23.9158377
20
68.5695155
40
0.1901144
50
17.6685208
51
78.9940245
0
ARC
8
DEFAULT_255_1_388
10
23.8576737
20
68.3607011
40
0.4065575
50
76.565218
51
90.7103392
0
LINE
8
DEFAULT_255_1_388
10
23.8526335
20
68.7672274
11
23.8525244
21
68.7672274
0
ARC
8
DEFAULT_255_1_388
10
23.8279563
20
69.2759949
40
0.3696273
50
269.6064514
51
281.4533785
0
ARC
8
DEFAULT_255_1_388
10
23.8530204
20
69.1577283
40
0.2487412
50
281.2044438
51
302.5143998
0
ARC
8
DEFAULT_255_1_388
10
23.8684458
20
69.1299576
40
0.2170405
50
303.0211308
51
309.8378766
0
ARC
8
DEFAULT_255_1_388
10
23.8890575
20
69.1068486
40
0.1860946
50
309.5229446
51
356.9509628
0
ARC
8
DEFAULT_255_1_388
10
23.8144701
20
69.1175831
40
0.2612347
50
355.4699226
51
0.0498632
0
ARC
8
DEFAULT_255_1_388
10
23.7830375
20
69.1200789
40
0.2926762
50
359.5558955
51
11.2092924
0
ARC
8
DEFAULT_255_1_388
10
23.8907342
20
69.1423667
40
0.1827036
50
10.9185717
51
31.322519
0
ARC
8
DEFAULT_255_1_388
10
23.922889
20
69.1602571
40
0.1459418
50
31.8850633
51
52.1415586
0
ARC
8
DEFAULT_255_1_388
10
23.892032
20
69.1166674
40
0.1993088
50
52.8283418
51
71.9850132
0
ARC
8
DEFAULT_255_1_388
10
23.849748
20
68.9922158
40
0.3307407
50
71.686634
51
82.8453416
0
ARC
8
DEFAULT_255_1_388
10
23.8228127
20
68.7886892
40
0.536039
50
82.6981895
51
90.1730083
0
ARC
8
DEFAULT_255_1_388
10
23.8202959
20
68.8765836
40
0.4481429
50
89.8851568
51
90.0383283
0
LINE
8
DEFAULT_255_1_388
10
19.9249367
20
77.4049898
11
19.9249367
21
76.0894
0
LINE
8
DEFAULT_255_1_388
10
19.9249367
20
76.0894
11
19.7514523
21
76.0894
0
LINE
8
DEFAULT_255_1_388
10
19.7514523
20
76.0894
11
19.7514523
21
77.4049898
0
LINE
8
DEFAULT_255_1_388
10
19.7514523
20
77.4049898
11
19.9249367
21
77.4049898
0
LINE
8
DEFAULT_255_1_388
10
21.2531764
20
77.4049898
11
21.2531764
21
76.0894
0
LINE
8
DEFAULT_255_1_388
10
21.2531764
20
76.0894
11
21.0787885
21
76.0894
0
LINE
8
DEFAULT_255_1_388
10
21.0787885
20
76.0894
11
20.4164757
21
77.1031993
0
LINE
8
DEFAULT_255_1_388
10
20.4164757
20
77.1031993
11
20.4164757
21
76.0894
0
LINE
8
DEFAULT_255_1_388
10
20.4164757
20
76.0894
11
20.2420878
21
76.0894
0
LINE
8
DEFAULT_255_1_388
10
20.2420878
20
76.0894
11
20.2420878
21
77.4049898
0
LINE
8
DEFAULT_255_1_388
10
20.2420878
20
77.4049898
11
20.4164757
21
77.4049898
0
LINE
8
DEFAULT_255_1_388
10
20.4164757
20
77.4049898
11
21.0805956
21
76.3866727
0
LINE
8
DEFAULT_255_1_388
10
21.0805956
20
76.3866727
11
21.0805956
21
77.4049898
0
LINE
8
DEFAULT_255_1_388
10
21.0805956
20
77.4049898
11
21.2531764
21
77.4049898
0
LINE
8
DEFAULT_255_1_388
10
22.067288
20
77.4113148
11
22.067288
21
76.0894
0
LINE
8
DEFAULT_255_1_388
10
22.067288
20
76.0894
11
21.899225
21
76.0894
0
LINE
8
DEFAULT_255_1_388
10
21.899225
20
76.0894
11
21.899225
21
77.203495
0
LINE
8
DEFAULT_255_1_388
10
21.899225
20
77.203495
11
21.5621955
21
77.0797066
0
LINE
8
DEFAULT_255_1_388
10
21.5621955
20
77.0797066
11
21.5621955
21
77.2315055
0
LINE
8
DEFAULT_255_1_388
10
21.5621955
20
77.2315055
11
22.0410846
21
77.4113148
0
LINE
8
DEFAULT_255_1_388
10
22.0410846
20
77.4113148
11
22.067288
21
77.4113148
0
LINE
8
DEFAULT_255_1_388
10
23.1560832
20
77.4049898
11
22.6076195
21
75.9764544
0
LINE
8
DEFAULT_255_1_388
10
22.6076195
20
75.9764544
11
22.4639528
21
75.9764544
0
LINE
8
DEFAULT_255_1_388
10
22.4639528
20
75.9764544
11
23.01332
21
77.4049898
0
LINE
8
DEFAULT_255_1_388
10
23.01332
20
77.4049898
11
23.1560832
21
77.4049898
0
LINE
8
DEFAULT_255_1_388
10
24.2150607
20
76.0894
11
24.0894652
21
76.4327545
0
LINE
8
DEFAULT_255_1_388
10
24.0894652
20
76.4327545
11
23.5382909
21
76.4327545
0
LINE
8
DEFAULT_255_1_388
10
23.5382909
20
76.4327545
11
23.4145026
21
76.0894
0
LINE
8
DEFAULT_255_1_388
10
23.4145026
20
76.0894
11
23.2355968
21
76.0894
0
LINE
8
DEFAULT_255_1_388
10
23.2355968
20
76.0894
11
23.7379787
21
77.4049898
0
LINE
8
DEFAULT_255_1_388
10
23.7379787
20
77.4049898
11
23.8897775
21
77.4049898
0
LINE
8
DEFAULT_255_1_388
10
23.8897775
20
77.4049898
11
24.3930629
21
76.0894
0
LINE
8
DEFAULT_255_1_388
10
24.3930629
20
76.0894
11
24.2150607
21
76.0894
0
LINE
8
DEFAULT_255_1_388
10
23.8138781
20
77.1908451
11
23.5906977
21
76.5755177
0
LINE
8
DEFAULT_255_1_388
10
23.5906977
20
76.5755177
11
24.0379621
21
76.5755177
0
LINE
8
DEFAULT_255_1_388
10
24.0379621
20
76.5755177
11
23.8138781
21
77.1908451
0
ENDSEC
0
EOF