0
SECTION
2
HEADER
9
$MEASUREMENT
70
1
0
ENDSEC
0
SECTION
2
TABLES
0
TABLE
2
LTYPE
0
LTYPE
72
65
70
64
2
CONTINUOUS
3
______
73
0
40
0
0
ENDTAB
0
TABLE
2
LAYER
0
LAYER
2
DEFAULT_255_2_778
70
0
62
255
6
CONTINUOUS
0
ENDTAB
0
ENDSEC
0
SECTION
2
ENTITIES
0
LINE
8
DEFAULT_255_2_778
10
0.32179
20
1.8744982
11
0.56729
21
1.8741982
0
LINE
8
DEFAULT_255_2_778
10
0.56729
20
1.8741982
11
1.84149
21
1.8519982
0
LINE
8
DEFAULT_255_2_778
10
1.84149
20
1.8519982
11
3.34459
21
1.8651982
0
LINE
8
DEFAULT_255_2_778
10
3.34489
20
-0.1152018
11
34.61789
21
-0.1152018
0
LINE
8
DEFAULT_255_2_778
10
3.84069
20
1.4545982
11
34.86759
21
1.4545982
0
LINE
8
DEFAULT_255_2_778
10
3.34489
20
-0.1321018
11
3.34489
21
9.0123982
0
LINE
8
DEFAULT_255_2_778
10
3.34489
20
9.0123982
11
14.34489
21
9.1084982
0
LINE
8
DEFAULT_255_2_778
10
14.34489
20
9.1084982
11
14.34489
21
26.4497982
0
LINE
8
DEFAULT_255_2_778
10
14.84689
20
9.3404982
11
14.34889
21
9.3492982
0
LINE
8
DEFAULT_255_2_778
10
14.84079
20
21.0421982
11
32.86789
21
20.8850982
0
LINE
8
DEFAULT_255_2_778
10
32.86789
20
20.8850982
11
34.63109
21
20.9776982
0
LINE
8
DEFAULT_255_2_778
10
34.63109
20
20.9776982
11
34.63109
21
1.4545982
0
LINE
8
DEFAULT_255_2_778
10
34.63109
20
1.4545982
11
34.63079
21
1.1484982
0
LINE
8
DEFAULT_255_2_778
10
34.63079
20
1.1484982
11
34.62999
21
0.8536982
0
LINE
8
DEFAULT_255_2_778
10
34.62999
20
0.8536982
11
34.62869
21
0.5822982
0
LINE
8
DEFAULT_255_2_778
10
34.62869
20
0.5822982
11
34.62709
21
0.3443982
0
LINE
8
DEFAULT_255_2_778
10
34.62709
20
0.3443982
11
34.62529
21
0.1491982
0
LINE
8
DEFAULT_255_2_778
10
34.62529
20
0.1491982
11
34.62419
21
0.0700982
0
LINE
8
DEFAULT_255_2_778
10
34.62419
20
0.0700982
11
34.62309
21
0.0041982
0
LINE
8
DEFAULT_255_2_778
10
34.62309
20
0.0041982
11
34.62179
21
-0.0477018
0
LINE
8
DEFAULT_255_2_778
10
34.62179
20
-0.0477018
11
34.62049
21
-0.0853018
0
LINE
8
DEFAULT_255_2_778
10
34.62049
20
-0.0853018
11
34.61999
21
-0.0985018
0
LINE
8
DEFAULT_255_2_778
10
34.61999
20
-0.0985018
11
34.61939
21
-0.1080018
0
LINE
8
DEFAULT_255_2_778
10
34.61939
20
-0.1080018
11
34.61889
21
-0.1138018
0
LINE
8
DEFAULT_255_2_778
10
34.61889
20
-0.1138018
11
34.61839
21
-0.1157018
0
LINE
8
DEFAULT_255_2_778
10
0.31779
20
19.5994982
11
0.31779
21
109.9940982
0
ARC
8
DEFAULT_255_2_778
10
29.3677187
20
21.8137057
40
0.500097
50
179.9996364
51
269.9659722
0
LINE
8
DEFAULT_255_2_778
10
34.8676217
20
20.9779089
11
34.6307217
21
20.9779089
0
LINE
8
DEFAULT_255_2_778
10
29.3674217
20
21.3136089
11
34.3675217
21
21.3136089
0
ARC
8
DEFAULT_255_2_778
10
7.326485
20
24.3356986
40
4.5089499
50
179.9646751
51
194.4061769
0
ARC
8
DEFAULT_255_2_778
10
7.3018814
20
24.3333666
40
4.4845413
50
194.4555257
51
217.986971
0
ARC
8
DEFAULT_255_2_778
10
7.3242662
20
24.3445661
40
4.5090797
50
217.9240662
51
251.4623904
0
ARC
8
DEFAULT_255_2_778
10
7.3109758
20
24.3234711
40
4.4848575
50
251.5376903
51
267.1143492
0
ARC
8
DEFAULT_255_2_778
10
7.317879
20
24.4127133
40
4.5743347
50
267.084267
51
269.9957038
0
ARC
8
DEFAULT_255_2_778
10
7.3203135
20
24.3471433
40
4.5087656
50
269.9647043
51
284.4068098
0
ARC
8
DEFAULT_255_2_778
10
7.3225897
20
24.3227145
40
4.4845403
50
284.4562976
51
308.0061427
0
ARC
8
DEFAULT_255_2_778
10
7.3112971
20
24.3452192
40
4.509229
50
307.9431287
51
341.4691442
0
ARC
8
DEFAULT_255_2_778
10
7.3324232
20
24.3319285
40
4.4849782
50
341.544356
51
357.1153414
0
ARC
8
DEFAULT_255_2_778
10
7.2433914
20
24.3388224
40
4.5742446
50
357.0852222
51
359.9956925
0
LINE
8
DEFAULT_255_2_778
10
29.367636
20
21.3139785
11
29.437236
21
21.3838785
0
LINE
8
DEFAULT_255_2_778
10
29.437236
20
21.3838785
11
33.393836
21
21.3838785
0
LINE
8
DEFAULT_255_2_778
10
33.393836
20
21.3838785
11
34.367736
21
21.3139785
0
LINE
8
DEFAULT_255_2_778
10
14.840736
20
19.9151785
11
14.344636
21
19.9151785
0
LINE
8
DEFAULT_255_2_778
10
14.840736
20
21.5420785
11
29.077636
21
21.4176785
0
LINE
8
DEFAULT_255_2_778
10
28.867636
20
22.9895785
11
14.840736
21
23.1120785
0
LINE
8
DEFAULT_255_2_778
10
14.817736
20
26.8138785
11
16.367936
21
26.8138785
0
LINE
8
DEFAULT_255_2_778
10
16.367936
20
26.8138785
11
16.298336
21
26.8837785
0
LINE
8
DEFAULT_255_2_778
10
16.298336
20
26.8837785
11
14.747536
21
26.8837785
0
LINE
8
DEFAULT_255_2_778
10
14.747536
20
26.8837785
11
14.817736
21
26.8138785
0
LINE
8
DEFAULT_255_2_778
10
11.817636
20
27.3139785
11
16.792836
21
27.3139785
0
LINE
8
DEFAULT_255_2_778
10
28.867636
20
21.8137785
11
28.937436
21
21.8833785
0
LINE
8
DEFAULT_255_2_778
10
28.937436
20
21.8833785
11
28.937436
21
27.3139785
0
LINE
8
DEFAULT_255_2_778
10
28.937436
20
27.3139785
11
33.793836
21
27.3139785
0
LINE
8
DEFAULT_255_2_778
10
33.793836
20
27.3139785
11
33.793836
21
27.7139785
0
LINE
8
DEFAULT_255_2_778
10
33.793836
20
27.7139785
11
28.937436
21
27.7139785
0
LINE
8
DEFAULT_255_2_778
10
28.937436
20
27.7139785
11
28.937436
21
34.3439785
0
LINE
8
DEFAULT_255_2_778
10
11.817636
20
27.7139785
11
16.797836
21
27.7139785
0
LINE
8
DEFAULT_255_2_778
10
16.797836
20
27.7139785
11
16.797836
21
34.3439785
0
LINE
8
DEFAULT_255_2_778
10
16.797836
20
34.3439785
11
11.817636
21
34.3439785
0
LINE
8
DEFAULT_255_2_778
10
28.517836
20
111.2604785
11
32.844536
21
111.2604785
0
LINE
8
DEFAULT_255_2_778
10
32.844536
20
111.2604785
11
32.844536
21
141.1104785
0
LINE
8
DEFAULT_255_2_778
10
32.844536
20
141.1104785
11
34.344436
21
142.6103785
0
LINE
8
DEFAULT_255_2_778
10
34.344436
20
142.6103785
11
34.344436
21
110.7603785
0
LINE
8
DEFAULT_255_2_778
10
33.893936
20
36.3438785
11
33.893936
21
34.8439785
0
LINE
8
DEFAULT_255_2_778
10
33.893936
20
34.8439785
11
28.920036
21
34.8439785
0
LINE
8
DEFAULT_255_2_778
10
28.920036
20
34.8439785
11
28.937436
21
34.3439785
0
LINE
8
DEFAULT_255_2_778
10
28.937436
20
34.3439785
11
33.393836
21
34.3439785
0
LINE
8
DEFAULT_255_2_778
10
33.393836
20
34.3439785
11
33.393836
21
27.7139785
0
LINE
8
DEFAULT_255_2_778
10
2.817536
20
34.3439785
11
1.787536
21
34.3439785
0
LINE
8
DEFAULT_255_2_778
10
1.787536
20
34.3439785
11
1.287436
21
34.8439785
0
LINE
8
DEFAULT_255_2_778
10
1.287436
20
34.8439785
11
2.817536
21
34.8439785
0
LINE
8
DEFAULT_255_2_778
10
2.817536
20
34.8439785
11
2.817536
21
24.3384785
0
LINE
8
DEFAULT_255_2_778
10
11.817636
20
24.3384785
11
11.817636
21
34.8439785
0
LINE
8
DEFAULT_255_2_778
10
11.817636
20
34.8439785
11
16.815336
21
34.8439785
0
LINE
8
DEFAULT_255_2_778
10
16.815336
20
34.8439785
11
16.815336
21
36.3438785
0
ARC
8
DEFAULT_255_2_778
10
5.3118285
20
37.6008342
40
2.4942577
50
159.2078563
51
180.0632377
0
ARC
8
DEFAULT_255_2_778
10
5.3201791
20
37.5946295
40
2.5042687
50
100.459066
51
159.1429628
0
ARC
8
DEFAULT_255_2_778
10
5.3166486
20
37.5836979
40
2.5143836
50
89.9789487
51
100.3347321
0
ARC
8
DEFAULT_255_2_778
10
9.3203371
20
37.6036612
40
2.4944216
50
69.2085478
51
90.0635041
0
ARC
8
DEFAULT_255_2_778
10
9.3141283
20
37.5954051
40
2.5043458
50
10.4603575
51
69.1427984
0
ARC
8
DEFAULT_255_2_778
10
9.3028774
20
37.5988224
40
2.5147952
50
359.9831157
51
10.3372543
0
LINE
8
DEFAULT_255_2_778
10
1.2874724
20
34.8436813
11
1.2874724
21
36.3436813
0
LINE
8
DEFAULT_255_2_778
10
1.2874724
20
36.3436813
11
2.8175724
21
36.3436813
0
LINE
8
DEFAULT_255_2_778
10
2.8175724
20
36.3436813
11
2.8175724
21
37.5980813
0
LINE
8
DEFAULT_255_2_778
10
5.3175724
20
40.0980813
11
9.3175724
21
40.0980813
0
LINE
8
DEFAULT_255_2_778
10
11.8176724
20
37.5980813
11
11.8176724
21
36.3436813
0
LINE
8
DEFAULT_255_2_778
10
11.8176724
20
36.3436813
11
16.8153724
21
36.3436813
0
LINE
8
DEFAULT_255_2_778
10
16.8153724
20
36.3436813
11
16.7978724
21
36.8436813
0
LINE
8
DEFAULT_255_2_778
10
16.7978724
20
36.8436813
11
11.8176724
21
36.8436813
0
LINE
8
DEFAULT_255_2_778
10
28.9200724
20
34.8439813
11
28.9200724
21
36.3438813
0
LINE
8
DEFAULT_255_2_778
10
28.9200724
20
36.3438813
11
33.8939724
21
36.3438813
0
LINE
8
DEFAULT_255_2_778
10
33.8939724
20
36.3438813
11
33.3938724
21
36.8439813
0
LINE
8
DEFAULT_255_2_778
10
33.3938724
20
36.8439813
11
28.9374724
21
36.8439813
0
LINE
8
DEFAULT_255_2_778
10
28.9374724
20
36.8439813
11
28.9374724
21
39.1640813
0
LINE
8
DEFAULT_255_2_778
10
28.9374724
20
39.1640813
11
28.8676724
21
39.0939813
0
LINE
8
DEFAULT_255_2_778
10
1.7875546
20
43.3137617
11
1.7875546
21
36.8436617
0
LINE
8
DEFAULT_255_2_778
10
1.7875546
20
36.8436617
11
2.8178546
21
36.8436617
0
LINE
8
DEFAULT_255_2_778
10
33.7938824
20
43.3138241
11
33.7938824
21
43.7138241
0
LINE
8
DEFAULT_255_2_778
10
33.7938824
20
43.7138241
11
1.3874824
21
43.7138241
0
LINE
8
DEFAULT_255_2_778
10
1.3874824
20
43.7138241
11
1.3874824
21
43.3138241
0
LINE
8
DEFAULT_255_2_778
10
1.3874824
20
43.3138241
11
33.7938824
21
43.3138241
0
ARC
8
DEFAULT_255_2_778
10
23.3012182
20
49.8384225
40
0.1997543
50
269.9393677
51
325.6348479
0
ARC
8
DEFAULT_255_2_778
10
22.3678423
20
48.3876616
40
1.2510066
50
90.0107849
51
126.8545296
0
ARC
8
DEFAULT_255_2_778
10
19.3674468
20
48.6384488
40
0.7497806
50
270.0045896
51
306.8882107
0
ARC
8
DEFAULT_255_2_778
10
18.1707233
20
48.08833
40
0.1996618
50
208.5298701
51
270.0239631
0
ARC
8
DEFAULT_255_2_778
10
17.1176677
20
47.513423
40
1.000107
50
28.6523493
51
89.9855564
0
ARC
8
DEFAULT_255_2_778
10
17.1179598
20
47.51597
40
0.9975599
50
90.0022994
51
98.399176
0
ARC
8
DEFAULT_255_2_778
10
17.1191343
20
47.5081204
40
1.0054969
50
98.4000484
51
104.3218016
0
ARC
8
DEFAULT_255_2_778
10
17.1176077
20
47.5134029
40
1.000001
50
104.3119196
51
179.979069
0
ARC
8
DEFAULT_255_2_778
10
17.117781
20
47.514268
40
1.0001743
50
180.0286322
51
255.6803649
0
ARC
8
DEFAULT_255_2_778
10
17.1190599
20
47.5191233
40
1.0051949
50
255.6781825
51
261.6016981
0
ARC
8
DEFAULT_255_2_778
10
17.117892
20
47.5113342
40
0.9973187
50
261.6027174
51
269.9976662
0
ARC
8
DEFAULT_255_2_778
10
17.1175374
20
47.5142581
40
1.0002427
50
270.0179865
51
331.3489769
0
ARC
8
DEFAULT_255_2_778
10
18.1707532
20
46.9390644
40
0.1998037
50
89.9846309
51
151.4132809
0
ARC
8
DEFAULT_255_2_778
10
20.8674076
20
46.3890149
40
0.7498533
50
45.0029207
51
90.0000568
0
ARC
8
DEFAULT_255_2_778
10
23.4457429
20
46.6391351
40
1.2501669
50
225.0042393
51
270.0029295
0
ARC
8
DEFAULT_255_2_778
10
24.242368
20
45.2640294
40
0.1249388
50
0.0177751
51
89.9822154
0
ARC
8
DEFAULT_255_2_778
10
24.4922243
20
45.0140857
40
0.1249176
50
180.0539204
51
269.9919713
0
ARC
8
DEFAULT_255_2_778
10
25.7420892
20
45.0140858
40
0.1249176
50
270.008062
51
359.9460463
0
ARC
8
DEFAULT_255_2_778
10
25.7420679
20
46.2638293
40
0.124939
50
0.0178076
51
89.982137
0
ARC
8
DEFAULT_255_2_778
10
24.4922457
20
46.2638293
40
0.1249389
50
90.0178467
51
179.9821533
0
ARC
8
DEFAULT_255_2_778
10
24.242368
20
46.013907
40
0.1249389
50
270.0178237
51
359.9822087
0
ARC
8
DEFAULT_255_2_778
10
23.4458017
20
46.6390521
40
0.7500839
50
225.0102058
51
270.0003874
0
ARC
8
DEFAULT_255_2_778
10
22.3677249
20
46.9389477
40
0.1997561
50
179.979159
51
225.0530157
0
ARC
8
DEFAULT_255_2_778
10
22.3678501
20
46.9390209
40
0.1998811
50
176.4192985
51
180.0001685
0
ARC
8
DEFAULT_255_2_778
10
22.368039
20
46.9389785
40
0.2000723
50
157.4921519
51
176.4105552
0
ARC
8
DEFAULT_255_2_778
10
22.3679548
20
46.9392945
40
0.1998737
50
90.042434
51
157.5666076
0
ARC
8
DEFAULT_255_2_778
10
28.2343679
20
47.0142292
40
0.124939
50
0.0178859
51
89.982137
0
ARC
8
DEFAULT_255_2_778
10
28.5094072
20
46.6643336
40
0.1501005
50
180.0631531
51
243.7020463
0
ARC
8
DEFAULT_255_2_778
10
28.5092597
20
46.6648823
40
0.1505275
50
243.8448993
51
268.6081469
0
ARC
8
DEFAULT_255_2_778
10
28.5093132
20
46.6659558
40
0.151602
50
268.597781
51
269.9967473
0
ARC
8
DEFAULT_255_2_778
10
28.5095212
20
46.6636141
40
0.1492604
50
269.9168906
51
307.6073021
0
ARC
8
DEFAULT_255_2_778
10
29.6173412
20
47.5145922
40
0.1498655
50
307.419706
51
359.9908009
0
ARC
8
DEFAULT_255_2_778
10
29.6168608
20
47.5144069
40
0.1503461
50
0.0614658
51
52.4898364
0
ARC
8
DEFAULT_255_2_778
10
28.5092748
20
48.3643635
40
0.1503297
50
52.5878045
51
90.0386105
0
ARC
8
DEFAULT_255_2_778
10
28.5091804
20
48.363273
40
0.1514201
50
90.0026338
51
91.9153885
0
ARC
8
DEFAULT_255_2_778
10
28.5091663
20
48.3637887
40
0.1509042
50
91.9165605
51
116.0453668
0
ARC
8
DEFAULT_255_2_778
10
28.5089804
20
48.3650683
40
0.1496736
50
116.1965119
51
180.0383138
0
ARC
8
DEFAULT_255_2_778
10
28.2343893
20
48.0149857
40
0.1249176
50
270.0080287
51
359.9460796
0
ARC
8
DEFAULT_255_2_778
10
21.0510422
20
48.0900455
40
0.1999773
50
198.4165082
51
269.989851
0
ARC
8
DEFAULT_255_2_778
10
21.0514437
20
48.0902325
40
0.2004172
50
185.5198658
51
198.4309865
0
ARC
8
DEFAULT_255_2_778
10
21.0506883
20
48.0901259
40
0.1996551
50
179.9991713
51
185.5102587
0
ARC
8
DEFAULT_255_2_778
10
21.050652
20
48.090229
40
0.1996189
50
126.7529796
51
180.028784
0
ARC
8
DEFAULT_255_2_778
10
22.3677011
20
48.3904854
40
0.7496827
50
89.9919168
51
126.8779789
0
ARC
8
DEFAULT_255_2_778
10
23.3016653
20
48.940816
40
0.1993574
50
32.9227114
51
89.5857046
0
ARC
8
DEFAULT_255_2_778
10
23.9935312
20
49.3882559
40
0.6245849
50
212.8813413
51
269.9926543
0
ARC
8
DEFAULT_255_2_778
10
23.9934504
20
49.385824
40
0.6221531
50
270.0000622
51
276.7741813
0
ARC
8
DEFAULT_255_2_778
10
23.9929766
20
49.3890877
40
0.6254499
50
276.7820139
51
286.6522421
0
ARC
8
DEFAULT_255_2_778
10
23.9935191
20
49.388155
40
0.6244009
50
286.6290774
51
0.0111053
0
ARC
8
DEFAULT_255_2_778
10
23.9832523
20
49.3882438
40
0.6346677
50
0.0029113
51
0.3723372
0
ARC
8
DEFAULT_255_2_778
10
23.9934567
20
49.3921225
40
0.6244502
50
0.0225437
51
73.7967458
0
ARC
8
DEFAULT_255_2_778
10
23.9929762
20
49.391124
40
0.6255431
50
73.7800025
51
83.0423298
0
ARC
8
DEFAULT_255_2_778
10
23.9934639
20
49.3944817
40
0.622151
50
83.0494571
51
89.9999953
0
ARC
8
DEFAULT_255_2_778
10
23.9935499
20
49.3920269
40
0.6246059
50
90.0078843
51
147.5608021
0
LINE
8
DEFAULT_255_2_778
10
23.3010068
20
49.6386682
11
22.3676068
21
49.6386682
0
LINE
8
DEFAULT_255_2_778
10
21.6175068
20
49.3886682
11
19.8175068
21
48.0387682
0
LINE
8
DEFAULT_255_2_778
10
19.3675068
20
47.8886682
11
18.1708068
21
47.8886682
0
LINE
8
DEFAULT_255_2_778
10
18.1708068
20
47.1388682
11
20.8674068
21
47.1388682
0
LINE
8
DEFAULT_255_2_778
10
21.3976068
20
46.9192682
11
22.5618068
21
45.7550682
0
LINE
8
DEFAULT_255_2_778
10
23.4458068
20
45.3889682
11
24.2424068
21
45.3889682
0
LINE
8
DEFAULT_255_2_778
10
24.3673068
20
45.2640682
11
24.3673068
21
45.0139682
0
LINE
8
DEFAULT_255_2_778
10
24.4922068
20
44.8891682
11
25.7421068
21
44.8891682
0
LINE
8
DEFAULT_255_2_778
10
25.8670068
20
45.0139682
11
25.8670068
21
46.2638682
0
LINE
8
DEFAULT_255_2_778
10
25.7421068
20
46.3887682
11
24.4922068
21
46.3887682
0
LINE
8
DEFAULT_255_2_778
10
24.3673068
20
46.2638682
11
24.3673068
21
46.0138682
0
LINE
8
DEFAULT_255_2_778
10
24.2424068
20
45.8889682
11
23.4458068
21
45.8889682
0
LINE
8
DEFAULT_255_2_778
10
22.9155068
20
46.1085682
11
22.2266068
21
46.7975682
0
LINE
8
DEFAULT_255_2_778
10
22.3678068
20
47.1391682
11
28.2344068
21
47.1391682
0
LINE
8
DEFAULT_255_2_778
10
28.3593068
20
47.0142682
11
28.3593068
21
46.6641682
0
LINE
8
DEFAULT_255_2_778
10
28.6006068
20
46.5453682
11
29.7084068
21
47.3955682
0
LINE
8
DEFAULT_255_2_778
10
29.7084068
20
47.6336682
11
28.6006068
21
48.4837682
0
LINE
8
DEFAULT_255_2_778
10
28.3593068
20
48.3649682
11
28.3593068
21
48.0148682
0
LINE
8
DEFAULT_255_2_778
10
28.2344068
20
47.8900682
11
21.0510068
21
47.8900682
0
LINE
8
DEFAULT_255_2_778
10
20.9312068
20
48.2501682
11
21.9178068
21
48.9901682
0
LINE
8
DEFAULT_255_2_778
10
22.3678068
20
49.1401682
11
23.3031068
21
49.1401682
0
LINE
8
DEFAULT_255_2_778
10
33.7938824
20
51.3138241
11
33.7938824
21
51.7138241
0
LINE
8
DEFAULT_255_2_778
10
33.7938824
20
51.7138241
11
1.3874824
21
51.7138241
0
LINE
8
DEFAULT_255_2_778
10
1.3874824
20
51.7138241
11
1.3874824
21
51.3138241
0
LINE
8
DEFAULT_255_2_778
10
1.3874824
20
51.3138241
11
33.7938824
21
51.3138241
0
ARC
8
DEFAULT_255_2_778
10
13.8680372
20
97.6647531
40
12.4994165
50
106.3283349
51
114.9910176
0
ARC
8
DEFAULT_255_2_778
10
13.8665503
20
97.6675059
40
12.4963565
50
93.1752182
51
106.3253411
0
ARC
8
DEFAULT_255_2_778
10
13.8675169
20
97.6568446
40
12.507055
50
89.9999901
51
93.1769343
0
LINE
8
DEFAULT_255_2_778
10
13.867519
20
110.1638996
11
13.8690836
21
110.1638995
0
ARC
8
DEFAULT_255_2_778
10
13.8678825
20
97.6631447
40
12.5007549
50
75.2377058
51
89.9944948
0
ARC
8
DEFAULT_255_2_778
10
13.8682098
20
97.6669174
40
12.4970232
50
66.2966233
51
75.2347497
0
ARC
8
DEFAULT_255_2_778
10
13.8577962
20
97.6421813
40
12.5238587
50
65.013508
51
66.2984939
0
LINE
8
DEFAULT_255_2_778
10
24.0876315
20
110.7602996
11
0.1947315
21
110.7602996
0
LINE
8
DEFAULT_255_2_778
10
0.1947315
20
110.7602996
11
0.1947315
21
142.2602996
0
LINE
8
DEFAULT_255_2_778
10
0.1947315
20
142.2602996
11
0.6948315
21
142.2602996
0
LINE
8
DEFAULT_255_2_778
10
0.3217315
20
110.4610996
11
0.3217315
21
110.0141996
0
LINE
8
DEFAULT_255_2_778
10
0.3217315
20
0.1268996
11
0.3217315
21
19.6001996
0
LINE
8
DEFAULT_255_2_778
10
0.6651315
20
110.4636996
11
0.3217315
21
110.4575996
0
LINE
8
DEFAULT_255_2_778
10
0.3217315
20
110.4575996
11
0.3217315
21
110.7602996
0
LINE
8
DEFAULT_255_2_778
10
0.5672315
20
19.1660996
11
0.5672315
21
-0.1139004
0
LINE
8
DEFAULT_255_2_778
10
0.5672315
20
-0.1139004
11
1.8415315
21
-0.1361004
0
LINE
8
DEFAULT_255_2_778
10
1.8415315
20
-0.1361004
11
3.3446315
21
-0.1229004
0
LINE
8
DEFAULT_255_2_778
10
0.5715315
20
145.0846996
11
0.5712315
21
142.2602996
0
LINE
8
DEFAULT_255_2_778
10
0.8448315
20
110.7602996
11
0.8448315
21
142.6102996
0
LINE
8
DEFAULT_255_2_778
10
0.8448315
20
142.6102996
11
2.3447315
21
141.1103996
0
LINE
8
DEFAULT_255_2_778
10
2.3447315
20
141.1103996
11
2.3447315
21
111.2603996
0
LINE
8
DEFAULT_255_2_778
10
2.3447315
20
111.2603996
11
1.8446315
21
110.7602996
0
LINE
8
DEFAULT_255_2_778
10
1.2874315
20
110.4827996
11
1.2874315
21
108.9938996
0
LINE
8
DEFAULT_255_2_778
10
1.2874315
20
108.9938996
11
8.5873315
21
108.9938996
0
LINE
8
DEFAULT_255_2_778
10
19.1479315
20
108.9938996
11
22.2377315
21
108.9938996
0
LINE
8
DEFAULT_255_2_778
10
33.7938824
20
75.3138241
11
33.7938824
21
75.7138241
0
LINE
8
DEFAULT_255_2_778
10
33.7938824
20
75.7138241
11
1.3874824
21
75.7138241
0
LINE
8
DEFAULT_255_2_778
10
1.3874824
20
75.7138241
11
1.3874824
21
75.3138241
0
LINE
8
DEFAULT_255_2_778
10
1.3874824
20
75.3138241
11
33.7938824
21
75.3138241
0
LINE
8
DEFAULT_255_2_778
10
33.7938824
20
67.3138282
11
33.7938824
21
67.7139282
0
LINE
8
DEFAULT_255_2_778
10
33.7938824
20
67.7139282
11
1.3874824
21
67.7139282
0
LINE
8
DEFAULT_255_2_778
10
1.3874824
20
67.7139282
11
1.3874824
21
67.3138282
0
LINE
8
DEFAULT_255_2_778
10
1.3874824
20
67.3138282
11
33.7938824
21
67.3138282
0
LINE
8
DEFAULT_255_2_778
10
33.7938824
20
59.3140241
11
33.7938824
21
59.7140241
0
LINE
8
DEFAULT_255_2_778
10
33.7938824
20
59.7140241
11
1.3874824
21
59.7140241
0
LINE
8
DEFAULT_255_2_778
10
1.3874824
20
59.7140241
11
1.3874824
21
59.3140241
0
LINE
8
DEFAULT_255_2_778
10
1.3874824
20
59.3140241
11
33.7938824
21
59.3140241
0
ARC
8
DEFAULT_255_2_778
10
7.314826
20
30.8606186
40
13.434354
50
292.4772908
51
300.7409614
0
ARC
8
DEFAULT_255_2_778
10
7.3211737
20
30.8471423
40
13.4194747
50
281.1919785
51
292.4742456
0
ARC
8
DEFAULT_255_2_778
10
7.3170644
20
30.8672086
40
13.439957
50
269.999739
51
281.1925598
0
ARC
8
DEFAULT_255_2_778
10
7.3169908
20
30.8663316
40
13.4390799
50
269.0492996
51
270.0000528
0
ARC
8
DEFAULT_255_2_778
10
7.3163645
20
30.8539838
40
13.4267233
50
257.4477392
51
269.0510975
0
ARC
8
DEFAULT_255_2_778
10
7.3151011
20
30.8458237
40
13.4184837
50
249.4704852
51
257.4454324
0
ARC
8
DEFAULT_255_2_778
10
7.3264435
20
30.8764221
40
13.4511165
50
245.6830845
51
249.4709473
0
LINE
8
DEFAULT_255_2_778
10
1.7874969
20
18.6186653
11
1.7874969
21
19.3139653
0
LINE
8
DEFAULT_255_2_778
10
1.7874969
20
43.7141653
11
1.7874969
21
51.3139653
0
LINE
8
DEFAULT_255_2_778
10
1.7874969
20
51.7140653
11
1.7874969
21
59.3139653
0
LINE
8
DEFAULT_255_2_778
10
1.7874969
20
59.7139653
11
1.7874969
21
67.3138653
0
LINE
8
DEFAULT_255_2_778
10
1.7874969
20
67.7139653
11
1.7874969
21
75.3138653
0
LINE
8
DEFAULT_255_2_778
10
1.7874969
20
75.7138653
11
1.7874969
21
83.3137653
0
LINE
8
DEFAULT_255_2_778
10
1.7874969
20
83.7140653
11
1.7874969
21
108.9939653
0
ARC
8
DEFAULT_255_2_778
10
14.8177102
20
26.3138381
40
0.5000329
50
89.9922997
51
179.9733055
0
ARC
8
DEFAULT_255_2_778
10
14.5907405
20
8.995499
40
0.2500371
50
270.4896846
51
359.9935989
0
ARC
8
DEFAULT_255_2_778
10
22.385626
20
78.779304
40
0.0973444
50
133.4522259
51
165.989529
0
ARC
8
DEFAULT_255_2_778
10
22.691545
20
78.3124905
40
0.6603206
50
109.0172762
51
118.0457907
0
ARC
8
DEFAULT_255_2_778
10
23.3001619
20
75.3313412
40
3.7139433
50
90.1540327
51
95.8909864
0
LINE
8
DEFAULT_255_2_778
10
1.8417774
20
1.8519711
11
1.8417774
21
18.5717711
0
LINE
8
DEFAULT_255_2_778
10
33.8938774
20
110.4745711
11
33.8938774
21
108.9939711
0
LINE
8
DEFAULT_255_2_778
10
33.8938774
20
108.9939711
11
31.2377774
21
108.9939711
0
LINE
8
DEFAULT_255_2_778
10
3.5906774
20
-0.1151289
11
3.5906774
21
1.2624711
0
LINE
8
DEFAULT_255_2_778
10
14.3176774
20
19.5989711
11
14.3176774
21
26.3140711
0
LINE
8
DEFAULT_255_2_778
10
3.8406774
20
-0.1151289
11
3.8406774
21
8.6515711
0
LINE
8
DEFAULT_255_2_778
10
3.8406774
20
8.6515711
11
14.5928774
21
8.7454711
0
LINE
8
DEFAULT_255_2_778
10
14.8407774
20
8.9954711
11
14.8407774
21
26.8140711
0
LINE
8
DEFAULT_255_2_778
10
31.1919774
20
109.2548711
11
31.2377774
21
109.3461711
0
LINE
8
DEFAULT_255_2_778
10
31.2377774
20
109.3461711
11
31.2377774
21
83.7137711
0
LINE
8
DEFAULT_255_2_778
10
31.2377774
20
83.7137711
11
1.3874774
21
83.7137711
0
LINE
8
DEFAULT_255_2_778
10
1.3874774
20
83.7137711
11
1.3874774
21
83.3137711
0
LINE
8
DEFAULT_255_2_778
10
1.3874774
20
83.3137711
11
31.2374774
21
83.3137711
0
LINE
8
DEFAULT_255_2_778
10
31.2374774
20
83.3137711
11
31.2374774
21
77.7421711
0
LINE
8
DEFAULT_255_2_778
10
22.2834774
20
80.4393711
11
22.2845774
21
80.0009711
0
LINE
8
DEFAULT_255_2_778
10
22.2845774
20
80.0009711
11
22.2887774
21
79.0520711
0
LINE
8
DEFAULT_255_2_778
10
22.2887774
20
79.0520711
11
22.2911774
21
78.8071711
0
LINE
8
DEFAULT_255_2_778
10
22.2911774
20
78.8071711
11
22.2911774
21
78.8028711
0
LINE
8
DEFAULT_255_2_778
10
22.3186774
20
78.8499711
11
22.3456774
21
78.8729711
0
LINE
8
DEFAULT_255_2_778
10
22.3456774
20
78.8729711
11
22.3810774
21
78.8952711
0
LINE
8
DEFAULT_255_2_778
10
22.4763774
20
78.9367711
11
22.6009774
21
78.9732711
0
LINE
8
DEFAULT_255_2_778
10
22.6009774
20
78.9732711
11
22.7501774
21
79.0031711
0
LINE
8
DEFAULT_255_2_778
10
22.7501774
20
79.0031711
11
22.9189774
21
79.0256711
0
LINE
8
DEFAULT_255_2_778
10
22.2376774
20
79.9604711
11
21.9876774
21
79.9604711
0
LINE
8
DEFAULT_255_2_778
10
21.9876774
20
79.9604711
11
21.9876774
21
77.1269711
0
LINE
8
DEFAULT_255_2_778
10
21.9876774
20
77.1269711
11
22.2315774
21
77.1269711
0
ARC
8
DEFAULT_255_2_778
10
22.9874549
20
109.3465521
40
0.7496356
50
90.0083329
51
135.0363961
0
ARC
8
DEFAULT_255_2_778
10
22.9863979
20
109.3468853
40
0.7486525
50
134.9972807
51
180.0033072
0
ARC
8
DEFAULT_255_2_778
10
22.9491713
20
109.3466535
40
0.7114259
50
179.9848106
51
180.0455697
0
ARC
8
DEFAULT_255_2_778
10
14.0318868
20
97.6555304
40
9.5069171
50
21.6835948
51
30.3283088
0
ARC
8
DEFAULT_255_2_778
10
14.0487101
20
97.6629725
40
9.4885345
50
10.1060621
51
21.6793703
0
ARC
8
DEFAULT_255_2_778
10
14.0288089
20
97.6593528
40
9.508762
50
359.999005
51
10.1064928
0
ARC
8
DEFAULT_255_2_778
10
14.0347613
20
97.6585668
40
9.5028095
50
343.5550002
51
0.0037433
0
ARC
8
DEFAULT_255_2_778
10
14.0489576
20
97.6553186
40
9.4882745
50
334.0390857
51
343.549544
0
ARC
8
DEFAULT_255_2_778
10
14.0183692
20
97.6700801
40
9.5222381
50
329.6751853
51
334.0397976
0
LINE
8
DEFAULT_255_2_778
10
22.2377458
20
109.3460877
11
22.2377458
21
102.4560877
0
LINE
8
DEFAULT_255_2_778
10
22.2377458
20
92.8622877
11
22.2377458
21
83.7137877
0
LINE
8
DEFAULT_255_2_778
10
22.2377458
20
83.3137877
11
22.2377458
21
77.0475877
0
LINE
8
DEFAULT_255_2_778
10
23.8842458
20
80.2511877
11
23.8837458
21
80.4392877
0
LINE
8
DEFAULT_255_2_778
10
23.8837458
20
80.4392877
11
22.2835458
21
80.4392877
0
LINE
8
DEFAULT_255_2_778
10
22.2835458
20
80.4392877
11
22.2835458
21
83.3137877
0
ARC
8
DEFAULT_255_2_778
10
30.659943
20
77.6021705
40
0.5497766
50
311.0145585
51
334.2520559
0
ARC
8
DEFAULT_255_2_778
10
30.4563694
20
77.8398689
40
0.8627288
50
292.6951489
51
310.8561798
0
ARC
8
DEFAULT_255_2_778
10
22.6526125
20
79.5925611
40
0.579536
50
109.5341024
51
119.7047793
0
ARC
8
DEFAULT_255_2_778
10
22.3711243
20
79.9908724
40
0.0869746
50
137.7595416
51
173.3525748
0
LINE
8
DEFAULT_255_2_778
10
23.2833343
20
102.7318405
11
22.2834343
21
102.4688405
0
LINE
8
DEFAULT_255_2_778
10
31.4877343
20
77.5276405
11
31.4293343
21
77.5270405
0
LINE
8
DEFAULT_255_2_778
10
31.4293343
20
77.5270405
11
31.4293343
21
77.7199405
0
LINE
8
DEFAULT_255_2_778
10
31.4293343
20
77.7199405
11
31.2377343
21
77.7300405
0
LINE
8
DEFAULT_255_2_778
10
31.1919343
20
83.3137405
11
31.1919343
21
80.4393405
0
LINE
8
DEFAULT_255_2_778
10
31.1919343
20
80.4393405
11
29.6126343
21
80.4393405
0
LINE
8
DEFAULT_255_2_778
10
29.6126343
20
80.4393405
11
29.6126343
21
77.0439405
0
LINE
8
DEFAULT_255_2_778
10
29.6126343
20
77.0439405
11
31.2202343
21
77.0439405
0
LINE
8
DEFAULT_255_2_778
10
31.2202343
20
77.0439405
11
31.2115343
21
77.3633405
0
LINE
8
DEFAULT_255_2_778
10
31.2115343
20
77.3633405
11
31.1551343
21
77.3633405
0
LINE
8
DEFAULT_255_2_778
10
23.9876343
20
77.5440405
11
23.9876343
21
77.1273405
0
LINE
8
DEFAULT_255_2_778
10
23.9876343
20
77.1273405
11
23.8802343
21
77.1273405
0
LINE
8
DEFAULT_255_2_778
10
29.4877343
20
77.5440405
11
29.4877343
21
77.1273405
0
LINE
8
DEFAULT_255_2_778
10
29.4877343
20
77.1273405
11
29.6126343
21
77.1273405
0
LINE
8
DEFAULT_255_2_778
10
29.6126343
20
77.5440405
11
23.8857343
21
77.5440405
0
LINE
8
DEFAULT_255_2_778
10
23.8839343
20
80.2515405
11
23.2840343
21
80.2515405
0
LINE
8
DEFAULT_255_2_778
10
23.2840343
20
80.2515405
11
23.2896343
21
79.0450405
0
LINE
8
DEFAULT_255_2_778
10
23.2896343
20
79.0450405
11
23.8894343
21
79.0450405
0
LINE
8
DEFAULT_255_2_778
10
23.8894343
20
79.0450405
11
23.8839343
21
80.2515405
0
LINE
8
DEFAULT_255_2_778
10
23.2830343
20
83.3137405
11
23.2830343
21
80.4393405
0
LINE
8
DEFAULT_255_2_778
10
23.2830343
20
80.4393405
11
23.2840343
21
80.2515405
0
LINE
8
DEFAULT_255_2_778
10
23.2840343
20
80.2515405
11
23.0912343
21
80.2459405
0
LINE
8
DEFAULT_255_2_778
10
23.0912343
20
80.2459405
11
22.9054343
21
80.2311405
0
LINE
8
DEFAULT_255_2_778
10
22.9054343
20
80.2311405
11
22.7340343
21
80.2078405
0
LINE
8
DEFAULT_255_2_778
10
22.7340343
20
80.2078405
11
22.5832343
21
80.1766405
0
LINE
8
DEFAULT_255_2_778
10
22.5832343
20
80.1766405
11
22.4588343
21
80.1387405
0
LINE
8
DEFAULT_255_2_778
10
22.3654343
20
80.0959405
11
22.3316343
21
80.0729405
0
LINE
8
DEFAULT_255_2_778
10
22.3316343
20
80.0729405
11
22.3067343
21
80.0493405
0
LINE
8
DEFAULT_255_2_778
10
23.4878343
20
110.4428405
11
23.4878343
21
110.2327405
0
ARC
8
DEFAULT_255_2_778
10
28.3678272
20
39.0939492
40
0.5000971
50
0.0340433
51
90.0003652
0
ARC
8
DEFAULT_255_2_778
10
31.1051263
20
79.9907107
40
0.0866691
50
6.5827997
51
42.3054974
0
ARC
8
DEFAULT_255_2_778
10
30.8330739
20
79.6147173
40
0.5552218
50
60.0191596
51
70.6408044
0
ARC
8
DEFAULT_255_2_778
10
30.6054165
20
79.0072132
40
1.2039176
50
70.0028646
51
76.1934885
0
ARC
8
DEFAULT_255_2_778
10
14.0334867
20
97.6567709
40
10.5506341
50
20.1150594
51
28.752099
0
ARC
8
DEFAULT_255_2_778
10
14.0466695
20
97.6623406
40
10.5363401
50
8.2851681
51
20.1112732
0
ARC
8
DEFAULT_255_2_778
10
14.0292492
20
97.65959
40
10.5539748
50
359.9994911
51
8.2863165
0
ARC
8
DEFAULT_255_2_778
10
14.0358315
20
97.6589396
40
10.5473925
50
344.0028126
51
0.003024
0
ARC
8
DEFAULT_255_2_778
10
14.0466218
20
97.6567478
40
10.5364163
50
334.4573495
51
343.9980993
0
ARC
8
DEFAULT_255_2_778
10
14.016364
20
97.6708753
40
10.5698083
50
331.2514223
51
334.4589748
0
ARC
8
DEFAULT_255_2_778
10
31.0942475
20
62.590127
40
0.9962817
50
269.9181321
51
311.647603
0
ARC
8
DEFAULT_255_2_778
10
31.0951433
20
62.592892
40
0.9977557
50
311.5036522
51
358.2691355
0
ARC
8
DEFAULT_255_2_778
10
31.0738002
20
62.5940366
40
1.0191238
50
358.2410549
51
0.0005447
0
ARC
8
DEFAULT_255_2_778
10
31.0966059
20
70.5954067
40
0.9963191
50
359.916016
51
41.6459452
0
ARC
8
DEFAULT_255_2_778
10
31.0939784
20
70.5963876
40
0.9976339
50
41.5035703
51
88.2692494
0
ARC
8
DEFAULT_255_2_778
10
31.0928337
20
70.5752872
40
1.0187593
50
88.2407389
51
90.0005447
0
ARC
8
DEFAULT_255_2_778
10
4.0913795
20
70.5976901
40
0.9963573
50
89.9169325
51
131.6421289
0
ARC
8
DEFAULT_255_2_778
10
4.0903376
20
70.5951206
40
0.9975883
50
131.4993517
51
178.269997
0
ARC
8
DEFAULT_255_2_778
10
4.1118247
20
70.5939562
40
1.0191008
50
178.2410303
51
180.000554
0
ARC
8
DEFAULT_255_2_778
10
4.0891999
20
62.5926018
40
0.996477
50
179.9169422
51
221.6424919
0
ARC
8
DEFAULT_255_2_778
10
4.0917026
20
62.5914662
40
0.9975959
50
221.4982452
51
268.2672879
0
ARC
8
DEFAULT_255_2_778
10
4.0928143
20
62.6126055
40
1.0187592
50
268.2407388
51
270.0005446
0
ARC
8
DEFAULT_255_2_778
10
32.8306797
20
-0.1095868
40
0.0062514
50
297.0639524
51
11.4551709
0
LINE
8
DEFAULT_255_2_778
10
32.8368066
20
-0.1083453
11
32.8368214
21
-0.108231
0
ARC
8
DEFAULT_255_2_778
10
32.9726584
20
-0.1257631
40
0.1369637
50
172.3176579
51
172.6456601
0
ARC
8
DEFAULT_255_2_778
10
32.9738909
20
-0.1189275
40
0.1374466
50
169.3365968
51
175.2114863
0
ARC
8
DEFAULT_255_2_778
10
32.1327077
20
0.0379681
40
0.7182437
50
349.453499
51
349.9560063
0
ARC
8
DEFAULT_255_2_778
10
32.7215356
20
-0.0668802
40
0.1201554
50
350.2169711
51
351.3488494
0
ARC
8
DEFAULT_255_2_778
10
32.4682191
20
-0.0362063
40
0.3752843
50
352.5364953
51
356.7811172
0
ARC
8
DEFAULT_255_2_778
10
29.5305573
20
0.1583739
40
3.3193668
50
356.2749845
51
356.4414583
0
LINE
8
DEFAULT_255_2_778
10
29.612724
20
79.0450463
11
30.185824
21
79.0450463
0
LINE
8
DEFAULT_255_2_778
10
30.185824
20
79.0450463
11
30.191324
21
80.2515463
0
LINE
8
DEFAULT_255_2_778
10
30.191324
20
80.2515463
11
29.612924
21
80.2515463
0
LINE
8
DEFAULT_255_2_778
10
31.237824
20
79.9604463
11
31.487824
21
79.9604463
0
LINE
8
DEFAULT_255_2_778
10
31.487824
20
79.9604463
11
31.487824
21
77.1270463
0
LINE
8
DEFAULT_255_2_778
10
31.487824
20
77.1270463
11
31.227224
21
77.1270463
0
LINE
8
DEFAULT_255_2_778
10
28.867924
20
39.0942463
11
28.867924
21
21.8140463
0
LINE
8
DEFAULT_255_2_778
10
31.169224
20
80.0490463
11
31.144324
21
80.0726463
0
LINE
8
DEFAULT_255_2_778
10
31.144324
20
80.0726463
11
31.110524
21
80.0956463
0
LINE
8
DEFAULT_255_2_778
10
30.892724
20
80.1763463
11
30.741924
21
80.2075463
0
LINE
8
DEFAULT_255_2_778
10
30.741924
20
80.2075463
11
30.570524
21
80.2308463
0
LINE
8
DEFAULT_255_2_778
10
30.570524
20
80.2308463
11
30.384524
21
80.2456463
0
LINE
8
DEFAULT_255_2_778
10
30.384524
20
80.2456463
11
30.191624
21
80.2512463
0
LINE
8
DEFAULT_255_2_778
10
30.191624
20
80.2512463
11
30.192624
21
80.4390463
0
LINE
8
DEFAULT_255_2_778
10
30.192624
20
80.4390463
11
30.192624
21
83.3135463
0
LINE
8
DEFAULT_255_2_778
10
30.192424
20
83.7141463
11
30.192424
21
109.2464463
0
LINE
8
DEFAULT_255_2_778
10
30.192424
20
109.2464463
11
23.283324
21
109.2464463
0
LINE
8
DEFAULT_255_2_778
10
23.283324
20
109.2464463
11
23.283324
21
102.7318463
0
LINE
8
DEFAULT_255_2_778
10
23.283324
20
92.5871463
11
23.283324
21
83.7141463
0
LINE
8
DEFAULT_255_2_778
10
32.092924
20
62.5940463
11
32.092924
21
70.5939463
0
LINE
8
DEFAULT_255_2_778
10
31.092824
20
71.5940463
11
4.092824
21
71.5940463
0
LINE
8
DEFAULT_255_2_778
10
3.092724
20
70.5939463
11
3.092724
21
62.5940463
0
LINE
8
DEFAULT_255_2_778
10
4.092824
20
61.5938463
11
31.092824
21
61.5938463
0
LINE
8
DEFAULT_255_2_778
10
32.843524
20
-0.0476537
11
32.846724
21
0.0041463
0
LINE
8
DEFAULT_255_2_778
10
32.846724
20
0.0041463
11
32.849624
21
0.0700463
0
LINE
8
DEFAULT_255_2_778
10
32.849624
20
0.0700463
11
32.852524
21
0.1491463
0
LINE
8
DEFAULT_255_2_778
10
32.852524
20
0.1491463
11
32.857824
21
0.3444463
0
LINE
8
DEFAULT_255_2_778
10
32.857824
20
0.3444463
11
32.862024
21
0.5822463
0
LINE
8
DEFAULT_255_2_778
10
32.862024
20
0.5822463
11
32.865224
21
0.8537463
0
LINE
8
DEFAULT_255_2_778
10
32.865224
20
0.8537463
11
32.867124
21
1.1487463
0
LINE
8
DEFAULT_255_2_778
10
32.867124
20
1.1487463
11
32.867624
21
1.4548463
0
LINE
8
DEFAULT_255_2_778
10
32.867624
20
1.4548463
11
32.867624
21
20.8853463
0
LINE
8
DEFAULT_255_2_778
10
29.645524
20
110.5783463
11
32.867924
21
110.5783463
0
LINE
8
DEFAULT_255_2_778
10
32.867924
20
110.5783463
11
32.867924
21
110.7603463
0
ARC
8
DEFAULT_255_2_778
10
30.7880444
20
78.3219713
40
0.6499423
50
61.8296352
51
71.0061581
0
ARC
8
DEFAULT_255_2_778
10
31.0903302
20
78.7790596
40
0.0973444
50
14.010471
51
46.5477741
0
ARC
8
DEFAULT_255_2_778
10
32.0013704
20
83.7811897
40
1.3925306
50
359.6764698
51
359.9985259
0
ARC
8
DEFAULT_255_2_778
10
32.0060503
20
83.7811557
40
1.3878506
50
359.9999259
51
10.6535089
0
ARC
8
DEFAULT_255_2_778
10
32.5690267
20
83.8963805
40
0.8133284
50
10.0080872
51
28.7374854
0
ARC
8
DEFAULT_255_2_778
10
32.8298331
20
84.0406809
40
0.515267
50
28.6116002
51
58.1839447
0
ARC
8
DEFAULT_255_2_778
10
32.8574475
20
84.0503736
40
0.4928146
50
60.3184694
51
85.7611456
0
ARC
8
DEFAULT_255_2_778
10
32.84669
20
83.9823922
40
0.5614343
50
85.1791012
51
90.0011431
0
ARC
8
DEFAULT_255_2_778
10
19.624901
20
92.042548
40
16.0612818
50
329.0122773
51
341.4134514
0
ARC
8
DEFAULT_255_2_778
10
19.6143125
20
92.0405155
40
16.0728766
50
18.5910391
51
30.9832321
0
LINE
8
DEFAULT_255_2_778
10
30.1857788
20
79.0450266
11
30.5569788
21
79.0254266
0
LINE
8
DEFAULT_255_2_778
10
30.5569788
20
79.0254266
11
30.7257788
21
79.0029266
0
LINE
8
DEFAULT_255_2_778
10
30.7257788
20
79.0029266
11
30.8749788
21
78.9730266
0
LINE
8
DEFAULT_255_2_778
10
30.8749788
20
78.9730266
11
30.9995788
21
78.9365266
0
LINE
8
DEFAULT_255_2_778
10
31.0948788
20
78.8949266
11
31.1302788
21
78.8727266
0
LINE
8
DEFAULT_255_2_778
10
31.1302788
20
78.8727266
11
31.1572788
21
78.8497266
0
LINE
8
DEFAULT_255_2_778
10
31.1847788
20
78.8026266
11
31.1871788
21
79.0518266
0
LINE
8
DEFAULT_255_2_778
10
31.1871788
20
79.0518266
11
31.1914788
21
80.0006266
0
LINE
8
DEFAULT_255_2_778
10
31.1914788
20
80.0006266
11
31.1924788
21
80.4391266
0
LINE
8
DEFAULT_255_2_778
10
32.8466788
20
84.5438266
11
31.2374788
21
84.5438266
0
LINE
8
DEFAULT_255_2_778
10
33.3938788
20
21.3838266
11
33.3938788
21
27.3139266
0
LINE
8
DEFAULT_255_2_778
10
33.3938788
20
36.8437266
11
33.3938788
21
43.3138266
0
LINE
8
DEFAULT_255_2_778
10
33.3938788
20
43.7141266
11
33.3938788
21
51.3140266
0
LINE
8
DEFAULT_255_2_778
10
33.3938788
20
51.7140266
11
33.3938788
21
59.3139266
0
LINE
8
DEFAULT_255_2_778
10
33.3938788
20
59.7140266
11
33.3938788
21
67.3139266
0
LINE
8
DEFAULT_255_2_778
10
33.3938788
20
67.7139266
11
33.3938788
21
75.3138266
0
LINE
8
DEFAULT_255_2_778
10
33.3938788
20
75.7139266
11
33.3938788
21
83.7733266
0
LINE
8
DEFAULT_255_2_778
10
33.3938788
20
100.3146266
11
33.3938788
21
108.9939266
0
LINE
8
DEFAULT_255_2_778
10
34.4947788
20
110.7600266
11
34.4947788
21
142.7601266
0
LINE
8
DEFAULT_255_2_778
10
34.4947788
20
142.7601266
11
0.6947788
21
142.7601266
0
LINE
8
DEFAULT_255_2_778
10
0.6947788
20
142.7601266
11
0.6947788
21
110.7600266
0
LINE
8
DEFAULT_255_2_778
10
34.6177788
20
110.4166266
11
34.6177788
21
110.5568266
0
LINE
8
DEFAULT_255_2_778
10
34.6177788
20
110.5568266
11
29.6663788
21
110.5568266
0
LINE
8
DEFAULT_255_2_778
10
34.6180788
20
145.0847266
11
34.6177788
21
142.2603266
0
LINE
8
DEFAULT_255_2_778
10
34.8677788
20
0.1348266
11
34.8677788
21
21.7584266
0
ARC
8
DEFAULT_255_2_778
10
34.3678244
20
21.8138889
40
0.4999476
50
269.993976
51
359.9830873
0
ARC
8
DEFAULT_255_2_778
10
34.3678243
20
109.9938937
40
0.4999476
50
0.0169127
51
90.0060044
0
ARC
8
DEFAULT_255_2_778
10
32.8470078
20
100.1080654
40
0.5642241
50
269.9963539
51
275.2184285
0
ARC
8
DEFAULT_255_2_778
10
32.8588654
20
100.033864
40
0.489278
50
274.625919
51
299.7660042
0
ARC
8
DEFAULT_255_2_778
10
32.8312348
20
100.046067
40
0.5139011
50
301.7650992
51
331.4094722
0
ARC
8
DEFAULT_255_2_778
10
32.5561499
20
100.1957598
40
0.8270778
50
331.4234206
51
349.8453484
0
ARC
8
DEFAULT_255_2_778
10
32.0078947
20
100.305828
40
1.3861997
50
349.3624312
51
0.0208345
0
ARC
8
DEFAULT_255_2_778
10
31.9977363
20
100.306332
40
1.3963579
50
0.0000013
51
0.3245383
0
LINE
8
DEFAULT_255_2_778
10
34.8677719
20
21.8137413
11
34.8677719
21
109.9940413
0
LINE
8
DEFAULT_255_2_778
10
34.6177719
20
110.5570413
11
34.8677719
21
110.5591413
0
LINE
8
DEFAULT_255_2_778
10
34.8677719
20
110.5591413
11
34.8677719
21
110.5591413
0
LINE
8
DEFAULT_255_2_778
10
34.8677719
20
110.5591413
11
34.8677719
21
110.7602413
0
LINE
8
DEFAULT_255_2_778
10
34.4947719
20
142.2602413
11
34.9948719
21
142.2602413
0
LINE
8
DEFAULT_255_2_778
10
34.9948719
20
142.2602413
11
34.9948719
21
110.7602413
0
LINE
8
DEFAULT_255_2_778
10
34.9948719
20
110.7602413
11
29.3877719
21
110.7602413
0
LINE
8
DEFAULT_255_2_778
10
31.2377719
20
99.5438413
11
32.8469719
21
99.5438413
0
LINE
8
DEFAULT_255_2_778
10
33.3938719
20
34.3438413
11
33.8938719
21
34.8439413
0
LINE
8
DEFAULT_255_2_778
10
0.5677719
20
19.1657413
11
0.5963719
21
19.1819413
0
LINE
8
DEFAULT_255_2_778
10
23.7018719
20
110.4488413
11
0.8172719
21
110.4938413
0
LINE
8
DEFAULT_255_2_778
10
34.3678737
20
110.4939161
11
29.7288737
21
110.4939161
0
LINE
8
DEFAULT_255_2_778
10
24.9576737
20
111.2601161
11
2.3447737
21
111.2601161
0
ARC
8
DEFAULT_255_2_778
10
0.5954943
20
0.127081
40
0.2737497
50
179.8041176
51
179.9999582
0
ARC
8
DEFAULT_255_2_778
10
0.5717198
20
0.1268522
40
0.2499755
50
179.9475261
51
268.9745461
0
ARC
8
DEFAULT_255_2_778
10
0.7916153
20
19.6090151
40
0.4547705
50
180.1383691
51
184.5282092
0
ARC
8
DEFAULT_255_2_778
10
0.8263422
20
19.6130585
40
0.4897099
50
184.6790331
51
213.7884845
0
ARC
8
DEFAULT_255_2_778
10
0.8309718
20
19.6214759
40
0.4982583
50
214.296864
51
241.9078049
0
ARC
8
DEFAULT_255_2_778
10
13.7620033
20
19.6311637
40
0.4998428
50
320.6176044
51
0.0060963
0
ARC
8
DEFAULT_255_2_778
10
14.7478793
20
26.3836836
40
0.5000333
50
90.026717
51
179.9732773
0
ARC
8
DEFAULT_255_2_778
10
29.4376218
20
21.8835926
40
0.5000758
50
180.0315872
51
269.9569536
0
ARC
8
DEFAULT_255_2_778
10
34.6178832
20
0.1347798
40
0.2499629
50
269.9915067
51
0.0084933
0
LINE
8
DEFAULT_255_2_778
10
32.8448461
20
111.2601169
11
33.3449461
21
110.7600169
0
LINE
8
DEFAULT_255_2_778
10
0.5963461
20
19.1819169
11
1.7875461
21
18.6184169
0
ARC
8
DEFAULT_255_2_778
10
6.9377768
20
104.5938231
40
0.1546227
50
89.8600147
51
180.1399407
0
ARC
8
DEFAULT_255_2_778
10
6.9386105
20
104.5938018
40
0.1546443
50
359.8679818
51
90.1689452
0
ARC
8
DEFAULT_255_2_778
10
6.9385892
20
104.5930108
40
0.154666
50
269.8389839
51
0.1610161
0
ARC
8
DEFAULT_255_2_778
10
6.9377982
20
104.5929895
40
0.1546444
50
179.8310548
51
270.1320182
0
LINE
8
DEFAULT_255_2_778
10
6.7831546
20
104.5934454
11
6.7831546
21
104.5934454
0
ARC
8
DEFAULT_255_2_778
10
13.8674768
20
107.4643231
40
0.1546227
50
89.8600147
51
180.1399407
0
ARC
8
DEFAULT_255_2_778
10
13.8683105
20
107.4643018
40
0.1546443
50
359.8679818
51
90.1689452
0
ARC
8
DEFAULT_255_2_778
10
13.8682892
20
107.4635108
40
0.154666
50
269.8389839
51
0.1610161
0
ARC
8
DEFAULT_255_2_778
10
13.8674982
20
107.4634895
40
0.1546444
50
179.8310548
51
270.1320182
0
LINE
8
DEFAULT_255_2_778
10
13.7128546
20
107.4639454
11
13.7128546
21
107.4639454
0
ARC
8
DEFAULT_255_2_778
10
20.7968768
20
104.5938231
40
0.1546227
50
89.8600147
51
180.1399407
0
ARC
8
DEFAULT_255_2_778
10
20.7977105
20
104.5938018
40
0.1546443
50
359.8679818
51
90.1689452
0
ARC
8
DEFAULT_255_2_778
10
20.7976892
20
104.5930108
40
0.154666
50
269.8389839
51
0.1610161
0
ARC
8
DEFAULT_255_2_778
10
20.7968982
20
104.5929895
40
0.1546444
50
179.8310548
51
270.1320182
0
LINE
8
DEFAULT_255_2_778
10
20.6422546
20
104.5934454
11
20.6422546
21
104.5934454
0
ARC
8
DEFAULT_255_2_778
10
30.487979
20
109.3465326
40
0.7497977
50
359.9676159
51
44.9664268
0
ARC
8
DEFAULT_255_2_778
10
30.4873584
20
109.3446216
40
0.7515877
50
45.0360662
51
89.9300068
0
ARC
8
DEFAULT_255_2_778
10
23.4547132
20
77.6611087
40
1.1732394
50
181.9831117
51
194.7192386
0
ARC
8
DEFAULT_255_2_778
10
23.0180311
20
77.838006
40
0.8608341
50
229.123661
51
247.3250034
0
ARC
8
DEFAULT_255_2_778
10
22.8162246
20
77.6026525
40
0.5508117
50
205.7899859
51
228.9747698
0
ARC
8
DEFAULT_255_2_778
10
30.0142525
20
77.6627448
40
1.1793699
50
345.2918871
51
357.9622481
0
ARC
8
DEFAULT_255_2_778
10
31.570267
20
109.2661368
40
1.3782316
50
180.0010959
51
180.8201603
0
ARC
8
DEFAULT_255_2_778
10
31.5635079
20
109.2661258
40
1.3714724
50
179.2910079
51
180.0006408
0
ARC
8
DEFAULT_255_2_778
10
31.5387236
20
109.2667083
40
1.3466827
50
174.618528
51
179.3027419
0
ARC
8
DEFAULT_255_2_778
10
30.9475175
20
109.5503756
40
0.714541
50
153.8751175
51
161.812061
0
ARC
8
DEFAULT_255_2_778
10
30.6837482
20
109.6829611
40
0.419348
50
143.3111045
51
154.2706293
0
ARC
8
DEFAULT_255_2_778
10
30.5015777
20
109.8225557
40
0.1898888
50
125.3637772
51
144.2460357
0
ARC
8
DEFAULT_255_2_778
10
30.4505595
20
109.8948532
40
0.1014033
50
97.4128974
51
125.4984198
0
ARC
8
DEFAULT_255_2_778
10
30.4460161
20
109.2451775
40
0.7502799
50
90.0014296
51
90.652143
0
ARC
8
DEFAULT_255_2_778
10
30.4456122
20
109.2419634
40
0.7534941
50
68.6627147
51
89.9707085
0
ARC
8
DEFAULT_255_2_778
10
30.4459038
20
109.2452152
40
0.7503595
50
46.367279
51
68.5931065
0
ARC
8
DEFAULT_255_2_778
10
30.4431197
20
109.2476914
40
0.7504977
50
23.4797894
51
46.0829938
0
ARC
8
DEFAULT_255_2_778
10
30.445957
20
109.2529203
40
0.7458209
50
0.106668
51
23.1981938
0
ARC
8
DEFAULT_255_2_778
10
20.3197828
20
91.8885192
40
14.6811459
50
16.8667536
51
25.7328228
0
ARC
8
DEFAULT_255_2_778
10
21.155389
20
92.103664
40
13.8191103
50
7.2545444
51
17.0183314
0
ARC
8
DEFAULT_255_2_778
10
21.5112149
20
91.9260579
40
13.4588153
50
346.0834913
51
352.7990894
0
ARC
8
DEFAULT_255_2_778
10
20.3940197
20
92.1717619
40
14.6023427
50
337.1675727
51
346.2019966
0
ARC
8
DEFAULT_255_2_778
10
20.1595898
20
92.2833756
40
14.8617185
50
328.6159503
51
337.121693
0
ARC
8
DEFAULT_255_2_778
10
0.8086417
20
109.9958367
40
0.4912278
50
157.2362234
51
177.7982527
0
ARC
8
DEFAULT_255_2_778
10
0.8175658
20
109.9934548
40
0.50038
50
134.8975948
51
157.3801189
0
ARC
8
DEFAULT_255_2_778
10
0.8177482
20
109.995997
40
0.4987118
50
89.9852511
51
135.1185885
0
LINE
8
DEFAULT_255_2_778
10
22.2377766
20
92.8626088
11
22.2834766
21
92.8502088
0
LINE
8
DEFAULT_255_2_778
10
22.2834766
20
92.8502088
11
23.2833766
21
92.5872088
0
LINE
8
DEFAULT_255_2_778
10
22.2821766
20
77.6205088
11
22.2866766
21
77.8329088
0
LINE
8
DEFAULT_255_2_778
10
22.2866766
20
77.8329088
11
22.2898766
21
78.1227088
0
LINE
8
DEFAULT_255_2_778
10
22.2898766
20
78.1227088
11
22.2906766
21
78.8026088
0
LINE
8
DEFAULT_255_2_778
10
31.1843766
20
78.8029088
11
31.1851766
21
78.1229088
0
LINE
8
DEFAULT_255_2_778
10
31.1851766
20
78.1229088
11
31.1882766
21
77.8332088
0
LINE
8
DEFAULT_255_2_778
10
31.1882766
20
77.8332088
11
31.1928766
21
77.6208088
0
LINE
8
DEFAULT_255_2_778
10
31.1920766
20
109.2549088
11
30.1921766
21
109.2464088
0
LINE
8
DEFAULT_255_2_778
10
30.1979766
20
109.3930088
11
30.2138766
21
109.5332088
0
LINE
8
DEFAULT_255_2_778
10
30.2138766
20
109.5332088
11
30.2379766
21
109.6615088
0
LINE
8
DEFAULT_255_2_778
10
30.2379766
20
109.6615088
11
30.2686766
21
109.7734088
0
LINE
8
DEFAULT_255_2_778
10
30.1857766
20
79.0450088
11
30.1860766
21
77.9578088
0
LINE
8
DEFAULT_255_2_778
10
30.1860766
20
77.9578088
11
30.1910766
21
77.0440088
0
LINE
8
DEFAULT_255_2_778
10
32.8469766
20
99.5439088
11
33.5449766
21
98.2627088
0
LINE
8
DEFAULT_255_2_778
10
1.8454766
20
1.8520088
11
1.8444766
21
1.4626088
0
LINE
8
DEFAULT_255_2_778
10
1.8444766
20
1.4626088
11
1.8428766
21
1.0874088
0
LINE
8
DEFAULT_255_2_778
10
1.8428766
20
1.0874088
11
1.8423766
21
0.7421088
0
LINE
8
DEFAULT_255_2_778
10
1.8423766
20
0.7421088
11
1.8420766
21
0.4397088
0
LINE
8
DEFAULT_255_2_778
10
1.8420766
20
0.4397088
11
1.8420766
21
0.3079088
0
LINE
8
DEFAULT_255_2_778
10
1.8420766
20
0.3079088
11
1.8423766
21
0.1912088
0
LINE
8
DEFAULT_255_2_778
10
1.8423766
20
0.1912088
11
1.8425766
21
0.0904088
0
LINE
8
DEFAULT_255_2_778
10
1.8425766
20
0.0904088
11
1.8431766
21
0.0065088
0
LINE
8
DEFAULT_255_2_778
10
1.8431766
20
0.0065088
11
1.8436766
21
-0.0595912
0
LINE
8
DEFAULT_255_2_778
10
1.8436766
20
-0.0595912
11
1.8444766
21
-0.1071912
0
LINE
8
DEFAULT_255_2_778
10
1.8444766
20
-0.1071912
11
1.8446766
21
-0.1238912
0
LINE
8
DEFAULT_255_2_778
10
1.8446766
20
-0.1238912
11
1.8449766
21
-0.1357912
0
LINE
8
DEFAULT_255_2_778
10
1.8449766
20
-0.1357912
11
1.8452766
21
-0.1428912
0
LINE
8
DEFAULT_255_2_778
10
1.8452766
20
-0.1428912
11
1.8454766
21
-0.1452912
0
LINE
8
DEFAULT_255_2_778
10
34.6307766
20
20.9777088
11
34.6350766
21
21.4100088
0
LINE
8
DEFAULT_255_2_778
10
32.8676766
20
20.8851088
11
32.8636766
21
21.3208088
0
LINE
8
DEFAULT_255_2_778
10
0.3172766
20
109.9944088
11
0.3177766
21
110.0147088
0
LINE
8
DEFAULT_255_2_778
10
3.3448766
20
1.2604088
11
3.8409766
21
1.2646088
0
ARC
8
DEFAULT_255_2_778
10
26.7690513
20
107.1034446
40
4.5401315
50
90.3920197
51
140.4501571
0
ARC
8
DEFAULT_255_2_778
10
26.717748
20
107.130862
40
4.5126532
50
41.107303
51
89.7430201
0
ARC
8
DEFAULT_255_2_778
10
26.667615
20
107.0681517
40
4.5916797
50
39.7227243
51
41.2856164
0
ARC
8
DEFAULT_255_2_778
10
26.7226839
20
107.1301014
40
4.0203043
50
45.5851495
51
56.2852725
0
ARC
8
DEFAULT_255_2_778
10
26.7500972
20
107.1692016
40
3.9725644
50
56.3011347
51
70.4921181
0
ARC
8
DEFAULT_255_2_778
10
26.7388414
20
107.1338351
40
4.0096597
50
70.5092728
51
90.0150545
0
ARC
8
DEFAULT_255_2_778
10
26.7361487
20
107.1386257
40
4.0048695
50
89.9765504
51
113.1192792
0
ARC
8
DEFAULT_255_2_778
10
26.7261553
20
107.1677678
40
3.9741445
50
113.1517422
51
126.316943
0
ARC
8
DEFAULT_255_2_778
10
26.7607763
20
107.1210972
40
4.0322539
50
126.3205693
51
134.4053338
0
LINE
8
DEFAULT_255_2_778
10
3.8409878
20
2.1022698
11
3.3448878
21
2.0935698
0
LINE
8
DEFAULT_255_2_778
10
14.8407878
20
11.9719698
11
14.3446878
21
11.9757698
0
LINE
8
DEFAULT_255_2_778
10
14.8407878
20
10.6988698
11
14.3446878
21
10.6938698
0
LINE
8
DEFAULT_255_2_778
10
14.3446878
20
23.4543698
11
14.3176878
21
23.4541698
0
LINE
8
DEFAULT_255_2_778
10
14.3176878
20
21.4565698
11
14.3446878
21
21.4567698
0
LINE
8
DEFAULT_255_2_778
10
14.3176878
20
20.9662698
11
14.3446878
21
20.9665698
0
LINE
8
DEFAULT_255_2_778
10
1.8417878
20
110.7602698
11
1.8417878
21
110.4938698
0
LINE
8
DEFAULT_255_2_778
10
23.2378878
20
83.7137698
11
23.2378878
21
83.3137698
0
LINE
8
DEFAULT_255_2_778
10
22.6377878
20
83.3137698
11
22.6377878
21
83.7137698
0
LINE
8
DEFAULT_255_2_778
10
30.8376878
20
83.7137698
11
30.8376878
21
83.3137698
0
LINE
8
DEFAULT_255_2_778
10
30.2376878
20
83.3137698
11
30.2376878
21
83.7137698
0
LINE
8
DEFAULT_255_2_778
10
31.2099878
20
80.5437698
11
31.1959878
21
80.5437698
0
LINE
8
DEFAULT_255_2_778
10
23.9394878
20
110.0017698
11
23.2682878
21
109.9943698
0
LINE
8
DEFAULT_255_2_778
10
30.1992878
20
110.0025698
11
29.5362878
21
110.0017698
0
LINE
8
DEFAULT_255_2_778
10
23.9392878
20
110.0017698
11
29.5362878
21
110.0017698
0
ARC
8
DEFAULT_255_2_778
10
0.5718199
20
144.8346305
40
0.2500728
50
90.2457881
51
179.9838655
0
ARC
8
DEFAULT_255_2_778
10
34.6177743
20
144.8346305
40
0.2500727
50
0.0161345
51
89.7542119
0
ARC
8
DEFAULT_255_2_778
10
13.924328
20
97.678854
40
5.5565824
50
167.2715453
51
180.0417931
0
ARC
8
DEFAULT_255_2_778
10
13.8347367
20
97.696682
40
5.4652652
50
149.0491466
51
167.2469111
0
ARC
8
DEFAULT_255_2_778
10
13.8588547
20
97.6829659
40
5.4930032
50
110.1007248
51
149.0558314
0
ARC
8
DEFAULT_255_2_778
10
13.8526202
20
97.6844767
40
5.4894445
50
95.6528497
51
110.045035
0
ARC
8
DEFAULT_255_2_778
10
13.8666415
20
97.560758
40
5.6139429
50
89.9897371
51
95.6708808
0
ARC
8
DEFAULT_255_2_778
10
13.8717011
20
97.6183262
40
5.5563762
50
77.2710742
51
90.0418036
0
ARC
8
DEFAULT_255_2_778
10
13.88949
20
97.7077417
40
5.4652391
50
59.0473448
51
77.2464377
0
ARC
8
DEFAULT_255_2_778
10
13.8756887
20
97.6834797
40
5.4931444
50
20.1006095
51
59.0540489
0
ARC
8
DEFAULT_255_2_778
10
13.8774096
20
97.6897976
40
5.4893596
50
5.6529684
51
20.0448555
0
ARC
8
DEFAULT_255_2_778
10
13.7538861
20
97.6758033
40
5.6136611
50
359.989769
51
5.67092
0
ARC
8
DEFAULT_255_2_778
10
13.8111724
20
97.6707469
40
5.5563762
50
347.2710742
51
0.0418036
0
ARC
8
DEFAULT_255_2_778
10
13.9005879
20
97.652958
40
5.4652391
50
329.0473448
51
347.2464377
0
ARC
8
DEFAULT_255_2_778
10
13.8763259
20
97.6667593
40
5.4931444
50
290.1006095
51
329.0540489
0
ARC
8
DEFAULT_255_2_778
10
13.8826438
20
97.6650384
40
5.4893596
50
275.6529684
51
290.0448555
0
ARC
8
DEFAULT_255_2_778
10
13.8686495
20
97.7885619
40
5.6136611
50
269.989769
51
275.67092
0
ARC
8
DEFAULT_255_2_778
10
13.8635881
20
97.7315067
40
5.5566073
50
257.2713394
51
270.0418538
0
ARC
8
DEFAULT_255_2_778
10
13.8457407
20
97.6418361
40
5.4652085
50
239.0567443
51
257.246716
0
ARC
8
DEFAULT_255_2_778
10
13.8595105
20
97.6660198
40
5.4930306
50
200.1030453
51
239.0632628
0
ARC
8
DEFAULT_255_2_778
10
13.8579869
20
97.659789
40
5.489461
50
185.6536218
51
200.0474406
0
ARC
8
DEFAULT_255_2_778
10
13.981525
20
97.6737933
40
5.613778
50
179.9897169
51
185.6716453
0
LINE
8
DEFAULT_255_2_778
10
30.1786471
20
110.0438009
11
30.2572471
21
110.0962009
0
LINE
8
DEFAULT_255_2_778
10
30.2572471
20
110.0962009
11
30.4879471
21
110.0962009
0
LINE
8
DEFAULT_255_2_778
10
30.4879471
20
110.0962009
11
30.4376471
21
109.9957009
0
LINE
8
DEFAULT_255_2_778
10
30.4376471
20
109.9957009
11
23.0372471
21
109.9957009
0
LINE
8
DEFAULT_255_2_778
10
23.0372471
20
109.9957009
11
22.9870471
21
110.0962009
0
LINE
8
DEFAULT_255_2_778
10
22.9870471
20
110.0962009
11
23.2177471
21
110.0962009
0
LINE
8
DEFAULT_255_2_778
10
23.2177471
20
110.0962009
11
23.2963471
21
110.0438009
0
LINE
8
DEFAULT_255_2_778
10
34.3447471
20
142.6103009
11
0.8448471
21
142.6103009
0
LINE
8
DEFAULT_255_2_778
10
32.8448471
20
141.1101009
11
2.3447471
21
141.1101009
0
LINE
8
DEFAULT_255_2_778
10
0.3217471
20
142.2603009
11
0.3217471
21
144.8347009
0
LINE
8
DEFAULT_255_2_778
10
0.5707471
20
145.0847009
11
34.6188471
21
145.0847009
0
LINE
8
DEFAULT_255_2_778
10
34.8678471
20
144.8347009
11
34.8678471
21
142.2603009
0
LINE
8
DEFAULT_255_2_778
10
14.2091471
20
19.3137009
11
1.3874471
21
19.3137009
0
LINE
8
DEFAULT_255_2_778
10
1.3874471
20
19.3137009
11
1.3874471
21
19.7137009
0
LINE
8
DEFAULT_255_2_778
10
1.3874471
20
19.7137009
11
14.2478471
21
19.7137009
0
LINE
8
DEFAULT_255_2_778
10
14.2478471
20
19.7137009
11
14.2478471
21
26.3839009
0
LINE
8
DEFAULT_255_2_778
10
14.2478471
20
26.3839009
11
14.3176471
21
26.3138009
0
LINE
8
DEFAULT_255_2_778
10
8.3677471
20
97.6748009
11
8.3677471
21
97.6748009
0
ARC
8
DEFAULT_255_2_778
10
13.8999116
20
97.6871965
40
6.0322875
50
180.0000059
51
180.118033
0
ARC
8
DEFAULT_255_2_778
10
13.8553807
20
97.6871536
40
5.9877567
50
136.601373
51
179.9995959
0
ARC
8
DEFAULT_255_2_778
10
13.8590327
20
97.683348
40
5.993025
50
134.9998256
51
136.5989259
0
ARC
8
DEFAULT_255_2_778
10
13.8552575
20
97.6870443
40
5.9877419
50
91.6006727
51
134.9992917
0
ARC
8
DEFAULT_255_2_778
10
13.8552065
20
97.6812192
40
5.9935633
50
89.9999604
51
91.5986299
0
ARC
8
DEFAULT_255_2_778
10
13.85521
20
97.6424949
40
6.0322875
50
89.881967
51
89.9999941
0
ARC
8
DEFAULT_255_2_778
10
13.8711284
20
97.6522583
40
6.0225123
50
77.7408531
51
90.0332166
0
ARC
8
DEFAULT_255_2_778
10
13.8815312
20
97.7131909
40
5.960761
50
60.1337384
51
77.7142033
0
ARC
8
DEFAULT_255_2_778
10
13.8532933
20
97.6616972
40
6.0194778
50
19.8737333
51
60.1447333
0
ARC
8
DEFAULT_255_2_778
10
13.900465
20
97.6872
40
5.9664513
50
5.6016682
51
19.7974088
0
ARC
8
DEFAULT_255_2_778
10
13.7953644
20
97.6757012
40
6.0721726
50
359.991209
51
5.6128475
0
ARC
8
DEFAULT_255_2_778
10
13.844837
20
97.6712753
40
6.022701
50
347.7412696
51
0.0332418
0
ARC
8
DEFAULT_255_2_778
10
13.9058717
20
97.6608485
40
5.9608447
50
330.1344968
51
347.7146419
0
ARC
8
DEFAULT_255_2_778
10
13.8545784
20
97.6889592
40
6.0193243
50
289.8740015
51
330.1455845
0
ARC
8
DEFAULT_255_2_778
10
13.8800788
20
97.6418176
40
5.9663268
50
275.6016645
51
289.7976004
0
ARC
8
DEFAULT_255_2_778
10
13.868569
20
97.7470108
40
6.0721414
50
269.9912049
51
275.6128624
0
ARC
8
DEFAULT_255_2_778
10
13.8552081
20
97.7090425
40
6.0341858
50
270.0000059
51
270.118014
0
ARC
8
DEFAULT_255_2_778
10
13.8550862
20
97.6622205
40
5.9873638
50
226.6000127
51
270.0011724
0
ARC
8
DEFAULT_255_2_778
10
13.8590825
20
97.6659242
40
5.9928008
50
224.9973565
51
226.5965812
0
ARC
8
DEFAULT_255_2_778
10
13.8551369
20
97.6623973
40
5.987517
50
181.6007969
51
225.0001872
0
ARC
8
DEFAULT_255_2_778
10
13.8611581
20
97.6623391
40
5.9935342
50
179.99996
51
181.5986333
0
ARC
8
DEFAULT_255_2_778
10
13.8999106
20
97.6623427
40
6.0322866
50
179.881967
51
179.9999941
0
LINE
8
DEFAULT_255_2_778
10
7.8676369
20
97.6747696
11
7.8676369
21
97.6747696
0
ARC
8
DEFAULT_255_2_778
10
13.9595123
20
97.6786375
40
7.2708181
50
169.2325257
51
180.0317635
0
ARC
8
DEFAULT_255_2_778
10
13.8275345
20
97.7020171
40
7.1367963
50
154.8266566
51
169.2189695
0
ARC
8
DEFAULT_255_2_778
10
13.8581213
20
97.6840152
40
7.1721361
50
112.2900725
51
154.8004391
0
ARC
8
DEFAULT_255_2_778
10
13.843313
20
97.7058714
40
7.1462986
50
98.7426023
51
112.2466836
0
ARC
8
DEFAULT_255_2_778
10
13.8650631
20
97.5622428
40
7.2915644
50
89.9777447
51
98.7399808
0
ARC
8
DEFAULT_255_2_778
10
13.8719261
20
97.5829897
40
7.2708181
50
79.2325257
51
90.0317635
0
ARC
8
DEFAULT_255_2_778
10
13.8953057
20
97.7149675
40
7.1367963
50
64.8266566
51
79.2189695
0
ARC
8
DEFAULT_255_2_778
10
13.8773038
20
97.6843808
40
7.1721361
50
22.2900725
51
64.8004391
0
ARC
8
DEFAULT_255_2_778
10
13.89916
20
97.699189
40
7.1462986
50
8.7426023
51
22.2466836
0
ARC
8
DEFAULT_255_2_778
10
13.7555314
20
97.6774389
40
7.2915644
50
359.9777447
51
8.7399808
0
ARC
8
DEFAULT_255_2_778
10
13.7762783
20
97.6705759
40
7.2708181
50
349.2325257
51
0.0317635
0
ARC
8
DEFAULT_255_2_778
10
13.9082561
20
97.6471963
40
7.1367963
50
334.8266566
51
349.2189695
0
ARC
8
DEFAULT_255_2_778
10
13.8776694
20
97.6651982
40
7.1721361
50
292.2900725
51
334.8004391
0
ARC
8
DEFAULT_255_2_778
10
13.8924776
20
97.643342
40
7.1462986
50
278.7426023
51
292.2466836
0
ARC
8
DEFAULT_255_2_778
10
13.8707276
20
97.7869706
40
7.2915644
50
269.9777447
51
278.7399808
0
ARC
8
DEFAULT_255_2_778
10
13.8638645
20
97.7662237
40
7.2708181
50
259.2325257
51
270.0317635
0
ARC
8
DEFAULT_255_2_778
10
13.8404849
20
97.6342459
40
7.1367963
50
244.8266566
51
259.2189695
0
ARC
8
DEFAULT_255_2_778
10
13.8584868
20
97.6648326
40
7.1721361
50
202.2900725
51
244.8004391
0
ARC
8
DEFAULT_255_2_778
10
13.8366306
20
97.6500244
40
7.1462986
50
188.7426023
51
202.2466836
0
ARC
8
DEFAULT_255_2_778
10
13.9802592
20
97.6717744
40
7.2915644
50
179.9777447
51
188.7399808
0
LINE
8
DEFAULT_255_2_778
10
6.6886953
20
97.6746067
11
6.6886953
21
97.6746067
0
ARC
8
DEFAULT_255_2_778
10
13.9257623
20
97.6933288
40
8.6859585
50
180.0006278
51
180.1223392
0
ARC
8
DEFAULT_255_2_778
10
13.8473268
20
97.693647
40
8.607523
50
160.9933297
51
180.0027512
0
ARC
8
DEFAULT_255_2_778
10
13.8481093
20
97.6940225
40
8.6081406
50
137.4635473
51
160.9973888
0
ARC
8
DEFAULT_255_2_778
10
13.8536564
20
97.6886284
40
8.6158747
50
134.9980196
51
137.462055
0
ARC
8
DEFAULT_255_2_778
10
13.847555
20
97.6960995
40
8.6062775
50
116.0774402
51
135.0044652
0
ARC
8
DEFAULT_255_2_778
10
13.8492666
20
97.6938689
40
8.6090334
50
92.4724152
51
116.0811463
0
ARC
8
DEFAULT_255_2_778
10
13.8494413
20
97.6858838
40
8.6170185
50
89.9997938
51
92.4712851
0
ARC
8
DEFAULT_255_2_778
10
13.8493771
20
97.6169437
40
8.6859585
50
89.8776608
51
89.9993722
0
ARC
8
DEFAULT_255_2_778
10
13.871619
20
97.6226193
40
8.6802639
50
79.8907867
51
90.0243927
0
ARC
8
DEFAULT_255_2_778
10
13.8900592
20
97.7373619
40
8.5640662
50
66.7347368
51
79.8774974
0
ARC
8
DEFAULT_255_2_778
10
13.8449997
20
97.6513826
40
8.6608555
50
25.3768134
51
66.6855529
0
ARC
8
DEFAULT_255_2_778
10
13.9301751
20
97.6969496
40
8.5643713
50
11.6075472
51
25.3455935
0
ARC
8
DEFAULT_255_2_778
10
13.8449542
20
97.6815618
40
8.6509459
50
1.4358621
51
11.5938116
0
ARC
8
DEFAULT_255_2_778
10
13.7031927
20
97.6748823
40
8.7928308
50
359.999349
51
1.4562261
0
ARC
8
DEFAULT_255_2_778
10
13.8160213
20
97.6710853
40
8.6800031
50
349.8905131
51
0.0244044
0
ARC
8
DEFAULT_255_2_778
10
13.9307151
20
97.6526553
40
8.5638552
50
336.7341852
51
349.8772106
0
ARC
8
DEFAULT_255_2_778
10
13.8445488
20
97.6978244
40
8.6608595
50
295.3762992
51
336.6848294
0
ARC
8
DEFAULT_255_2_778
10
13.8900621
20
97.6127145
40
8.5644576
50
281.607428
51
295.3452109
0
ARC
8
DEFAULT_255_2_778
10
13.8747004
20
97.6977965
40
8.6508907
50
271.4358582
51
281.5937094
0
ARC
8
DEFAULT_255_2_778
10
13.8680233
20
97.8392682
40
8.7924859
50
269.99935
51
271.4562546
0
ARC
8
DEFAULT_255_2_778
10
13.8490061
20
97.7327676
40
8.6860058
50
270.0006155
51
270.1247862
0
ARC
8
DEFAULT_255_2_778
10
13.8487293
20
97.6531677
40
8.6064058
50
250.9916805
51
270.0024639
0
ARC
8
DEFAULT_255_2_778
10
13.8488901
20
97.6554915
40
8.6086553
50
227.4646899
51
250.995706
0
ARC
8
DEFAULT_255_2_778
10
13.8544079
20
97.6612223
40
8.6166083
50
224.9997913
51
227.4634161
0
ARC
8
DEFAULT_255_2_778
10
13.8474375
20
97.6549361
40
8.6072343
50
206.1652877
51
225.0030114
0
ARC
8
DEFAULT_255_2_778
10
13.848651
20
97.6561236
40
8.6088474
50
182.4807624
51
206.1688197
0
ARC
8
DEFAULT_255_2_778
10
13.85652
20
97.6562911
40
8.6167162
50
179.9997339
51
182.4796107
0
ARC
8
DEFAULT_255_2_778
10
13.9257613
20
97.656236
40
8.6859575
50
179.8776608
51
179.9993722
0
LINE
8
DEFAULT_255_2_778
10
5.2398236
20
97.6747824
11
5.2398236
21
97.6747824
0
ARC
8
DEFAULT_255_2_778
10
14.0014857
20
97.6785457
40
9.1336507
50
170.6623688
51
180.0249767
0
ARC
8
DEFAULT_255_2_778
10
13.8285023
20
97.7057588
40
8.9585441
50
158.506335
51
170.654602
0
ARC
8
DEFAULT_255_2_778
10
13.8357414
20
97.6997104
40
8.9674964
50
139.3722173
51
158.4873242
0
ARC
8
DEFAULT_255_2_778
10
13.8536677
20
97.689559
40
8.9877125
50
114.3503563
51
139.397514
0
ARC
8
DEFAULT_255_2_778
10
13.8331247
20
97.7257464
40
8.946275
50
101.4863574
51
114.3260519
0
ARC
8
DEFAULT_255_2_778
10
13.8595361
20
97.5873166
40
9.087192
50
91.4603699
51
101.4757411
0
ARC
8
DEFAULT_255_2_778
10
13.8678185
20
97.4134375
40
9.2612266
50
89.9992737
51
91.4841784
0
ARC
8
DEFAULT_255_2_778
10
13.8719162
20
97.5413345
40
9.1333304
50
80.6622049
51
90.0249694
0
ARC
8
DEFAULT_255_2_778
10
13.8991074
20
97.7141914
40
8.9583523
50
68.505455
51
80.6544277
0
ARC
8
DEFAULT_255_2_778
10
13.8930084
20
97.7068339
40
8.9674332
50
49.3694555
51
68.4864218
0
ARC
8
DEFAULT_255_2_778
10
13.8827952
20
97.6888315
40
8.9877471
50
24.3490401
51
49.3947749
0
ARC
8
DEFAULT_255_2_778
10
13.9189819
20
97.7093701
40
8.9463119
50
11.4857523
51
24.3247535
0
ARC
8
DEFAULT_255_2_778
10
13.78055
20
97.6829604
40
9.0872306
50
1.4603087
51
11.4751328
0
ARC
8
DEFAULT_255_2_778
10
13.6076603
20
97.6746969
40
9.2602755
50
359.9991784
51
1.4841594
0
ARC
8
DEFAULT_255_2_778
10
13.7346064
20
97.6705838
40
9.1333304
50
350.6622049
51
0.0249694
0
ARC
8
DEFAULT_255_2_778
10
13.9074316
20
97.6433959
40
8.9583842
50
338.5055127
51
350.65444
0
ARC
8
DEFAULT_255_2_778
10
13.9000518
20
97.649504
40
8.9674891
50
319.3696571
51
338.4864769
0
ARC
8
DEFAULT_255_2_778
10
13.8821074
20
97.6596633
40
8.9877238
50
294.3493545
51
319.3949965
0
ARC
8
DEFAULT_255_2_778
10
13.902713
20
97.6233414
40
8.9461379
50
281.4859524
51
294.3250354
0
ARC
8
DEFAULT_255_2_778
10
13.8763288
20
97.7616526
40
9.0869332
50
271.4603477
51
281.4753229
0
ARC
8
DEFAULT_255_2_778
10
13.8680687
20
97.9344706
40
9.2599065
50
269.9991784
51
271.4841892
0
ARC
8
DEFAULT_255_2_778
10
13.8639543
20
97.8082138
40
9.1336506
50
260.6623688
51
270.0249767
0
ARC
8
DEFAULT_255_2_778
10
13.8367445
20
97.6352622
40
8.958576
50
248.5063927
51
260.6546143
0
ARC
8
DEFAULT_255_2_778
10
13.8427947
20
97.6425111
40
8.9675381
50
229.3744642
51
248.4873948
0
ARC
8
DEFAULT_255_2_778
10
13.8529016
20
97.6603935
40
8.987692
50
204.3516848
51
229.3997886
0
ARC
8
DEFAULT_255_2_778
10
13.8165654
20
97.6397782
40
8.9460891
50
191.4870376
51
204.3273573
0
ARC
8
DEFAULT_255_2_778
10
13.9548976
20
97.6661695
40
9.0869064
50
181.460483
51
191.4764088
0
ARC
8
DEFAULT_255_2_778
10
14.1282799
20
97.674439
40
9.260444
50
179.9992259
51
181.4842895
0
LINE
8
DEFAULT_255_2_778
10
4.8678359
20
97.6745641
11
4.8678359
21
97.6745641
0
ARC
8
DEFAULT_255_2_778
10
13.7654094
20
97.6835162
40
9.3977367
50
179.9994321
51
180.1211267
0
ARC
8
DEFAULT_255_2_778
10
13.8459154
20
97.6841042
40
9.4782426
50
162.3926442
51
180.0029911
0
ARC
8
DEFAULT_255_2_778
10
13.8472292
20
97.6842211
40
9.4794596
50
138.4625793
51
162.39572
0
ARC
8
DEFAULT_255_2_778
10
13.8517075
20
97.6797292
40
9.4857904
50
134.9995473
51
138.460207
0
ARC
8
DEFAULT_255_2_778
10
13.8461889
20
97.6856579
40
9.4776959
50
117.431908
51
135.0013004
0
ARC
8
DEFAULT_255_2_778
10
13.8478378
20
97.6835594
40
9.4803181
50
93.0345844
51
117.4349099
0
ARC
8
DEFAULT_255_2_778
10
13.8478744
20
97.6767067
40
9.4871631
50
89.9996311
51
93.0326146
0
ARC
8
DEFAULT_255_2_778
10
13.8480287
20
97.768331
40
9.3955388
50
89.8788587
51
90.000568
0
ARC
8
DEFAULT_255_2_778
10
13.9180888
20
97.6057195
40
9.5582612
50
90.0002845
51
90.300889
0
ARC
8
DEFAULT_255_2_778
10
13.919421
20
97.6686536
40
9.4953271
50
76.7749583
51
90.0083252
0
ARC
8
DEFAULT_255_2_778
10
13.9158269
20
97.6604493
40
9.5041363
50
39.0042267
51
76.7651811
0
ARC
8
DEFAULT_255_2_778
10
13.9135185
20
97.6622204
40
9.5048159
50
30.0955491
51
38.987172
0
ARC
8
DEFAULT_255_2_778
10
13.913482
20
97.6602213
40
9.5058501
50
21.526169
51
30.105864
0
ARC
8
DEFAULT_255_2_778
10
13.9296835
20
97.667355
40
9.488161
50
9.6980018
51
21.5219938
0
ARC
8
DEFAULT_255_2_778
10
13.9104099
20
97.6639441
40
9.5077337
50
359.9991248
51
9.6986976
0
ARC
8
DEFAULT_255_2_778
10
13.9166655
20
97.6631796
40
9.5014783
50
343.4383604
51
0.0037342
0
ARC
8
DEFAULT_255_2_778
10
13.9293917
20
97.6603662
40
9.488478
50
333.7290046
51
343.4327394
0
ARC
8
DEFAULT_255_2_778
10
13.898306
20
97.6754601
40
9.5230336
50
329.8978607
51
333.7303536
0
ARC
8
DEFAULT_255_2_778
10
13.9209037
20
97.6604115
40
9.4959363
50
316.6758112
51
329.9080298
0
ARC
8
DEFAULT_255_2_778
10
13.9163174
20
97.6672473
40
9.5039633
50
278.900254
51
316.6648015
0
ARC
8
DEFAULT_255_2_778
10
13.9191498
20
97.6667202
40
9.5030047
50
269.9949914
51
278.8838744
0
ARC
8
DEFAULT_255_2_778
10
13.9183663
20
97.7120079
40
9.5482923
50
269.6971317
51
269.9997165
0
ARC
8
DEFAULT_255_2_778
10
13.8476526
20
97.5605354
40
9.3967084
50
269.9994427
51
270.1234192
0
ARC
8
DEFAULT_255_2_778
10
13.8470919
20
97.6407017
40
9.4768747
50
252.3908718
51
270.0028375
0
ARC
8
DEFAULT_255_2_778
10
13.8474349
20
97.6433873
40
9.4795382
50
228.4619147
51
252.3938064
0
ARC
8
DEFAULT_255_2_778
10
13.8522949
20
97.6483452
40
9.4864721
50
224.9995524
51
228.4597997
0
ARC
8
DEFAULT_255_2_778
10
13.8450956
20
97.6419341
40
9.4768481
50
207.4755481
51
225.0029214
0
ARC
8
DEFAULT_255_2_778
10
13.8477564
20
97.6438426
40
9.4800892
50
183.0390933
51
207.4783624
0
ARC
8
DEFAULT_255_2_778
10
13.8551899
20
97.6439329
40
9.4875171
50
179.9996606
51
183.0372581
0
ARC
8
DEFAULT_255_2_778
10
13.764661
20
97.6440823
40
9.3969883
50
179.8788684
51
180.0005679
0
LINE
8
DEFAULT_255_2_778
10
4.3676938
20
97.6639489
11
4.3676938
21
97.6636489
0
LINE
8
DEFAULT_255_2_778
10
23.2843938
20
77.0436489
11
23.2893938
21
77.9575489
0
LINE
8
DEFAULT_255_2_778
10
23.2893938
20
77.9575489
11
23.2896938
21
79.0446489
0
ARC
8
DEFAULT_255_2_778
10
23.0298044
20
109.2534678
40
0.7463123
50
156.8485772
51
179.8985023
0
ARC
8
DEFAULT_255_2_778
10
23.017672
20
109.2584181
40
0.7332108
50
133.7017588
51
156.8315119
0
ARC
8
DEFAULT_255_2_778
10
23.0214305
20
109.2575004
40
0.7364741
50
111.2091921
51
133.8638209
0
ARC
8
DEFAULT_255_2_778
10
23.0308106
20
109.2335784
40
0.7621692
50
91.205381
51
111.2159889
0
ARC
8
DEFAULT_255_2_778
10
23.0298407
20
109.2472987
40
0.7484318
50
90.0016149
51
91.1532386
0
ARC
8
DEFAULT_255_2_778
10
23.0298007
20
109.2478857
40
0.7478448
50
89.4029665
51
89.9985517
0
ARC
8
DEFAULT_255_2_778
10
23.0242491
20
109.8944687
40
0.102097
50
54.5991248
51
82.4899213
0
ARC
8
DEFAULT_255_2_778
10
22.9717448
20
109.8216876
40
0.1918387
50
35.7207825
51
54.4092873
0
ARC
8
DEFAULT_255_2_778
10
22.7720866
20
109.6709705
40
0.4419676
50
26.0683207
51
36.4721077
0
ARC
8
DEFAULT_255_2_778
10
22.5239988
20
109.5511015
40
0.7174945
50
18.0730979
51
25.9608713
0
ARC
8
DEFAULT_255_2_778
10
22.1516469
20
109.4215462
40
1.1116935
50
12.4751461
51
18.4672975
0
ARC
8
DEFAULT_255_2_778
10
21.1730238
20
109.2277441
40
2.1100938
50
1.5341454
51
8.3230688
0
ARC
8
DEFAULT_255_2_778
10
21.0604857
20
109.2227038
40
2.2227273
50
0.5951082
51
1.5863604
0
LINE
8
DEFAULT_255_2_778
10
23.8897932
20
79.0449899
11
23.8892932
21
77.9577899
0
LINE
8
DEFAULT_255_2_778
10
23.8892932
20
77.9577899
11
23.8789932
21
77.0438899
0
LINE
8
DEFAULT_255_2_778
10
23.8789932
20
77.0438899
11
22.2387932
21
77.0438899
0
LINE
8
DEFAULT_255_2_778
10
23.2370932
20
109.6616899
11
23.2608932
21
109.5331899
0
ARC
8
DEFAULT_255_2_778
10
26.0524581
20
109.0063538
40
23.4987813
50
271.4258505
51
272.2877259
0
ARC
8
DEFAULT_255_2_778
10
26.3313789
20
102.2303344
40
16.7170309
50
272.2595695
51
273.8048242
0
ARC
8
DEFAULT_255_2_778
10
26.7005797
20
96.732948
40
11.2072625
50
273.7864609
51
275.9477323
0
ARC
8
DEFAULT_255_2_778
10
27.0868084
20
93.0481044
40
7.5022339
50
275.9300012
51
278.8273687
0
ARC
8
DEFAULT_255_2_778
10
27.4704162
20
90.5996113
40
5.0238761
50
278.7894651
51
282.9393113
0
ARC
8
DEFAULT_255_2_778
10
27.8496581
20
88.9668049
40
3.3476132
50
282.8709184
51
289.2098337
0
ARC
8
DEFAULT_255_2_778
10
28.1928117
20
87.9899701
40
2.3122628
50
289.1444141
51
299.054498
0
ARC
8
DEFAULT_255_2_778
10
28.3094953
20
87.7489943
40
2.0450007
50
299.4755468
51
318.9106749
0
ARC
8
DEFAULT_255_2_778
10
29.2686136
20
86.7955263
40
0.7010511
50
326.1423426
51
334.2806615
0
ARC
8
DEFAULT_255_2_778
10
29.399987
20
86.7325277
40
0.5553538
50
334.25447
51
344.5260929
0
ARC
8
DEFAULT_255_2_778
10
29.493937
20
86.7066675
40
0.45791
50
344.5081928
51
358.3814389
0
ARC
8
DEFAULT_255_2_778
10
29.5242044
20
86.7046278
40
0.4275987
50
358.5400916
51
359.9992265
0
ARC
8
DEFAULT_255_2_778
10
29.4713819
20
86.6906442
40
0.4806245
50
1.6665519
51
51.6211162
0
ARC
8
DEFAULT_255_2_778
10
29.335672
20
86.5583464
40
0.6690319
50
49.5440852
51
67.5518734
0
ARC
8
DEFAULT_255_2_778
10
29.3724539
20
86.650089
40
0.5701968
50
67.447693
51
78.0297558
0
ARC
8
DEFAULT_255_2_778
10
29.4048467
20
86.8063615
40
0.4106046
50
77.9288505
51
89.5842101
0
ARC
8
DEFAULT_255_2_778
10
29.4069142
20
86.9261637
40
0.2907932
50
89.8202772
51
98.0353905
0
ARC
8
DEFAULT_255_2_778
10
29.4011349
20
86.9725896
40
0.2440165
50
98.2154972
51
100.5914843
0
ARC
8
DEFAULT_255_2_778
10
27.7839753
20
86.9468337
40
0.4610505
50
293.5919071
51
356.1465088
0
ARC
8
DEFAULT_255_2_778
10
27.4167084
20
87.6033074
40
1.2118945
50
283.2545812
51
297.0849137
0
ARC
8
DEFAULT_255_2_778
10
27.0651251
20
89.065206
40
2.7154689
50
274.6461738
51
283.4030389
0
ARC
8
DEFAULT_255_2_778
10
26.8035502
20
91.8807401
40
5.5430351
50
271.2615021
51
274.9836729
0
ARC
8
DEFAULT_255_2_778
10
25.6590277
20
86.0745668
40
0.8384969
50
358.3654121
51
359.9942987
0
ARC
8
DEFAULT_255_2_778
10
25.8584015
20
86.0867113
40
0.6392401
50
358.9039242
51
29.0052197
0
ARC
8
DEFAULT_255_2_778
10
25.845906
20
86.0567183
40
0.6650178
50
30.7434597
51
63.0040271
0
ARC
8
DEFAULT_255_2_778
10
25.7046162
20
85.8292514
40
0.9321099
50
61.6121665
51
64.2284023
0
ARC
8
DEFAULT_255_2_778
10
25.4512224
20
87.6195521
40
0.7176197
50
249.0293053
51
258.6980323
0
ARC
8
DEFAULT_255_2_778
10
25.3577397
20
87.3796812
40
0.4601826
50
237.3369995
51
249.2089923
0
ARC
8
DEFAULT_255_2_778
10
25.2322747
20
87.1884602
40
0.231501
50
218.9936196
51
237.936584
0
ARC
8
DEFAULT_255_2_778
10
25.1576088
20
87.1239568
40
0.1329192
50
211.1950654
51
217.6353316
0
ARC
8
DEFAULT_255_2_778
10
25.1199095
20
87.1027125
40
0.0896775
50
189.5475333
51
212.0601205
0
ARC
8
DEFAULT_255_2_778
10
25.0979618
20
87.097948
40
0.0672519
50
180.0620082
51
188.6460075
0
ARC
8
DEFAULT_255_2_778
10
25.1058396
20
87.0947162
40
0.0751959
50
122.6987566
51
177.5923
0
ARC
8
DEFAULT_255_2_778
10
25.1861716
20
86.9879949
40
0.2086387
50
106.8177894
51
125.431677
0
ARC
8
DEFAULT_255_2_778
10
25.2666378
20
86.7412435
40
0.4681515
50
97.4824522
51
107.5071239
0
ARC
8
DEFAULT_255_2_778
10
25.3180852
20
86.3846559
40
0.8284151
50
92.2208175
51
97.798779
0
ARC
8
DEFAULT_255_2_778
10
25.1144261
20
86.0637582
40
1.4536912
50
90.0608033
51
94.5774852
0
ARC
8
DEFAULT_255_2_778
10
25.1150214
20
86.0325905
40
1.4848082
50
94.5043987
51
100.675041
0
ARC
8
DEFAULT_255_2_778
10
24.9959534
20
86.5528745
40
0.9516962
50
99.4328962
51
120.9671465
0
ARC
8
DEFAULT_255_2_778
10
24.6839134
20
87.05182
40
0.3634715
50
119.2594159
51
178.665762
0
ARC
8
DEFAULT_255_2_778
10
24.7001048
20
87.0570466
40
0.3795783
50
179.5114187
51
180.0040176
0
ARC
8
DEFAULT_255_2_778
10
24.7515089
20
87.0584288
40
0.4309847
50
180.1872873
51
190.1934264
0
ARC
8
DEFAULT_255_2_778
10
24.8659251
20
87.0784992
40
0.547147
50
190.1416117
51
197.4471564
0
ARC
8
DEFAULT_255_2_778
10
25.0127967
20
87.1244832
40
0.7010488
50
197.4334703
51
203.5751591
0
ARC
8
DEFAULT_255_2_778
10
25.1201221
20
87.1693323
40
0.8173559
50
203.4476343
51
203.627243
0
ARC
8
DEFAULT_255_2_778
10
24.8444962
20
87.0853411
40
0.532229
50
207.2377369
51
243.7391535
0
ARC
8
DEFAULT_255_2_778
10
25.4024874
20
88.1013236
40
1.6910043
50
242.0152728
51
251.6203337
0
ARC
8
DEFAULT_255_2_778
10
26.7290583
20
91.8308215
40
5.6491459
50
250.7790603
51
252.0057691
0
ARC
8
DEFAULT_255_2_778
10
30.4094992
20
103.0652362
40
17.4710505
50
251.9078029
51
251.9146348
0
ARC
8
DEFAULT_255_2_778
10
27.6601604
20
94.6434204
40
8.6118269
50
251.9085998
51
251.9223594
0
ARC
8
DEFAULT_255_2_778
10
30.2578561
20
102.6059843
40
16.987413
50
251.9269523
51
251.9338772
0
ARC
8
DEFAULT_255_2_778
10
30.1838635
20
102.3784514
40
16.7481515
50
251.9331368
51
251.9401097
0
ARC
8
DEFAULT_255_2_778
10
20.3495186
20
71.9274206
40
15.25167
50
71.3427117
51
72.279404
0
ARC
8
DEFAULT_255_2_778
10
23.6611134
20
81.8192671
40
4.8203231
50
70.8210611
51
71.0229492
0
ARC
8
DEFAULT_255_2_778
10
25.2025626
20
86.0284885
40
0.3461325
50
56.7270908
51
83.010358
0
ARC
8
DEFAULT_255_2_778
10
25.3037004
20
86.1758291
40
0.1675002
50
29.3397026
51
58.0006477
0
ARC
8
DEFAULT_255_2_778
10
25.3734743
20
86.2200854
40
0.0851046
50
19.503282
51
26.3819887
0
ARC
8
DEFAULT_255_2_778
10
25.3924873
20
86.2262982
40
0.0651103
50
0.4789695
51
19.9357241
0
ARC
8
DEFAULT_255_2_778
10
25.3925
20
86.2293728
40
0.0651445
50
302.7074224
51
357.7739593
0
ARC
8
DEFAULT_255_2_778
10
25.3206233
20
86.3249988
40
0.1846568
50
287.1132977
51
305.4415829
0
ARC
8
DEFAULT_255_2_778
10
25.2435002
20
86.5566531
40
0.4287848
50
278.4344546
51
287.8537787
0
ARC
8
DEFAULT_255_2_778
10
25.1873748
20
86.9063819
40
0.7829747
50
273.5959857
51
278.7433341
0
ARC
8
DEFAULT_255_2_778
10
25.6686062
20
86.8948776
40
1.3746279
50
273.9702532
51
289.7100004
0
ARC
8
DEFAULT_255_2_778
10
25.9820288
20
86.0960734
40
0.5175557
50
286.8686655
51
347.8659634
0
ARC
8
DEFAULT_255_2_778
10
25.9005361
20
86.1044004
40
0.5990456
50
348.7257293
51
354.8711844
0
ARC
8
DEFAULT_255_2_778
10
22.8653466
20
55.7747056
40
0.6315689
50
347.8565304
51
352.1167135
0
ARC
8
DEFAULT_255_2_778
10
22.8690523
20
55.7742037
40
0.6278293
50
352.1157039
51
359.9981788
0
ARC
8
DEFAULT_255_2_778
10
22.868142
20
55.7740393
40
0.6287396
50
0.0131608
51
55.9610014
0
ARC
8
DEFAULT_255_2_778
10
22.8693066
20
55.7729903
40
0.6289588
50
56.1024007
51
90.0002155
0
LINE
8
DEFAULT_255_2_778
10
22.8693042
20
56.4019492
11
22.8690833
21
56.4019492
0
ARC
8
DEFAULT_255_2_778
10
22.8688632
20
55.7729291
40
0.6290202
50
89.979956
51
124.0589236
0
ARC
8
DEFAULT_255_2_778
10
22.8692446
20
55.7721162
40
0.6299074
50
124.0462517
51
179.991307
0
ARC
8
DEFAULT_255_2_778
10
22.868622
20
55.7722347
40
0.6292848
50
180.0020908
51
187.8888348
0
ARC
8
DEFAULT_255_2_778
10
22.8720949
20
55.7727018
40
0.6327889
50
187.8875648
51
191.9341968
0
ARC
8
DEFAULT_255_2_778
10
22.8674209
20
53.3444109
40
0.2495381
50
89.893801
51
180.1291127
0
ARC
8
DEFAULT_255_2_778
10
22.8689728
20
53.3660793
40
0.2278719
50
89.9898644
51
90.273907
0
ARC
8
DEFAULT_255_2_778
10
22.8692005
20
53.3453341
40
0.2486171
50
44.9725524
51
90.0431865
0
ARC
8
DEFAULT_255_2_778
10
22.8693689
20
53.3451656
40
0.248617
50
359.9568135
51
45.0274476
0
ARC
8
DEFAULT_255_2_778
10
22.8901141
20
53.3449379
40
0.2278718
50
359.726093
51
0.0101356
0
ARC
8
DEFAULT_255_2_778
10
22.8684457
20
53.3433861
40
0.2495381
50
269.8708873
51
0.106199
0
ARC
8
DEFAULT_255_2_778
10
22.8673996
20
53.3433648
40
0.2495167
50
179.8889217
51
270.1110897
0
ARC
8
DEFAULT_255_2_778
10
22.8681545
20
58.3699554
40
0.2996932
50
29.1529028
51
90.0518252
0
ARC
8
DEFAULT_255_2_778
10
22.8678981
20
58.3696387
40
0.3000099
50
90.0028073
51
150.8115529
0
ARC
8
DEFAULT_255_2_778
10
19.6685843
20
52.6436951
40
0.3005916
50
150.8421525
51
179.8177869
0
ARC
8
DEFAULT_255_2_778
10
19.6502666
20
52.6437007
40
0.2822739
50
179.8070853
51
179.9999998
0
ARC
8
DEFAULT_255_2_778
10
19.6670517
20
52.6435789
40
0.299059
50
179.9766726
51
210.4658614
0
ARC
8
DEFAULT_255_2_778
10
19.6682121
20
52.6440431
40
0.3002945
50
210.4299389
51
269.9754485
0
ARC
8
DEFAULT_255_2_778
10
26.0679481
20
52.6438799
40
0.3001314
50
270.0258269
51
329.5878854
0
ARC
8
DEFAULT_255_2_778
10
26.068893
20
52.6436874
40
0.2992192
50
329.5280783
51
0.0159235
0
ARC
8
DEFAULT_255_2_778
10
26.0451138
20
52.6436972
40
0.3229984
50
0.013016
51
0.1692058
0
ARC
8
DEFAULT_255_2_778
10
26.0681425
20
52.6437887
40
0.2999697
50
0.1647105
51
29.2036526
0
ARC
8
DEFAULT_255_2_778
10
7.6671843
20
47.1630495
40
0.1507007
50
0.2657797
51
89.7342203
0
ARC
8
DEFAULT_255_2_778
10
6.1213989
20
48.7148543
40
0.5536439
50
188.9909547
51
199.1157149
0
ARC
8
DEFAULT_255_2_778
10
6.1142505
20
48.7135856
40
0.5463851
50
180.0014327
51
188.9766981
0
ARC
8
DEFAULT_255_2_778
10
6.11851
20
48.7133109
40
0.5506448
50
109.1931561
51
179.972842
0
ARC
8
DEFAULT_255_2_778
10
6.1187807
20
48.7102585
40
0.5536171
50
98.9646695
51
109.1157573
0
ARC
8
DEFAULT_255_2_778
10
6.1175317
20
48.7172808
40
0.5464859
50
90.0015377
51
98.9500402
0
ARC
8
DEFAULT_255_2_778
10
6.1173238
20
48.7132318
40
0.550535
50
19.1850323
51
89.9798959
0
ARC
8
DEFAULT_255_2_778
10
6.1133647
20
48.7267211
40
0.9001092
50
18.2731838
51
78.8527761
0
ARC
8
DEFAULT_255_2_778
10
6.1129118
20
48.7243139
40
0.9025586
50
78.854115
51
83.2651572
0
ARC
8
DEFAULT_255_2_778
10
6.1132638
20
48.7272977
40
0.899554
50
83.2651335
51
89.9989644
0
ARC
8
DEFAULT_255_2_778
10
6.1133252
20
48.7267325
40
0.9001192
50
90.0028712
51
139.4300372
0
ARC
8
DEFAULT_255_2_778
10
6.1131409
20
48.7267833
40
0.8999463
50
139.4248651
51
180.007629
0
ARC
8
DEFAULT_255_2_778
10
6.1128829
20
48.7266663
40
0.8996884
50
180.0001815
51
183.1560881
0
ARC
8
DEFAULT_255_2_778
10
6.1128209
20
48.7267179
40
0.8996294
50
183.1595832
51
200.025614
0
ARC
8
DEFAULT_255_2_778
10
4.9684822
20
47.1630498
40
0.1507004
50
90.2657006
51
179.7343183
0
ARC
8
DEFAULT_255_2_778
10
4.9686329
20
45.4645976
40
0.1508514
50
180.2844729
51
269.6773428
0
ARC
8
DEFAULT_255_2_778
10
7.6670337
20
45.4645978
40
0.1508516
50
270.3227363
51
359.7154291
0
LINE
8
DEFAULT_255_2_778
10
22.2834834
20
109.2548486
11
22.2855834
21
109.2540486
0
LINE
8
DEFAULT_255_2_778
10
22.2855834
20
109.2540486
11
22.2900834
21
109.2532486
0
LINE
8
DEFAULT_255_2_778
10
22.2900834
20
109.2532486
11
22.2966834
21
109.2527486
0
LINE
8
DEFAULT_255_2_778
10
22.2966834
20
109.2527486
11
22.3056834
21
109.2522486
0
LINE
8
DEFAULT_255_2_778
10
22.3056834
20
109.2522486
11
22.3305834
21
109.2514486
0
LINE
8
DEFAULT_255_2_778
10
22.3305834
20
109.2514486
11
22.3643834
21
109.2508486
0
LINE
8
DEFAULT_255_2_778
10
22.3643834
20
109.2508486
11
22.4069834
21
109.2506486
0
LINE
8
DEFAULT_255_2_778
10
22.4069834
20
109.2506486
11
22.4577834
21
109.2506486
0
LINE
8
DEFAULT_255_2_778
10
22.4577834
20
109.2506486
11
22.5165834
21
109.2506486
0
LINE
8
DEFAULT_255_2_778
10
22.5165834
20
109.2506486
11
22.5824834
21
109.2506486
0
LINE
8
DEFAULT_255_2_778
10
22.5824834
20
109.2506486
11
22.7332834
21
109.2506486
0
LINE
8
DEFAULT_255_2_778
10
22.7332834
20
109.2506486
11
22.9046834
21
109.2503486
0
LINE
8
DEFAULT_255_2_778
10
22.9046834
20
109.2503486
11
23.0904834
21
109.2490486
0
LINE
8
DEFAULT_255_2_778
10
23.0904834
20
109.2490486
11
23.2832834
21
109.2463486
0
LINE
8
DEFAULT_255_2_778
10
29.5126834
20
107.5437486
11
24.5628834
21
107.5437486
0
LINE
8
DEFAULT_255_2_778
10
24.5628834
20
107.5437486
11
23.9627834
21
106.9437486
0
LINE
8
DEFAULT_255_2_778
10
23.9627834
20
106.9437486
11
23.9627834
21
103.0437486
0
LINE
8
DEFAULT_255_2_778
10
23.9627834
20
103.0437486
11
29.5126834
21
103.0437486
0
LINE
8
DEFAULT_255_2_778
10
29.5126834
20
103.0437486
11
29.5126834
21
107.5437486
0
LINE
8
DEFAULT_255_2_778
10
25.1626834
20
107.3937486
11
29.3626834
21
107.3937486
0
LINE
8
DEFAULT_255_2_778
10
29.3626834
20
107.3937486
11
29.3626834
21
103.1937486
0
LINE
8
DEFAULT_255_2_778
10
29.3626834
20
103.1937486
11
25.1626834
21
103.1937486
0
LINE
8
DEFAULT_255_2_778
10
25.1626834
20
103.1937486
11
25.1626834
21
107.3937486
0
LINE
8
DEFAULT_255_2_778
10
14.6176834
20
99.1747486
11
13.1177834
21
99.1747486
0
LINE
8
DEFAULT_255_2_778
10
13.1177834
20
99.1747486
11
13.1177834
21
94.1746486
0
LINE
8
DEFAULT_255_2_778
10
13.1177834
20
94.1746486
11
14.6176834
21
94.1746486
0
LINE
8
DEFAULT_255_2_778
10
14.6176834
20
94.1746486
11
14.6176834
21
99.1747486
0
LINE
8
DEFAULT_255_2_778
10
14.6176834
20
94.6747486
11
13.1177834
21
94.6747486
0
LINE
8
DEFAULT_255_2_778
10
14.6176834
20
95.1747486
11
13.1177834
21
95.1747486
0
LINE
8
DEFAULT_255_2_778
10
14.6176834
20
96.6747486
11
13.1177834
21
96.6747486
0
LINE
8
DEFAULT_255_2_778
10
14.6176834
20
98.1746486
11
13.1177834
21
98.1746486
0
LINE
8
DEFAULT_255_2_778
10
14.6176834
20
98.6746486
11
13.1177834
21
98.6746486
0
LINE
8
DEFAULT_255_2_778
10
27.2139834
20
87.2042486
11
27.8237834
21
87.1301486
0
LINE
8
DEFAULT_255_2_778
10
27.8237834
20
87.1301486
11
28.4664834
21
87.5420486
0
LINE
8
DEFAULT_255_2_778
10
28.4664834
20
87.5420486
11
27.3541834
21
87.5751486
0
LINE
8
DEFAULT_255_2_778
10
27.3541834
20
87.5751486
11
27.2139834
21
87.2042486
0
LINE
8
DEFAULT_255_2_778
10
28.0545834
20
87.0888486
11
28.1698834
21
86.9816486
0
LINE
8
DEFAULT_255_2_778
10
28.1698834
20
86.9816486
11
29.1835834
21
87.3772486
0
LINE
8
DEFAULT_255_2_778
10
29.1835834
20
87.3772486
11
28.9281834
21
87.4679486
0
LINE
8
DEFAULT_255_2_778
10
28.9281834
20
87.4679486
11
28.0545834
21
87.0888486
0
LINE
8
DEFAULT_255_2_778
10
26.9255834
20
86.3390486
11
26.6371834
21
85.5148486
0
LINE
8
DEFAULT_255_2_778
10
29.3562834
20
87.2124486
11
28.2439834
21
86.9158486
0
LINE
8
DEFAULT_255_2_778
10
26.9255834
20
86.3390486
11
26.9255834
21
86.3390486
0
LINE
8
DEFAULT_255_2_778
10
26.1098834
20
86.6686486
11
25.3105834
21
86.9158486
0
LINE
8
DEFAULT_255_2_778
10
25.2859834
20
87.2124486
11
26.8927834
21
87.2042486
0
LINE
8
DEFAULT_255_2_778
10
26.8927834
20
87.2042486
11
26.9998834
21
87.5751486
0
LINE
8
DEFAULT_255_2_778
10
26.9998834
20
87.5751486
11
25.1128834
21
87.5174486
0
LINE
8
DEFAULT_255_2_778
10
25.2364834
20
86.1249486
11
23.8685834
21
86.1744486
0
LINE
8
DEFAULT_255_2_778
10
23.8685834
20
86.1744486
11
23.6047834
21
85.5399486
0
LINE
8
DEFAULT_255_2_778
10
23.6047834
20
85.5399486
11
25.7637834
21
85.5235486
0
LINE
8
DEFAULT_255_2_778
10
26.4971834
20
86.0508486
11
26.4971834
21
86.0506486
0
LINE
8
DEFAULT_255_2_778
10
22.2529834
20
55.6418486
11
22.6178834
21
53.9439486
0
LINE
8
DEFAULT_255_2_778
10
22.6178834
20
53.9439486
11
23.1179834
21
53.9439486
0
LINE
8
DEFAULT_255_2_778
10
23.1179834
20
53.9439486
11
23.4827834
21
55.6418486
0
LINE
8
DEFAULT_255_2_778
10
22.6178834
20
53.3438486
11
22.6178834
21
53.3438486
0
LINE
8
DEFAULT_255_2_778
10
19.8384834
20
52.7438486
11
22.8678834
21
58.1646486
0
LINE
8
DEFAULT_255_2_778
10
22.8678834
20
58.1646486
11
25.8973834
21
52.7438486
0
LINE
8
DEFAULT_255_2_778
10
25.8973834
20
52.7438486
11
19.8384834
21
52.7438486
0
LINE
8
DEFAULT_255_2_778
10
22.6059834
20
58.5159486
11
19.4060834
21
52.7901486
0
LINE
8
DEFAULT_255_2_778
10
19.6680834
20
52.3437486
11
26.0680834
21
52.3437486
0
LINE
8
DEFAULT_255_2_778
10
26.3299834
20
52.7901486
11
23.1298834
21
58.5159486
0
LINE
8
DEFAULT_255_2_778
10
9.3175834
20
44.1583486
11
10.4173834
21
46.8139486
0
LINE
8
DEFAULT_255_2_778
10
10.4173834
20
46.8139486
11
9.6673834
21
46.8139486
0
LINE
8
DEFAULT_255_2_778
10
9.6673834
20
46.8139486
11
9.6673834
21
50.3138486
0
LINE
8
DEFAULT_255_2_778
10
9.6673834
20
50.3138486
11
8.9672834
21
50.3138486
0
LINE
8
DEFAULT_255_2_778
10
8.9672834
20
50.3138486
11
8.9672834
21
46.8139486
0
LINE
8
DEFAULT_255_2_778
10
8.9672834
20
46.8139486
11
8.2171834
21
46.8139486
0
LINE
8
DEFAULT_255_2_778
10
8.2171834
20
46.8139486
11
9.3169834
21
44.1583486
0
LINE
8
DEFAULT_255_2_778
10
7.6678834
20
47.3137486
11
6.0216834
21
47.3137486
0
LINE
8
DEFAULT_255_2_778
10
6.0216834
20
47.3137486
11
5.5982834
21
48.5335486
0
LINE
8
DEFAULT_255_2_778
10
6.6372834
20
48.8941486
11
6.7050834
21
48.6991486
0
LINE
8
DEFAULT_255_2_778
10
6.7050834
20
48.6991486
11
7.0357834
21
48.8139486
0
LINE
8
DEFAULT_255_2_778
10
7.0357834
20
48.8139486
11
6.9680834
21
49.0089486
0
LINE
8
DEFAULT_255_2_778
10
5.2675834
20
48.4186486
11
5.6509834
21
47.3137486
0
LINE
8
DEFAULT_255_2_778
10
5.6509834
20
47.3137486
11
4.9677834
21
47.3137486
0
LINE
8
DEFAULT_255_2_778
10
4.8177834
20
47.1637486
11
4.8177834
21
45.4638486
0
LINE
8
DEFAULT_255_2_778
10
4.9677834
20
45.3137486
11
7.6678834
21
45.3137486
0
LINE
8
DEFAULT_255_2_778
10
7.8178834
20
45.4638486
11
7.8178834
21
47.1637486
0
ARC
8
DEFAULT_255_2_778
10
7.6070231
20
106.3955278
40
0.3096514
50
225.9775812
51
246.5033904
0
ARC
8
DEFAULT_255_2_778
10
7.5736033
20
106.3249375
40
0.2316033
50
247.1230622
51
270.0397472
0
ARC
8
DEFAULT_255_2_778
10
7.5645985
20
106.4141056
40
0.3209024
50
271.6366663
51
299.3294043
0
ARC
8
DEFAULT_255_2_778
10
7.4780467
20
106.5997976
40
0.5254165
50
297.6389062
51
300.2829057
0
ARC
8
DEFAULT_255_2_778
10
7.4146782
20
106.7063158
40
0.6493555
50
300.371819
51
305.1186581
0
ARC
8
DEFAULT_255_2_778
10
7.5202398
20
106.5872712
40
0.4915796
50
303.0362541
51
326.6597612
0
ARC
8
DEFAULT_255_2_778
10
7.7393293
20
106.4366057
40
0.2258062
50
328.0441727
51
359.4031154
0
ARC
8
DEFAULT_255_2_778
10
7.7268506
20
106.4320583
40
0.2382827
50
0.5278266
51
22.5310883
0
ARC
8
DEFAULT_255_2_778
10
7.6295131
20
106.3945063
40
0.3425898
50
22.0941535
51
31.8455421
0
ARC
8
DEFAULT_255_2_778
10
7.5203784
20
106.3623096
40
0.6444072
50
22.2988736
51
31.276681
0
ARC
8
DEFAULT_255_2_778
10
7.7031693
20
106.4363563
40
0.4471906
50
9.2219013
51
22.4075953
0
ARC
8
DEFAULT_255_2_778
10
7.7916836
20
106.4524312
40
0.3572483
50
0.0828789
51
8.9521393
0
ARC
8
DEFAULT_255_2_778
10
7.7381772
20
106.4732682
40
0.4112565
50
308.3146816
51
357.1678591
0
ARC
8
DEFAULT_255_2_778
10
7.2628282
20
106.9584368
40
1.0890293
50
304.6324351
51
312.1145801
0
ARC
8
DEFAULT_255_2_778
10
7.1319125
20
107.1175294
40
1.2944494
50
299.3851659
51
305.3984429
0
ARC
8
DEFAULT_255_2_778
10
7.3608777
20
106.7238287
40
0.8390774
50
297.6864117
51
298.9531698
0
ARC
8
DEFAULT_255_2_778
10
7.499356
20
106.4383355
40
0.5220268
50
280.5846362
51
298.7869305
0
ARC
8
DEFAULT_255_2_778
10
7.5371448
20
106.2701246
40
0.3497926
50
270.097718
51
279.5612423
0
ARC
8
DEFAULT_255_2_778
10
7.5391907
20
106.2570246
40
0.3366952
50
242.1805519
51
269.7533666
0
ARC
8
DEFAULT_255_2_778
10
7.6180003
20
106.4092892
40
0.5081427
50
228.1751056
51
242.3337691
0
ARC
8
DEFAULT_255_2_778
10
7.8234167
20
106.644161
40
0.8201568
50
220.0645018
51
228.4232636
0
LINE
8
DEFAULT_255_2_778
10
6.640434
20
106.9093674
11
6.798634
21
107.0201674
0
LINE
8
DEFAULT_255_2_778
10
6.798634
20
107.0201674
11
7.391834
21
106.1728674
0
LINE
8
DEFAULT_255_2_778
10
7.920534
20
106.5752674
11
7.342434
21
107.4008674
0
LINE
8
DEFAULT_255_2_778
10
7.342434
20
107.4008674
11
7.500734
21
107.5116674
0
LINE
8
DEFAULT_255_2_778
10
7.500734
20
107.5116674
11
8.071134
21
106.6968674
0
LINE
8
DEFAULT_255_2_778
10
7.195734
20
106.1162674
11
6.640434
21
106.9093674
0
ARC
8
DEFAULT_255_2_778
10
6.4717154
20
105.6076103
40
0.8658307
50
118.6227136
51
133.8264691
0
ARC
8
DEFAULT_255_2_778
10
6.2830202
20
105.9541099
40
0.4712834
50
95.8300751
51
118.6654828
0
ARC
8
DEFAULT_255_2_778
10
6.2674407
20
106.0582885
40
0.366094
50
90.0272494
51
95.0605725
0
ARC
8
DEFAULT_255_2_778
10
6.2613511
20
106.0553892
40
0.3690407
50
44.0565007
51
89.0815386
0
ARC
8
DEFAULT_255_2_778
10
6.1271818
20
105.8928209
40
0.5789851
50
42.9821076
51
46.3859934
0
ARC
8
DEFAULT_255_2_778
10
6.2930547
20
106.0379659
40
0.3587489
50
4.7952401
51
44.0848061
0
ARC
8
DEFAULT_255_2_778
10
6.2553808
20
106.0350362
40
0.396536
50
359.9967232
51
4.7620162
0
ARC
8
DEFAULT_255_2_778
10
6.1808653
20
106.042826
40
0.4711163
50
331.1849414
51
359.0498283
0
ARC
8
DEFAULT_255_2_778
10
6.0774018
20
106.0409342
40
0.4043458
50
311.1261928
51
339.6412245
0
ARC
8
DEFAULT_255_2_778
10
6.1908505
20
105.9899183
40
0.2803603
50
341.3500777
51
351.949614
0
ARC
8
DEFAULT_255_2_778
10
6.2135575
20
105.9871245
40
0.2574862
50
351.8575573
51
359.9086537
0
ARC
8
DEFAULT_255_2_778
10
6.2369203
20
105.9852778
40
0.2341276
50
0.3514592
51
44.8702323
0
ARC
8
DEFAULT_255_2_778
10
6.2127124
20
105.9922226
40
0.2473645
50
39.7676019
51
88.4408871
0
ARC
8
DEFAULT_255_2_778
10
6.2194909
20
106.0087544
40
0.2307412
50
90.0119488
51
93.5389296
0
ARC
8
DEFAULT_255_2_778
10
6.2370874
20
105.9141024
40
0.3265092
50
95.5960657
51
128.4844636
0
ARC
8
DEFAULT_255_2_778
10
6.4024613
20
105.6685044
40
0.62211
50
126.3301861
51
132.8283921
0
ARC
8
DEFAULT_255_2_778
10
12.3169753
20
108.1234283
40
1.0262275
50
91.3298347
51
98.203247
0
ARC
8
DEFAULT_255_2_778
10
12.3096656
20
108.3105585
40
0.8389832
50
90.0046716
51
91.1273606
0
ARC
8
DEFAULT_255_2_778
10
12.3188931
20
108.5479996
40
0.6016138
50
72.4312401
51
90.8853499
0
ARC
8
DEFAULT_255_2_778
10
12.3689924
20
108.7237499
40
0.4189722
50
60.2098947
51
71.7081033
0
ARC
8
DEFAULT_255_2_778
10
12.3908618
20
108.7718044
40
0.3664356
50
7.6147575
51
59.4444442
0
ARC
8
DEFAULT_255_2_778
10
12.174622
20
108.7132591
40
0.589259
50
7.9987672
51
10.4721498
0
ARC
8
DEFAULT_255_2_778
10
12.3491117
20
108.7368739
40
0.4131816
50
0.0977887
51
8.1229451
0
ARC
8
DEFAULT_255_2_778
10
12.4121904
20
108.7356876
40
0.3501073
50
329.5305558
51
0.3095483
0
ARC
8
DEFAULT_255_2_778
10
12.3241204
20
108.7950539
40
0.4561649
50
295.7986632
51
328.7129263
0
ARC
8
DEFAULT_255_2_778
10
12.2283975
20
108.8654805
40
0.4059892
50
276.1863565
51
304.5796309
0
ARC
8
DEFAULT_255_2_778
10
12.2924345
20
108.7578746
40
0.2811728
50
306.2809496
51
316.8438727
0
ARC
8
DEFAULT_255_2_778
10
12.3340018
20
108.7235397
40
0.2273903
50
315.9910378
51
0.6767984
0
ARC
8
DEFAULT_255_2_778
10
12.2676263
20
108.7255772
40
0.2937508
50
0.1264795
51
8.0977425
0
ARC
8
DEFAULT_255_2_778
10
12.3152896
20
108.7478238
40
0.2439099
50
4.49876
51
57.2473801
0
ARC
8
DEFAULT_255_2_778
10
12.2925956
20
108.685088
40
0.3093063
50
60.0001641
51
89.9422108
0
ARC
8
DEFAULT_255_2_778
10
12.2772276
20
108.511331
40
0.4833177
50
88.140865
51
90.0122147
0
ARC
8
DEFAULT_255_2_778
10
12.2797601
20
108.3872362
40
0.6074183
50
90.2486007
51
97.8548416
0
ARC
8
DEFAULT_255_2_778
10
18.1655619
20
107.7112005
40
0.687584
50
48.0763107
51
68.0977005
0
ARC
8
DEFAULT_255_2_778
10
18.3283519
20
107.8999672
40
0.4383968
50
26.3944123
51
47.4226735
0
ARC
8
DEFAULT_255_2_778
10
18.3828383
20
107.9245759
40
0.3786567
50
0.1995349
51
26.7240458
0
ARC
8
DEFAULT_255_2_778
10
18.3282974
20
107.931086
40
0.4332265
50
336.1560599
51
359.313405
0
ARC
8
DEFAULT_255_2_778
10
18.3304283
20
107.9079568
40
0.4224153
50
305.4017403
51
338.9097244
0
ARC
8
DEFAULT_255_2_778
10
18.3803534
20
107.8545255
40
0.3500765
50
286.4944395
51
303.8071941
0
ARC
8
DEFAULT_255_2_778
10
18.3633846
20
107.9150594
40
0.4129382
50
269.6403447
51
286.3672889
0
ARC
8
DEFAULT_255_2_778
10
18.3696125
20
108.1210593
40
0.6189929
50
252.0323226
51
269.1835734
0
ARC
8
DEFAULT_255_2_778
10
18.4649268
20
108.4507233
40
0.9620452
50
246.8784505
51
252.6891804
0
ARC
8
DEFAULT_255_2_778
10
18.3399698
20
108.1347735
40
0.4715828
50
245.9718291
51
263.5255644
0
ARC
8
DEFAULT_255_2_778
10
18.3164221
20
107.9768699
40
0.3120812
50
264.5523265
51
269.9390516
0
ARC
8
DEFAULT_255_2_778
10
18.3177892
20
107.9176599
40
0.2528768
50
269.6150243
51
287.1718018
0
ARC
8
DEFAULT_255_2_778
10
18.3113542
20
107.9117655
40
0.2492697
50
288.9852833
51
340.5122253
0
ARC
8
DEFAULT_255_2_778
10
18.1418369
20
108.0015889
40
0.4399415
50
336.8467705
51
336.9809546
0
ARC
8
DEFAULT_255_2_778
10
18.2801593
20
107.9480428
40
0.291734
50
336.036887
51
359.2116467
0
ARC
8
DEFAULT_255_2_778
10
18.3303447
20
107.9438221
40
0.2415211
50
0.0490434
51
24.9377484
0
ARC
8
DEFAULT_255_2_778
10
18.2624974
20
107.9031109
40
0.3203157
50
26.4241521
51
66.0532362
0
ARC
8
DEFAULT_255_2_778
10
18.1553931
20
107.7205623
40
0.5311566
50
63.4860592
51
65.8565658
0
LINE
8
DEFAULT_255_2_778
10
8.087748
20
107.6561555
11
9.305048
21
106.9206555
0
LINE
8
DEFAULT_255_2_778
10
9.305048
20
106.9206555
11
9.536848
21
107.0439555
0
LINE
8
DEFAULT_255_2_778
10
9.536848
20
107.0439555
11
8.879148
21
108.2798555
0
LINE
8
DEFAULT_255_2_778
10
8.879148
20
108.2798555
11
8.724548
21
108.1975555
0
LINE
8
DEFAULT_255_2_778
10
8.724548
20
108.1975555
11
9.284148
21
107.1458555
0
LINE
8
DEFAULT_255_2_778
10
9.284148
20
107.1458555
11
8.080848
21
107.8551555
0
LINE
8
DEFAULT_255_2_778
10
8.080848
20
107.8551555
11
7.849048
21
107.7318555
0
LINE
8
DEFAULT_255_2_778
10
7.849048
20
107.7318555
11
8.506848
21
106.4960555
0
LINE
8
DEFAULT_255_2_778
10
8.506848
20
106.4960555
11
8.661348
21
106.5782555
0
LINE
8
DEFAULT_255_2_778
10
8.661348
20
106.5782555
11
8.087748
21
107.6564555
0
LINE
8
DEFAULT_255_2_778
10
7.111448
20
105.4688555
11
6.482548
21
105.6588555
0
LINE
8
DEFAULT_255_2_778
10
6.482548
20
105.6588555
11
6.221148
21
105.4151555
0
LINE
8
DEFAULT_255_2_778
10
6.221148
20
105.4151555
11
6.608448
21
104.9997555
0
LINE
8
DEFAULT_255_2_778
10
6.608448
20
104.9997555
11
6.460848
21
104.8621555
0
LINE
8
DEFAULT_255_2_778
10
6.460848
20
104.8621555
11
5.503548
21
105.8887555
0
LINE
8
DEFAULT_255_2_778
10
5.503548
20
105.8887555
11
5.872148
21
106.2322555
0
LINE
8
DEFAULT_255_2_778
10
6.593648
20
105.8157555
11
7.261448
21
105.6236555
0
LINE
8
DEFAULT_255_2_778
10
7.261448
20
105.6236555
11
7.269348
21
105.6152555
0
LINE
8
DEFAULT_255_2_778
10
7.269348
20
105.6152555
11
7.111948
21
105.4683555
0
LINE
8
DEFAULT_255_2_778
10
7.111948
20
105.4683555
11
7.111448
21
105.4688555
0
LINE
8
DEFAULT_255_2_778
10
5.754948
20
105.9152555
11
6.117948
21
105.5260555
0
LINE
8
DEFAULT_255_2_778
10
6.117948
20
105.5260555
11
6.343348
21
105.7363555
0
LINE
8
DEFAULT_255_2_778
10
5.979548
20
106.1247555
11
5.754948
21
105.9152555
0
LINE
8
DEFAULT_255_2_778
10
5.754948
20
105.9152555
11
5.754948
21
105.9152555
0
LINE
8
DEFAULT_255_2_778
10
14.921648
20
109.2164555
11
14.661348
21
109.2500555
0
LINE
8
DEFAULT_255_2_778
10
14.661348
20
109.2500555
11
14.481648
21
107.8615555
0
LINE
8
DEFAULT_255_2_778
10
14.481648
20
107.8615555
11
14.655248
21
107.8390555
0
LINE
8
DEFAULT_255_2_778
10
14.655248
20
107.8390555
11
14.796748
21
108.9320555
0
LINE
8
DEFAULT_255_2_778
10
14.796748
20
108.9320555
11
15.060248
21
107.7866555
0
LINE
8
DEFAULT_255_2_778
10
15.060248
20
107.7866555
11
15.291848
21
107.7567555
0
LINE
8
DEFAULT_255_2_778
10
15.291848
20
107.7567555
11
15.838148
21
108.7973555
0
LINE
8
DEFAULT_255_2_778
10
15.838148
20
108.7973555
11
15.696648
21
107.7043555
0
LINE
8
DEFAULT_255_2_778
10
15.696648
20
107.7043555
11
15.870148
21
107.6818555
0
LINE
8
DEFAULT_255_2_778
10
15.870148
20
107.6818555
11
16.049848
21
109.0703555
0
LINE
8
DEFAULT_255_2_778
10
16.049848
20
109.0703555
11
15.789448
21
109.1039555
0
LINE
8
DEFAULT_255_2_778
10
15.789448
20
109.1039555
11
15.194948
21
107.9194555
0
LINE
8
DEFAULT_255_2_778
10
15.194948
20
107.9194555
11
14.921648
21
109.2164555
0
LINE
8
DEFAULT_255_2_778
10
14.227348
20
109.2624555
11
13.176148
21
109.2474555
0
LINE
8
DEFAULT_255_2_778
10
13.176148
20
109.2474555
11
13.196348
21
107.8474555
0
LINE
8
DEFAULT_255_2_778
10
13.196348
20
107.8474555
11
14.244848
21
107.8625555
0
LINE
8
DEFAULT_255_2_778
10
14.244848
20
107.8625555
11
14.244848
21
108.0414555
0
LINE
8
DEFAULT_255_2_778
10
14.244848
20
108.0414555
11
13.365148
21
108.0287555
0
LINE
8
DEFAULT_255_2_778
10
13.365148
20
108.0287555
11
13.365148
21
108.5052555
0
LINE
8
DEFAULT_255_2_778
10
13.365148
20
108.5052555
11
14.118648
21
108.5160555
0
LINE
8
DEFAULT_255_2_778
10
14.118648
20
108.5160555
11
14.118648
21
108.6949555
0
LINE
8
DEFAULT_255_2_778
10
14.118648
20
108.6949555
11
13.356348
21
108.6841555
0
LINE
8
DEFAULT_255_2_778
10
13.356348
20
108.6841555
11
13.356348
21
109.0714555
0
LINE
8
DEFAULT_255_2_778
10
13.356348
20
109.0714555
11
14.227148
21
109.0838555
0
LINE
8
DEFAULT_255_2_778
10
14.227148
20
109.0838555
11
14.227148
21
109.2627555
0
LINE
8
DEFAULT_255_2_778
10
12.747848
20
107.8025555
11
12.341748
21
108.3189555
0
LINE
8
DEFAULT_255_2_778
10
12.341748
20
108.3189555
11
11.987648
21
108.2692555
0
LINE
8
DEFAULT_255_2_778
10
11.987648
20
108.2692555
11
12.066848
21
107.7069555
0
LINE
8
DEFAULT_255_2_778
10
12.066848
20
107.7069555
11
11.867048
21
107.6789555
0
LINE
8
DEFAULT_255_2_778
10
11.867048
20
107.6789555
11
11.671748
21
109.0690555
0
LINE
8
DEFAULT_255_2_778
10
11.671748
20
109.0690555
11
12.170548
21
109.1391555
0
LINE
8
DEFAULT_255_2_778
10
12.522648
20
108.3843555
11
12.959548
21
107.8440555
0
LINE
8
DEFAULT_255_2_778
10
12.959548
20
107.8440555
11
12.961048
21
107.8326555
0
LINE
8
DEFAULT_255_2_778
10
12.961048
20
107.8326555
11
12.747848
21
107.8027555
0
LINE
8
DEFAULT_255_2_778
10
12.747848
20
107.8027555
11
12.747848
21
107.8025555
0
LINE
8
DEFAULT_255_2_778
10
11.892748
20
108.9460555
11
11.966748
21
108.4189555
0
LINE
8
DEFAULT_255_2_778
10
11.966748
20
108.4189555
11
12.272148
21
108.4618555
0
LINE
8
DEFAULT_255_2_778
10
12.196748
20
108.9889555
11
11.892448
21
108.9460555
0
LINE
8
DEFAULT_255_2_778
10
11.892448
20
108.9460555
11
11.892748
21
108.9460555
0
LINE
8
DEFAULT_255_2_778
10
22.237648
20
105.7231555
11
22.147448
21
105.8162555
0
LINE
8
DEFAULT_255_2_778
10
22.147448
20
105.8162555
11
22.024648
21
105.9004555
0
LINE
8
DEFAULT_255_2_778
10
22.024648
20
105.9004555
11
21.899248
21
105.9432555
0
LINE
8
DEFAULT_255_2_778
10
21.899248
20
105.9432555
11
21.732248
21
105.9432555
0
LINE
8
DEFAULT_255_2_778
10
21.732248
20
105.9432555
11
21.607648
21
105.9028555
0
LINE
8
DEFAULT_255_2_778
10
21.607648
20
105.9028555
11
21.480448
21
105.8202555
0
LINE
8
DEFAULT_255_2_778
10
21.480448
20
105.8202555
11
21.159248
21
105.5096555
0
LINE
8
DEFAULT_255_2_778
10
21.159248
20
105.5096555
11
21.072448
21
105.3850555
0
LINE
8
DEFAULT_255_2_778
10
21.072448
20
105.3850555
11
21.025048
21
105.2540555
0
LINE
8
DEFAULT_255_2_778
10
21.025048
20
105.2540555
11
21.025048
21
105.0863555
0
LINE
8
DEFAULT_255_2_778
10
21.025048
20
105.0863555
11
21.061048
21
104.9682555
0
LINE
8
DEFAULT_255_2_778
10
21.061048
20
104.9682555
11
21.140948
21
104.8428555
0
LINE
8
DEFAULT_255_2_778
10
21.140948
20
104.8428555
11
21.323548
21
104.6542555
0
LINE
8
DEFAULT_255_2_778
10
21.323548
20
104.6542555
11
21.446248
21
104.5700555
0
LINE
8
DEFAULT_255_2_778
10
21.446248
20
104.5700555
11
21.571648
21
104.5272555
0
LINE
8
DEFAULT_255_2_778
10
21.571648
20
104.5272555
11
21.737848
21
104.5272555
0
LINE
8
DEFAULT_255_2_778
10
21.737848
20
104.5272555
11
21.842848
21
104.5886555
0
LINE
8
DEFAULT_255_2_778
10
21.842848
20
104.5886555
11
22.164048
21
104.8992555
0
LINE
8
DEFAULT_255_2_778
10
22.164048
20
104.8992555
11
21.859848
21
105.2135555
0
LINE
8
DEFAULT_255_2_778
10
21.859848
20
105.2135555
11
21.731448
21
105.0892555
0
LINE
8
DEFAULT_255_2_778
10
21.731448
20
105.0892555
11
21.914048
21
104.9005555
0
LINE
8
DEFAULT_255_2_778
10
21.914048
20
104.9005555
11
21.742848
21
104.7349555
0
LINE
8
DEFAULT_255_2_778
10
21.742848
20
104.7349555
11
21.658448
21
104.6936555
0
LINE
8
DEFAULT_255_2_778
10
21.658448
20
104.6936555
11
21.554748
21
104.7150555
0
LINE
8
DEFAULT_255_2_778
10
21.554748
20
104.7150555
11
21.452148
21
104.7783555
0
LINE
8
DEFAULT_255_2_778
10
21.452148
20
104.7783555
11
21.269548
21
104.9669555
0
LINE
8
DEFAULT_255_2_778
10
21.269548
20
104.9669555
11
21.209748
21
105.0714555
0
LINE
8
DEFAULT_255_2_778
10
21.209748
20
105.0714555
11
21.191748
21
105.1757555
0
LINE
8
DEFAULT_255_2_778
10
21.191748
20
105.1757555
11
21.215348
21
105.2797555
0
LINE
8
DEFAULT_255_2_778
10
21.215348
20
105.2797555
11
21.280648
21
105.3834555
0
LINE
8
DEFAULT_255_2_778
10
21.280648
20
105.3834555
11
21.601848
21
105.6940555
0
LINE
8
DEFAULT_255_2_778
10
21.601848
20
105.6940555
11
21.707648
21
105.7559555
0
LINE
8
DEFAULT_255_2_778
10
21.707648
20
105.7559555
11
21.812448
21
105.7760555
0
LINE
8
DEFAULT_255_2_778
10
21.812448
20
105.7760555
11
21.916148
21
105.7546555
0
LINE
8
DEFAULT_255_2_778
10
21.916148
20
105.7546555
11
22.018848
21
105.6914555
0
LINE
8
DEFAULT_255_2_778
10
22.018848
20
105.6914555
11
22.201348
21
105.5027555
0
LINE
8
DEFAULT_255_2_778
10
22.201348
20
105.5027555
11
22.237348
21
105.4395555
0
LINE
8
DEFAULT_255_2_778
10
20.737448
20
106.7777555
11
20.847548
21
106.7290555
0
LINE
8
DEFAULT_255_2_778
10
20.847548
20
106.7290555
11
21.030848
21
106.5849555
0
LINE
8
DEFAULT_255_2_778
10
21.030848
20
106.5849555
11
21.104148
21
106.4893555
0
LINE
8
DEFAULT_255_2_778
10
21.104148
20
106.4893555
11
21.136148
21
106.3885555
0
LINE
8
DEFAULT_255_2_778
10
21.136148
20
106.3885555
11
21.126948
21
106.2822555
0
LINE
8
DEFAULT_255_2_778
10
21.126948
20
106.2822555
11
21.076148
21
106.1705555
0
LINE
8
DEFAULT_255_2_778
10
21.076148
20
106.1705555
11
20.799948
21
105.8194555
0
LINE
8
DEFAULT_255_2_778
10
20.799948
20
105.8194555
11
20.703348
21
105.7437555
0
LINE
8
DEFAULT_255_2_778
10
20.703348
20
105.7437555
11
20.602248
21
105.7096555
0
LINE
8
DEFAULT_255_2_778
10
20.602248
20
105.7096555
11
20.496648
21
105.7168555
0
LINE
8
DEFAULT_255_2_778
10
20.496648
20
105.7168555
11
20.386648
21
105.7654555
0
LINE
8
DEFAULT_255_2_778
10
20.386648
20
105.7654555
11
20.203248
21
105.9096555
0
LINE
8
DEFAULT_255_2_778
10
20.203248
20
105.9096555
11
20.129948
21
106.0052555
0
LINE
8
DEFAULT_255_2_778
10
20.129948
20
106.0052555
11
20.097948
21
106.1060555
0
LINE
8
DEFAULT_255_2_778
10
20.097948
20
106.1060555
11
20.107248
21
106.2123555
0
LINE
8
DEFAULT_255_2_778
10
20.107248
20
106.2123555
11
20.158048
21
106.3240555
0
LINE
8
DEFAULT_255_2_778
10
20.158048
20
106.3240555
11
20.434248
21
106.6751555
0
LINE
8
DEFAULT_255_2_778
10
20.434248
20
106.6751555
11
20.530848
21
106.7507555
0
LINE
8
DEFAULT_255_2_778
10
20.530848
20
106.7507555
11
20.631848
21
106.7849555
0
LINE
8
DEFAULT_255_2_778
10
20.631848
20
106.7849555
11
20.737448
21
106.7777555
0
LINE
8
DEFAULT_255_2_778
10
20.958148
20
106.8693555
11
20.825048
21
106.9360555
0
LINE
8
DEFAULT_255_2_778
10
20.825048
20
106.9360555
11
20.696448
21
106.9614555
0
LINE
8
DEFAULT_255_2_778
10
20.696448
20
106.9614555
11
20.531048
21
106.9399555
0
LINE
8
DEFAULT_255_2_778
10
20.531048
20
106.9399555
11
20.411548
21
106.8822555
0
LINE
8
DEFAULT_255_2_778
10
20.411548
20
106.8822555
11
20.296348
21
106.7833555
0
LINE
8
DEFAULT_255_2_778
10
20.296348
20
106.7833555
11
20.020148
21
106.4322555
0
LINE
8
DEFAULT_255_2_778
10
20.020148
20
106.4322555
11
19.951148
21
106.2970555
0
LINE
8
DEFAULT_255_2_778
10
19.951148
20
106.2970555
11
19.923348
21
106.1673555
0
LINE
8
DEFAULT_255_2_778
10
19.923348
20
106.1673555
11
19.941348
21
106.0014555
0
LINE
8
DEFAULT_255_2_778
10
19.941348
20
106.0014555
11
19.996048
21
105.8824555
0
LINE
8
DEFAULT_255_2_778
10
19.996048
20
105.8824555
11
20.092448
21
105.7689555
0
LINE
8
DEFAULT_255_2_778
10
20.092448
20
105.7689555
11
20.275748
21
105.6247555
0
LINE
8
DEFAULT_255_2_778
10
20.275748
20
105.6247555
11
20.408848
21
105.5580555
0
LINE
8
DEFAULT_255_2_778
10
20.408848
20
105.5580555
11
20.537448
21
105.5326555
0
LINE
8
DEFAULT_255_2_778
10
20.537448
20
105.5326555
11
20.702748
21
105.5540555
0
LINE
8
DEFAULT_255_2_778
10
20.702748
20
105.5540555
11
20.822348
21
105.6117555
0
LINE
8
DEFAULT_255_2_778
10
20.822348
20
105.6117555
11
20.937448
21
105.7107555
0
LINE
8
DEFAULT_255_2_778
10
20.937448
20
105.7107555
11
21.213748
21
106.0618555
0
LINE
8
DEFAULT_255_2_778
10
21.213748
20
106.0618555
11
21.282748
21
106.1970555
0
LINE
8
DEFAULT_255_2_778
10
21.282748
20
106.1970555
11
21.310548
21
106.3266555
0
LINE
8
DEFAULT_255_2_778
10
21.310548
20
106.3266555
11
21.292548
21
106.4925555
0
LINE
8
DEFAULT_255_2_778
10
21.292548
20
106.4925555
11
21.237748
21
106.6116555
0
LINE
8
DEFAULT_255_2_778
10
21.237748
20
106.6116555
11
21.141448
21
106.7251555
0
LINE
8
DEFAULT_255_2_778
10
21.141448
20
106.7251555
11
20.958148
21
106.8693555
0
LINE
8
DEFAULT_255_2_778
10
18.087148
20
107.5659555
11
17.771248
21
107.7001555
0
LINE
8
DEFAULT_255_2_778
10
17.771248
20
107.7001555
11
17.557148
21
107.1955555
0
LINE
8
DEFAULT_255_2_778
10
17.557148
20
107.1955555
11
17.380448
21
107.2707555
0
LINE
8
DEFAULT_255_2_778
10
17.380448
20
107.2707555
11
17.927348
21
108.5592555
0
LINE
8
DEFAULT_255_2_778
10
17.927348
20
108.5592555
11
18.422048
21
108.3491555
0
LINE
8
DEFAULT_255_2_778
10
18.087148
20
107.5659555
11
18.087148
21
107.5659555
0
LINE
8
DEFAULT_255_2_778
10
18.044748
20
108.3443555
11
17.830248
21
107.8390555
0
LINE
8
DEFAULT_255_2_778
10
17.830248
20
107.8390555
11
18.147948
21
107.7040555
0
LINE
8
DEFAULT_255_2_778
10
18.372648
20
108.2052555
11
18.044748
21
108.3443555
0
LINE
8
DEFAULT_255_2_778
10
18.044748
20
108.3443555
11
18.044748
21
108.3443555
0
ARC
8
DEFAULT_255_2_778
10
19.2833312
20
106.9474768
40
0.8634221
50
44.6321337
51
59.8713464
0
ARC
8
DEFAULT_255_2_778
10
19.5625733
20
107.2227217
40
0.4713307
50
21.8251794
51
44.6697057
0
ARC
8
DEFAULT_255_2_778
10
19.6810327
20
107.2733309
40
0.3425595
50
0.1232923
51
21.3332168
0
ARC
8
DEFAULT_255_2_778
10
19.6207959
20
107.2811717
40
0.4028583
50
331.1132236
51
358.9896336
0
ARC
8
DEFAULT_255_2_778
10
19.4590264
20
107.3560499
40
0.5808083
50
329.027563
51
332.3549183
0
ARC
8
DEFAULT_255_2_778
10
19.6468212
20
107.2355464
40
0.3578384
50
290.7191855
51
330.096794
0
ARC
8
DEFAULT_255_2_778
10
19.6272214
20
107.2909724
40
0.4166159
50
269.5975706
51
290.5435864
0
ARC
8
DEFAULT_255_2_778
10
19.6269364
20
107.4195092
40
0.5451488
50
258.1639822
51
269.7224124
0
ARC
8
DEFAULT_255_2_778
10
19.5966456
20
107.4608047
40
0.422695
50
237.5142162
51
262.1068116
0
ARC
8
DEFAULT_255_2_778
10
19.5720039
20
107.3361623
40
0.2959393
50
263.5186353
51
269.9611706
0
ARC
8
DEFAULT_255_2_778
10
19.5719574
20
107.3186247
40
0.2784017
50
269.968294
51
277.8788076
0
ARC
8
DEFAULT_255_2_778
10
19.5803564
20
107.2739139
40
0.2329719
50
277.3400045
51
331.0517836
0
ARC
8
DEFAULT_255_2_778
10
19.5534243
20
107.3093832
40
0.2742982
50
327.2887793
51
358.5161703
0
ARC
8
DEFAULT_255_2_778
10
19.6091593
20
107.3020193
40
0.2184714
50
0.0684441
51
19.6404159
0
ARC
8
DEFAULT_255_2_778
10
19.512118
20
107.2561564
40
0.3254541
50
21.502892
51
54.501067
0
ARC
8
DEFAULT_255_2_778
10
19.3224111
20
107.0303739
40
0.6198695
50
52.3435435
51
58.8648221
0
ARC
8
DEFAULT_255_2_778
10
10.138273
20
72.7248793
40
0.9890464
50
78.2363939
51
90.7040377
0
ARC
8
DEFAULT_255_2_778
10
10.2490174
20
73.2338046
40
0.4682553
50
55.4881133
51
78.8068006
0
ARC
8
DEFAULT_255_2_778
10
10.323141
20
73.3607785
40
0.3218143
50
356.6891292
51
53.5538744
0
ARC
8
DEFAULT_255_2_778
10
10.1253889
20
73.3408237
40
0.5190311
50
359.9919748
51
0.1511117
0
ARC
8
DEFAULT_255_2_778
10
10.3821664
20
73.3380202
40
0.262268
50
319.3735597
51
0.5966035
0
ARC
8
DEFAULT_255_2_778
10
10.2723844
20
73.4363387
40
0.409619
50
289.5151605
51
318.9344647
0
ARC
8
DEFAULT_255_2_778
10
10.3303148
20
72.6858159
40
0.3728794
50
40.8381847
51
77.7832197
0
ARC
8
DEFAULT_255_2_778
10
10.3680691
20
72.724545
40
0.3190234
50
358.7797321
51
40.0097938
0
ARC
8
DEFAULT_255_2_778
10
10.3326531
20
72.7029179
40
0.3546774
50
307.5311956
51
2.3968881
0
ARC
8
DEFAULT_255_2_778
10
10.2464211
20
72.8293405
40
0.5075386
50
278.8619434
51
306.556693
0
ARC
8
DEFAULT_255_2_778
10
10.1644337
20
73.2416307
40
0.9277026
50
269.5977126
51
279.9424289
0
ARC
8
DEFAULT_255_2_778
10
10.1753073
20
72.8717747
40
0.4069278
50
268.1851758
51
294.9029854
0
ARC
8
DEFAULT_255_2_778
10
10.2276661
20
72.7402659
40
0.2657159
50
296.6035777
51
308.3739343
0
ARC
8
DEFAULT_255_2_778
10
10.2549244
20
72.7064788
40
0.2223062
50
308.2720846
51
2.4936392
0
ARC
8
DEFAULT_255_2_778
10
10.2388425
20
72.7306051
40
0.2386158
50
356.5271933
51
42.1358779
0
ARC
8
DEFAULT_255_2_778
10
10.231098
20
72.6931206
40
0.2704527
50
46.929553
51
83.3917691
0
ARC
8
DEFAULT_255_2_778
10
10.1695286
20
72.3759684
40
0.5930962
50
81.0085658
51
90.3872325
0
ARC
8
DEFAULT_255_2_778
10
10.1459272
20
73.512769
40
0.3963282
50
268.1337487
51
295.5280542
0
ARC
8
DEFAULT_255_2_778
10
10.1954766
20
73.3899521
40
0.2642756
50
297.3096358
51
306.4046757
0
ARC
8
DEFAULT_255_2_778
10
10.2413369
20
73.3356066
40
0.1933747
50
305.0246456
51
1.7615882
0
ARC
8
DEFAULT_255_2_778
10
10.2461543
20
73.3571681
40
0.1891119
50
355.2630683
51
53.5836731
0
ARC
8
DEFAULT_255_2_778
10
10.1907873
20
73.2414252
40
0.316046
50
57.967059
51
84.6794062
0
ARC
8
DEFAULT_255_2_778
10
10.1303192
20
72.8459889
40
0.7157726
50
82.7948042
51
90.3121097
0
LINE
8
DEFAULT_255_2_778
10
19.3244202
20
106.292251
11
19.3336202
21
106.949251
0
LINE
8
DEFAULT_255_2_778
10
19.3336202
20
106.949251
11
19.0272202
21
107.133351
0
LINE
8
DEFAULT_255_2_778
10
19.0272202
20
107.133351
11
18.7349202
21
106.646551
0
LINE
8
DEFAULT_255_2_778
10
18.7349202
20
106.646551
11
18.5621202
21
106.750551
0
LINE
8
DEFAULT_255_2_778
10
18.5621202
20
106.750551
11
19.2849202
21
107.953851
0
LINE
8
DEFAULT_255_2_778
10
19.2849202
20
107.953851
11
19.7167202
21
107.694251
0
LINE
8
DEFAULT_255_2_778
10
19.5151202
20
106.885951
11
19.5146202
21
106.191151
0
LINE
8
DEFAULT_255_2_778
10
19.5146202
20
106.191151
11
19.5085202
21
106.181451
0
LINE
8
DEFAULT_255_2_778
10
19.5085202
20
106.181451
11
19.3241202
21
106.292251
0
LINE
8
DEFAULT_255_2_778
10
19.3241202
20
106.292251
11
19.3244202
21
106.292251
0
LINE
8
DEFAULT_255_2_778
10
19.3794202
20
107.719151
11
19.1053202
21
107.263051
0
LINE
8
DEFAULT_255_2_778
10
19.1053202
20
107.263051
11
19.3696202
21
107.104251
0
LINE
8
DEFAULT_255_2_778
10
19.6429202
20
107.560951
11
19.3797202
21
107.719151
0
LINE
8
DEFAULT_255_2_778
10
19.3797202
20
107.719151
11
19.3794202
21
107.719151
0
LINE
8
DEFAULT_255_2_778
10
18.1827202
20
73.147951
11
17.8035202
21
73.713851
0
LINE
8
DEFAULT_255_2_778
10
17.8035202
20
73.713851
11
17.6286202
21
73.713851
0
LINE
8
DEFAULT_255_2_778
10
17.6286202
20
73.713851
11
18.0954202
21
73.028851
0
LINE
8
DEFAULT_255_2_778
10
18.0954202
20
73.028851
11
18.0954202
21
72.313951
0
LINE
8
DEFAULT_255_2_778
10
18.0954202
20
72.313951
11
18.2703202
21
72.313951
0
LINE
8
DEFAULT_255_2_778
10
18.2703202
20
72.313951
11
18.2703202
21
73.028851
0
LINE
8
DEFAULT_255_2_778
10
18.2703202
20
73.028851
11
18.7370202
21
73.713851
0
LINE
8
DEFAULT_255_2_778
10
18.7370202
20
73.713851
11
18.5621202
21
73.713851
0
LINE
8
DEFAULT_255_2_778
10
18.5621202
20
73.713851
11
18.1829202
21
73.147951
0
LINE
8
DEFAULT_255_2_778
10
16.0538202
20
73.713851
11
15.0037202
21
73.713851
0
LINE
8
DEFAULT_255_2_778
10
15.0037202
20
73.713851
11
15.0037202
21
72.313951
0
LINE
8
DEFAULT_255_2_778
10
15.0037202
20
72.313951
11
16.0538202
21
72.313951
0
LINE
8
DEFAULT_255_2_778
10
16.0538202
20
72.313951
11
16.0538202
21
72.492551
0
LINE
8
DEFAULT_255_2_778
10
16.0538202
20
72.492551
11
15.1789202
21
72.492551
0
LINE
8
DEFAULT_255_2_778
10
15.1789202
20
72.492551
11
15.1789202
21
72.969051
0
LINE
8
DEFAULT_255_2_778
10
15.1789202
20
72.969051
11
15.9372202
21
72.969051
0
LINE
8
DEFAULT_255_2_778
10
15.9372202
20
72.969051
11
15.9372202
21
73.147651
0
LINE
8
DEFAULT_255_2_778
10
15.9372202
20
73.147651
11
15.1789202
21
73.147651
0
LINE
8
DEFAULT_255_2_778
10
15.1789202
20
73.147651
11
15.1789202
21
73.534951
0
LINE
8
DEFAULT_255_2_778
10
15.1789202
20
73.534951
11
16.0538202
21
73.534951
0
LINE
8
DEFAULT_255_2_778
10
16.0538202
20
73.534951
11
16.0538202
21
73.713551
0
LINE
8
DEFAULT_255_2_778
10
14.7703202
20
73.713851
11
13.6620202
21
73.713851
0
LINE
8
DEFAULT_255_2_778
10
13.6620202
20
73.713851
11
13.6620202
21
73.564851
0
LINE
8
DEFAULT_255_2_778
10
13.6620202
20
73.564851
11
14.1287202
21
73.564851
0
LINE
8
DEFAULT_255_2_778
10
14.1287202
20
73.564851
11
14.1287202
21
72.313951
0
LINE
8
DEFAULT_255_2_778
10
14.1287202
20
72.313951
11
14.3036202
21
72.313951
0
LINE
8
DEFAULT_255_2_778
10
14.3036202
20
72.313951
11
14.3036202
21
73.564851
0
LINE
8
DEFAULT_255_2_778
10
14.3036202
20
73.564851
11
14.7703202
21
73.564851
0
LINE
8
DEFAULT_255_2_778
10
14.7703202
20
73.564851
11
14.7703202
21
73.713851
0
LINE
8
DEFAULT_255_2_778
10
13.4287202
20
73.713851
11
12.3203202
21
73.713851
0
LINE
8
DEFAULT_255_2_778
10
12.3203202
20
73.713851
11
12.3203202
21
73.564851
0
LINE
8
DEFAULT_255_2_778
10
12.3203202
20
73.564851
11
12.7870202
21
73.564851
0
LINE
8
DEFAULT_255_2_778
10
12.7870202
20
73.564851
11
12.7870202
21
72.313951
0
LINE
8
DEFAULT_255_2_778
10
12.7870202
20
72.313951
11
12.9619202
21
72.313951
0
LINE
8
DEFAULT_255_2_778
10
12.9619202
20
72.313951
11
12.9619202
21
73.564851
0
LINE
8
DEFAULT_255_2_778
10
12.9619202
20
73.564851
11
13.4287202
21
73.564851
0
LINE
8
DEFAULT_255_2_778
10
13.4287202
20
73.564851
11
13.4287202
21
73.713851
0
LINE
8
DEFAULT_255_2_778
10
10.1579202
20
72.313951
11
9.6078202
21
72.313951
0
LINE
8
DEFAULT_255_2_778
10
9.6078202
20
72.313951
11
9.6078202
21
73.713851
0
LINE
8
DEFAULT_255_2_778
10
9.6078202
20
73.713851
11
10.1261202
21
73.713851
0
LINE
8
DEFAULT_255_2_778
10
10.1579202
20
72.313951
11
10.1579202
21
72.313951
0
LINE
8
DEFAULT_255_2_778
10
10.1655202
20
72.968751
11
9.8171202
21
72.968751
0
LINE
8
DEFAULT_255_2_778
10
9.8171202
20
72.968751
11
9.8171202
21
72.465051
0
LINE
8
DEFAULT_255_2_778
10
9.8171202
20
72.465051
11
10.1624202
21
72.465051
0
LINE
8
DEFAULT_255_2_778
10
10.1655202
20
72.969051
11
10.1655202
21
72.968751
0
LINE
8
DEFAULT_255_2_778
10
9.8171202
20
73.561951
11
9.8171202
21
73.116651
0
LINE
8
DEFAULT_255_2_778
10
9.8171202
20
73.116651
11
10.1330202
21
73.116651
0
LINE
8
DEFAULT_255_2_778
10
10.1264202
20
73.561751
11
9.8171202
21
73.561751
0
LINE
8
DEFAULT_255_2_778
10
9.8171202
20
73.561751
11
9.8171202
21
73.561951
0
LINE
8
DEFAULT_255_2_778
10
11.9075265
20
72.3139573
11
11.7811265
21
72.6793573
0
LINE
8
DEFAULT_255_2_778
10
11.7811265
20
72.6793573
11
11.2254265
21
72.6793573
0
LINE
8
DEFAULT_255_2_778
10
11.2254265
20
72.6793573
11
11.1005265
21
72.3139573
0
LINE
8
DEFAULT_255_2_778
10
11.1005265
20
72.3139573
11
10.9201265
21
72.3139573
0
LINE
8
DEFAULT_255_2_778
10
10.9201265
20
72.3139573
11
11.4265265
21
73.7138573
0
LINE
8
DEFAULT_255_2_778
10
11.4265265
20
73.7138573
11
11.5794265
21
73.7138573
0
LINE
8
DEFAULT_255_2_778
10
11.5794265
20
73.7138573
11
12.0866265
21
72.3139573
0
LINE
8
DEFAULT_255_2_778
10
12.0866265
20
72.3139573
11
11.9073265
21
72.3139573
0
LINE
8
DEFAULT_255_2_778
10
11.9073265
20
72.3139573
11
11.9075265
21
72.3139573
0
LINE
8
DEFAULT_255_2_778
10
11.5032265
20
73.4860573
11
11.2783265
21
72.8311573
0
LINE
8
DEFAULT_255_2_778
10
11.2783265
20
72.8311573
11
11.7292265
21
72.8311573
0
LINE
8
DEFAULT_255_2_778
10
11.7292265
20
72.8311573
11
11.5032265
21
73.4860573
0
LINE
8
DEFAULT_255_2_778
10
11.5032265
20
73.4860573
11
11.5032265
21
73.4860573
0
ARC
8
DEFAULT_255_2_778
10
16.8050625
20
72.8395156
40
0.8744648
50
75.7211465
51
90.8220416
0
ARC
8
DEFAULT_255_2_778
10
16.9040741
20
73.2268373
40
0.4746886
50
53.0501697
51
75.7722281
0
ARC
8
DEFAULT_255_2_778
10
16.9617563
20
73.3192422
40
0.3662903
50
358.9538074
51
51.5720528
0
ARC
8
DEFAULT_255_2_778
10
16.7393171
20
73.2928044
40
0.5889997
50
359.9889185
51
1.9215548
0
ARC
8
DEFAULT_255_2_778
10
16.9725971
20
73.2860157
40
0.3557822
50
321.5728886
51
1.0749796
0
ARC
8
DEFAULT_255_2_778
10
16.8967382
20
73.3571677
40
0.4595126
50
287.7748086
51
320.5014178
0
ARC
8
DEFAULT_255_2_778
10
16.8116874
20
73.4418922
40
0.4108097
50
268.1767192
51
296.0982034
0
ARC
8
DEFAULT_255_2_778
10
16.8609036
20
73.3226773
40
0.2822197
50
297.7724866
51
308.6889233
0
ARC
8
DEFAULT_255_2_778
10
16.8941833
20
73.2848142
40
0.2318741
50
308.1184576
51
1.9960321
0
ARC
8
DEFAULT_255_2_778
10
16.8841487
20
73.3077496
40
0.2422242
50
356.4830171
51
49.4825856
0
ARC
8
DEFAULT_255_2_778
10
16.844317
20
73.2335728
40
0.3249858
50
52.6418782
51
84.9744895
0
ARC
8
DEFAULT_255_2_778
10
16.7968516
20
72.943914
40
0.6180774
50
82.9431001
51
89.9105324
0
LINE
8
DEFAULT_255_2_778
10
17.1794167
20
72.3139905
11
16.8481167
21
72.8804905
0
LINE
8
DEFAULT_255_2_778
10
16.8481167
20
72.8804905
11
16.4896167
21
72.8804905
0
LINE
8
DEFAULT_255_2_778
10
16.4896167
20
72.8804905
11
16.4896167
21
72.3139905
0
LINE
8
DEFAULT_255_2_778
10
16.4896167
20
72.3139905
11
16.2872167
21
72.3139905
0
LINE
8
DEFAULT_255_2_778
10
16.2872167
20
72.3139905
11
16.2872167
21
73.7138905
0
LINE
8
DEFAULT_255_2_778
10
16.2872167
20
73.7138905
11
16.7925167
21
73.7138905
0
LINE
8
DEFAULT_255_2_778
10
17.0370167
20
72.9195905
11
17.3955167
21
72.3253905
0
LINE
8
DEFAULT_255_2_778
10
17.3955167
20
72.3253905
11
17.3955167
21
72.3136905
0
LINE
8
DEFAULT_255_2_778
10
17.3955167
20
72.3136905
11
17.1796167
21
72.3136905
0
LINE
8
DEFAULT_255_2_778
10
17.1796167
20
72.3136905
11
17.1794167
21
72.3139905
0
LINE
8
DEFAULT_255_2_778
10
16.4893167
20
73.5619905
11
16.4893167
21
73.0312905
0
LINE
8
DEFAULT_255_2_778
10
16.4893167
20
73.0312905
11
16.7986167
21
73.0312905
0
LINE
8
DEFAULT_255_2_778
10
16.7978167
20
73.5619905
11
16.4896167
21
73.5619905
0
LINE
8
DEFAULT_255_2_778
10
16.4896167
20
73.5619905
11
16.4893167
21
73.5619905
0
LINE
8
DEFAULT_255_2_778
10
25.5622167
20
73.5352905
11
25.5622167
21
73.7138905
0
LINE
8
DEFAULT_255_2_778
10
25.5622167
20
73.7138905
11
24.5120167
21
73.7138905
0
LINE
8
DEFAULT_255_2_778
10
24.5120167
20
73.7138905
11
24.5120167
21
72.3139905
0
LINE
8
DEFAULT_255_2_778
10
24.5120167
20
72.3139905
11
25.5622167
21
72.3139905
0
LINE
8
DEFAULT_255_2_778
10
25.5622167
20
72.3139905
11
25.5622167
21
72.4925905
0
LINE
8
DEFAULT_255_2_778
10
25.5622167
20
72.4925905
11
24.6872167
21
72.4925905
0
LINE
8
DEFAULT_255_2_778
10
24.6872167
20
72.4925905
11
24.6872167
21
72.9690905
0
LINE
8
DEFAULT_255_2_778
10
24.6872167
20
72.9690905
11
25.4455167
21
72.9690905
0
LINE
8
DEFAULT_255_2_778
10
25.4455167
20
72.9690905
11
25.4455167
21
73.1476905
0
LINE
8
DEFAULT_255_2_778
10
25.4455167
20
73.1476905
11
24.6872167
21
73.1476905
0
LINE
8
DEFAULT_255_2_778
10
24.6872167
20
73.1476905
11
24.6872167
21
73.5349905
0
LINE
8
DEFAULT_255_2_778
10
24.6872167
20
73.5349905
11
25.5622167
21
73.5349905
0
LINE
8
DEFAULT_255_2_778
10
24.2787167
20
73.5648905
11
24.2787167
21
73.7138905
0
LINE
8
DEFAULT_255_2_778
10
24.2787167
20
73.7138905
11
23.1703167
21
73.7138905
0
LINE
8
DEFAULT_255_2_778
10
23.1703167
20
73.7138905
11
23.1703167
21
73.5648905
0
LINE
8
DEFAULT_255_2_778
10
23.1703167
20
73.5648905
11
23.6371167
21
73.5648905
0
LINE
8
DEFAULT_255_2_778
10
23.6371167
20
73.5648905
11
23.6371167
21
72.3139905
0
LINE
8
DEFAULT_255_2_778
10
23.6371167
20
72.3139905
11
23.8120167
21
72.3139905
0
LINE
8
DEFAULT_255_2_778
10
23.8120167
20
72.3139905
11
23.8120167
21
73.5648905
0
LINE
8
DEFAULT_255_2_778
10
23.8120167
20
73.5648905
11
24.2787167
21
73.5648905
0
LINE
8
DEFAULT_255_2_778
10
21.5368167
20
73.2373905
11
21.5077167
21
73.3862905
0
LINE
8
DEFAULT_255_2_778
10
21.5077167
20
73.3862905
11
21.4495167
21
73.5053905
0
LINE
8
DEFAULT_255_2_778
10
21.4495167
20
73.5053905
11
21.3328167
21
73.6244905
0
LINE
8
DEFAULT_255_2_778
10
21.3328167
20
73.6244905
11
21.2161167
21
73.6839905
0
LINE
8
DEFAULT_255_2_778
10
21.2161167
20
73.6839905
11
21.0703167
21
73.7138905
0
LINE
8
DEFAULT_255_2_778
10
21.0703167
20
73.7138905
11
20.3703167
21
73.7138905
0
LINE
8
DEFAULT_255_2_778
10
20.3703167
20
73.7138905
11
20.3703167
21
72.3139905
0
LINE
8
DEFAULT_255_2_778
10
20.3703167
20
72.3139905
11
21.0703167
21
72.3139905
0
LINE
8
DEFAULT_255_2_778
10
21.0703167
20
72.3139905
11
21.2161167
21
72.3438905
0
LINE
8
DEFAULT_255_2_778
10
21.2161167
20
72.3438905
11
21.3328167
21
72.4033905
0
LINE
8
DEFAULT_255_2_778
10
21.3328167
20
72.4033905
11
21.4495167
21
72.5224905
0
LINE
8
DEFAULT_255_2_778
10
21.4495167
20
72.5224905
11
21.5077167
21
72.6414905
0
LINE
8
DEFAULT_255_2_778
10
21.5077167
20
72.6414905
11
21.5368167
21
72.7904905
0
LINE
8
DEFAULT_255_2_778
10
21.5368167
20
72.7904905
11
21.5368167
21
73.2373905
0
LINE
8
DEFAULT_255_2_778
10
21.3325167
20
73.3563905
11
21.3616167
21
73.2373905
0
LINE
8
DEFAULT_255_2_778
10
21.3616167
20
73.2373905
11
21.3616167
21
72.7904905
0
LINE
8
DEFAULT_255_2_778
10
21.3616167
20
72.7904905
11
21.3325167
21
72.6713905
0
LINE
8
DEFAULT_255_2_778
10
21.3325167
20
72.6713905
11
21.2743167
21
72.5819905
0
LINE
8
DEFAULT_255_2_778
10
21.2743167
20
72.5819905
11
21.1867167
21
72.5224905
0
LINE
8
DEFAULT_255_2_778
10
21.1867167
20
72.5224905
11
21.0701167
21
72.4925905
0
LINE
8
DEFAULT_255_2_778
10
21.0701167
20
72.4925905
11
20.5451167
21
72.4925905
0
LINE
8
DEFAULT_255_2_778
10
20.5451167
20
72.4925905
11
20.5451167
21
73.5349905
0
LINE
8
DEFAULT_255_2_778
10
20.5451167
20
73.5349905
11
21.0703167
21
73.5349905
0
LINE
8
DEFAULT_255_2_778
10
21.0703167
20
73.5349905
11
21.1870167
21
73.5050905
0
LINE
8
DEFAULT_255_2_778
10
21.1870167
20
73.5050905
11
21.2746167
21
73.4455905
0
LINE
8
DEFAULT_255_2_778
10
21.2746167
20
73.4455905
11
21.3325167
21
73.3563905
0
LINE
8
DEFAULT_255_2_778
10
22.7573265
20
72.3139573
11
22.6308265
21
72.6793573
0
LINE
8
DEFAULT_255_2_778
10
22.6308265
20
72.6793573
11
22.0752265
21
72.6793573
0
LINE
8
DEFAULT_255_2_778
10
22.0752265
20
72.6793573
11
21.9503265
21
72.3139573
0
LINE
8
DEFAULT_255_2_778
10
21.9503265
20
72.3139573
11
21.7699265
21
72.3139573
0
LINE
8
DEFAULT_255_2_778
10
21.7699265
20
72.3139573
11
22.2763265
21
73.7138573
0
LINE
8
DEFAULT_255_2_778
10
22.2763265
20
73.7138573
11
22.4292265
21
73.7138573
0
LINE
8
DEFAULT_255_2_778
10
22.4292265
20
73.7138573
11
22.9364265
21
72.3139573
0
LINE
8
DEFAULT_255_2_778
10
22.9364265
20
72.3139573
11
22.7571265
21
72.3139573
0
LINE
8
DEFAULT_255_2_778
10
22.7571265
20
72.3139573
11
22.7573265
21
72.3139573
0
LINE
8
DEFAULT_255_2_778
10
22.3530265
20
73.4860573
11
22.1281265
21
72.8311573
0
LINE
8
DEFAULT_255_2_778
10
22.1281265
20
72.8311573
11
22.5790265
21
72.8311573
0
LINE
8
DEFAULT_255_2_778
10
22.5790265
20
72.8311573
11
22.3530265
21
73.4860573
0
LINE
8
DEFAULT_255_2_778
10
22.3530265
20
73.4860573
11
22.3530265
21
73.4860573
0
ARC
8
DEFAULT_255_2_778
10
17.367741
20
39.0936278
40
0.500033
50
90.0152365
51
179.9962124
0
LINE
8
DEFAULT_255_2_778
10
16.6436081
20
26.9082609
11
28.5639081
21
26.9100609
0
LINE
8
DEFAULT_255_2_778
10
28.5639081
20
26.9100609
11
28.5914081
21
26.8852609
0
LINE
8
DEFAULT_255_2_778
10
28.5914081
20
26.8852609
11
16.6119081
21
26.8870609
0
LINE
8
DEFAULT_255_2_778
10
28.2877081
20
27.4715609
11
28.0464081
21
27.5234609
0
LINE
8
DEFAULT_255_2_778
10
28.0464081
20
27.5234609
11
27.7366081
21
27.5234609
0
LINE
8
DEFAULT_255_2_778
10
27.7366081
20
27.5234609
11
27.7366081
21
27.7266609
0
LINE
8
DEFAULT_255_2_778
10
27.7366081
20
27.7266609
11
27.3225081
21
27.7266609
0
LINE
8
DEFAULT_255_2_778
10
27.3225081
20
39.1211609
11
27.7366081
21
39.1211609
0
LINE
8
DEFAULT_255_2_778
10
27.7366081
20
39.1211609
11
27.7366081
21
39.3243609
0
LINE
8
DEFAULT_255_2_778
10
27.7366081
20
39.3243609
11
28.0464081
21
39.3243609
0
LINE
8
DEFAULT_255_2_778
10
28.0464081
20
39.3243609
11
28.2877081
21
39.3762609
0
LINE
8
DEFAULT_255_2_778
10
27.3225081
20
27.5234609
11
26.9415081
21
27.9044609
0
LINE
8
DEFAULT_255_2_778
10
26.9415081
20
27.9044609
11
26.9415081
21
38.9433609
0
LINE
8
DEFAULT_255_2_778
10
26.9415081
20
38.9433609
11
17.6959081
21
38.9433609
0
LINE
8
DEFAULT_255_2_778
10
17.6959081
20
38.9433609
11
17.6959081
21
27.9044609
0
LINE
8
DEFAULT_255_2_778
10
17.6959081
20
27.9044609
11
26.9415081
21
27.9044609
0
LINE
8
DEFAULT_255_2_778
10
28.8150081
20
39.0396609
11
28.2877081
21
39.0396609
0
LINE
8
DEFAULT_255_2_778
10
17.3676081
20
39.5936609
11
28.3676081
21
39.5936609
0
LINE
8
DEFAULT_255_2_778
10
28.3676081
20
39.5936609
11
28.4377081
21
39.6635609
0
LINE
8
DEFAULT_255_2_778
10
28.4377081
20
39.6635609
11
17.2974081
21
39.6635609
0
LINE
8
DEFAULT_255_2_778
10
17.2974081
20
39.6635609
11
17.3676081
21
39.5936609
0
LINE
8
DEFAULT_255_2_778
10
16.8675081
20
27.3135609
11
16.8117081
21
27.3694609
0
LINE
8
DEFAULT_255_2_778
10
16.8117081
20
27.3694609
11
16.8117081
21
27.7139609
0
LINE
8
DEFAULT_255_2_778
10
28.8399081
20
39.2325609
11
28.8399081
21
27.1352609
0
LINE
8
DEFAULT_255_2_778
10
28.8399081
20
27.1352609
11
28.8150081
21
27.1601609
0
LINE
8
DEFAULT_255_2_778
10
28.8150081
20
27.1601609
11
28.8150081
21
39.3068609
0
ARC
8
DEFAULT_255_2_778
10
16.3676058
20
27.3139395
40
0.5001613
50
270.0069883
51
359.958617
0
LINE
8
DEFAULT_255_2_778
10
16.7978668
20
36.8436782
11
16.7978668
21
39.1637782
0
LINE
8
DEFAULT_255_2_778
10
16.7978668
20
39.1637782
11
16.8677668
21
39.0936782
0
LINE
8
DEFAULT_255_2_778
10
16.8677668
20
27.3135782
11
16.8677668
21
39.0936782
0
ARC
8
DEFAULT_255_2_778
10
17.2979846
20
39.1635547
40
0.5000972
50
90.0340437
51
179.9659563
0
ARC
8
DEFAULT_255_2_778
10
18.0769136
20
38.9434256
40
0.3810262
50
90.0039451
51
179.9960549
0
ARC
8
DEFAULT_255_2_778
10
18.0768498
20
27.9045142
40
0.3809624
50
179.9943307
51
270.0056586
0
ARC
8
DEFAULT_255_2_778
10
28.4374544
20
39.1636189
40
0.5000331
50
0.0266974
51
89.9732968
0
ARC
8
DEFAULT_255_2_778
10
28.5604084
20
27.1680217
40
0.2588713
50
270.1945593
51
314.0467282
0
ARC
8
DEFAULT_255_2_778
10
28.5588702
20
27.1626585
40
0.2561316
50
315.1282127
51
359.3945213
0
ARC
8
DEFAULT_255_2_778
10
28.6020753
20
27.1354561
40
0.2378121
50
354.4162124
51
359.9748908
0
ARC
8
DEFAULT_255_2_778
10
28.5852678
20
27.1372016
40
0.2547097
50
315.9018834
51
354.3932987
0
ARC
8
DEFAULT_255_2_778
10
28.5892745
20
27.1398591
40
0.2537251
50
275.9997557
51
314.8412149
0
ARC
8
DEFAULT_255_2_778
10
28.5925834
20
27.1161738
40
0.229825
50
270.30016
51
275.7965627
0
ARC
8
DEFAULT_255_2_778
10
16.2990445
20
27.3831995
40
0.4992111
50
314.9265713
51
351.9917824
0
ARC
8
DEFAULT_255_2_778
10
16.2983899
20
27.381245
40
0.498293
50
269.9652209
51
315.1385757
0
ARC
8
DEFAULT_255_2_778
10
16.3200073
20
27.3699866
40
0.4921803
50
353.462695
51
359.9493866
0
LINE
8
DEFAULT_255_2_778
10
16.7978874
20
34.3436518
11
16.8153874
21
34.8437518
0
LINE
8
DEFAULT_255_2_778
10
28.0463874
20
39.3244518
11
28.0463874
21
27.5235518
0
LINE
8
DEFAULT_255_2_778
10
28.2876874
20
26.9101518
11
28.2876874
21
39.5937518
0
LINE
8
DEFAULT_255_2_778
10
28.9234874
20
27.3136518
11
28.9234874
21
27.7137518
0
LINE
8
DEFAULT_255_2_778
10
28.9374874
20
36.8437518
11
28.9200874
21
36.3436518
0
LINE
8
DEFAULT_255_2_778
10
28.0463517
20
34.9860164
11
28.2876517
21
34.9860164
0
LINE
8
DEFAULT_255_2_778
10
28.2876517
20
34.2444164
11
28.0463517
21
34.2444164
0
LINE
8
DEFAULT_255_2_778
10
28.0463517
20
27.5996164
11
28.2876517
21
27.5478164
0
LINE
8
DEFAULT_255_2_778
10
28.2876517
20
32.6034164
11
28.0463517
21
32.6034164
0
LINE
8
DEFAULT_255_2_778
10
28.0464028
20
32.496845
11
28.2877028
21
32.496845
0
LINE
8
DEFAULT_255_2_778
10
28.0464028
20
31.861845
11
28.2877028
21
31.861845
0
LINE
8
DEFAULT_255_2_778
10
28.2877028
20
30.317445
11
28.0464028
21
30.317445
0
LINE
8
DEFAULT_255_2_778
10
28.2877028
20
29.301445
11
28.0464028
21
29.301445
0
LINE
8
DEFAULT_255_2_778
10
28.2877028
20
37.546445
11
28.0464028
21
37.546445
0
LINE
8
DEFAULT_255_2_778
10
28.2877028
20
36.530445
11
28.0464028
21
36.530445
0
LINE
8
DEFAULT_255_2_778
10
28.0464028
20
34.351045
11
28.2877028
21
34.351045
0
LINE
8
DEFAULT_255_2_778
10
28.2877028
20
39.300045
11
28.0464028
21
39.248245
0
LINE
8
DEFAULT_255_2_778
10
24.0602028
20
39.593745
11
24.0761028
21
39.578145
0
LINE
8
DEFAULT_255_2_778
10
24.0761028
20
39.578145
11
25.4196028
21
39.578145
0
LINE
8
DEFAULT_255_2_778
10
25.4196028
20
39.578145
11
25.4355028
21
39.593745
0
LINE
8
DEFAULT_255_2_778
10
25.6271028
20
39.593745
11
25.6239028
21
39.405345
0
LINE
8
DEFAULT_255_2_778
10
25.6239028
20
39.405345
11
23.8721028
21
39.405345
0
LINE
8
DEFAULT_255_2_778
10
23.8721028
20
39.405345
11
23.8689028
21
39.593745
0
LINE
8
DEFAULT_255_2_778
10
26.9415028
20
38.943445
11
27.3225028
21
39.324445
0
LINE
8
DEFAULT_255_2_778
10
27.3225028
20
39.324445
11
27.3225028
21
27.523445
0
LINE
8
DEFAULT_255_2_778
10
27.3225028
20
27.523445
11
18.0769028
21
27.523445
0
LINE
8
DEFAULT_255_2_778
10
18.0769028
20
27.523445
11
18.0769028
21
39.324445
0
LINE
8
DEFAULT_255_2_778
10
18.0769028
20
39.324445
11
27.3225028
21
39.324445
0
ARC
8
DEFAULT_255_2_778
10
7.514814
20
25.5952184
40
4.0027894
50
344.3515028
51
0.0404247
0
ARC
8
DEFAULT_255_2_778
10
7.5212126
20
25.5983867
40
3.9974854
50
315.3718096
51
344.2830365
0
ARC
8
DEFAULT_255_2_778
10
7.5173322
20
25.5944434
40
3.9974806
50
286.6863918
51
315.4511044
0
ARC
8
DEFAULT_255_2_778
10
7.5202208
20
25.6012728
40
4.0031958
50
270.9630143
51
286.618724
0
LINE
8
DEFAULT_255_2_778
10
25.5410024
20
39.3243425
11
25.6233024
21
39.4053425
0
LINE
8
DEFAULT_255_2_778
10
23.9541024
20
39.3243425
11
23.8718024
21
39.4053425
0
LINE
8
DEFAULT_255_2_778
10
21.7091024
20
35.0749425
11
21.7091024
21
31.7729425
0
LINE
8
DEFAULT_255_2_778
10
21.7091024
20
31.7729425
11
23.2331024
21
31.7729425
0
LINE
8
DEFAULT_255_2_778
10
23.2331024
20
31.7729425
11
23.4871024
21
31.5189425
0
LINE
8
DEFAULT_255_2_778
10
23.4871024
20
31.5189425
11
21.4551024
21
31.5189425
0
LINE
8
DEFAULT_255_2_778
10
21.4551024
20
31.5189425
11
21.4551024
21
35.3289425
0
LINE
8
DEFAULT_255_2_778
10
23.4871024
20
31.7729425
11
24.2491024
21
31.7729425
0
LINE
8
DEFAULT_255_2_778
10
24.2491024
20
31.7729425
11
24.2491024
21
32.7889425
0
LINE
8
DEFAULT_255_2_778
10
24.2491024
20
32.7889425
11
23.4871024
21
32.7889425
0
LINE
8
DEFAULT_255_2_778
10
21.4551024
20
32.7889425
11
20.6931024
21
32.7889425
0
LINE
8
DEFAULT_255_2_778
10
20.6931024
20
32.7889425
11
20.6931024
21
31.7729425
0
LINE
8
DEFAULT_255_2_778
10
20.6931024
20
31.7729425
11
21.4551024
21
31.7729425
0
LINE
8
DEFAULT_255_2_778
10
23.2331024
20
31.7729425
11
23.2331024
21
35.0749425
0
LINE
8
DEFAULT_255_2_778
10
23.2331024
20
35.0749425
11
21.7091024
21
35.0749425
0
LINE
8
DEFAULT_255_2_778
10
21.7091024
20
35.0749425
11
21.4551024
21
35.3289425
0
LINE
8
DEFAULT_255_2_778
10
21.4551024
20
35.3289425
11
23.4871024
21
35.3289425
0
LINE
8
DEFAULT_255_2_778
10
23.4871024
20
35.3289425
11
23.4871024
21
31.5189425
0
LINE
8
DEFAULT_255_2_778
10
23.4871024
20
34.0589425
11
24.2491024
21
34.0589425
0
LINE
8
DEFAULT_255_2_778
10
24.2491024
20
34.0589425
11
24.2491024
21
35.0749425
0
LINE
8
DEFAULT_255_2_778
10
24.2491024
20
35.0749425
11
23.4871024
21
35.0749425
0
LINE
8
DEFAULT_255_2_778
10
21.4551024
20
35.0749425
11
20.6931024
21
35.0749425
0
LINE
8
DEFAULT_255_2_778
10
20.6931024
20
35.0749425
11
20.6931024
21
34.0589425
0
LINE
8
DEFAULT_255_2_778
10
20.6931024
20
34.0589425
11
21.4551024
21
34.0589425
0
LINE
8
DEFAULT_255_2_778
10
20.9471024
20
34.9860425
11
20.9471024
21
35.0749425
0
LINE
8
DEFAULT_255_2_778
10
23.9951024
20
35.0749425
11
23.9951024
21
34.9860425
0
LINE
8
DEFAULT_255_2_778
10
20.9471024
20
34.0589425
11
20.9471024
21
34.3510425
0
LINE
8
DEFAULT_255_2_778
10
23.9951024
20
34.3510425
11
23.9951024
21
34.0589425
0
LINE
8
DEFAULT_255_2_778
10
20.9471024
20
32.4968425
11
20.9471024
21
32.7889425
0
LINE
8
DEFAULT_255_2_778
10
23.9951024
20
32.7889425
11
23.9951024
21
32.4968425
0
LINE
8
DEFAULT_255_2_778
10
20.9471024
20
31.7729425
11
20.9471024
21
31.8618425
0
LINE
8
DEFAULT_255_2_778
10
23.9951024
20
31.8618425
11
23.9951024
21
31.7729425
0
LINE
8
DEFAULT_255_2_778
10
20.9127024
20
29.4919425
11
20.1785024
21
29.4919425
0
LINE
8
DEFAULT_255_2_778
10
20.1785024
20
29.4919425
11
18.8389024
21
31.0857425
0
LINE
8
DEFAULT_255_2_778
10
18.8389024
20
31.0857425
11
18.8389024
21
35.7620425
0
LINE
8
DEFAULT_255_2_778
10
18.8389024
20
35.7620425
11
20.1785024
21
37.3558425
0
LINE
8
DEFAULT_255_2_778
10
20.1785024
20
37.3558425
11
20.9127024
21
37.3558425
0
LINE
8
DEFAULT_255_2_778
10
24.2491024
20
29.3522425
11
26.2557024
21
29.3522425
0
LINE
8
DEFAULT_255_2_778
10
26.2557024
20
29.3522425
11
26.3827024
21
29.2252425
0
LINE
8
DEFAULT_255_2_778
10
26.3827024
20
29.2252425
11
24.2491024
21
29.2252425
0
LINE
8
DEFAULT_255_2_778
10
24.2491024
20
29.2252425
11
24.2491024
21
29.8933425
0
LINE
8
DEFAULT_255_2_778
10
24.2491024
20
29.8933425
11
23.9062024
21
31.1633425
0
LINE
8
DEFAULT_255_2_778
10
23.9062024
20
31.1633425
11
22.0520024
21
31.1633425
0
LINE
8
DEFAULT_255_2_778
10
22.0520024
20
31.1633425
11
21.7091024
21
29.8933425
0
LINE
8
DEFAULT_255_2_778
10
21.7091024
20
29.8933425
11
21.7091024
21
29.3522425
0
LINE
8
DEFAULT_255_2_778
10
21.7091024
20
29.3522425
11
21.1757024
21
29.3522425
0
LINE
8
DEFAULT_255_2_778
10
21.1757024
20
29.3522425
11
20.6735024
21
29.6189425
0
LINE
8
DEFAULT_255_2_778
10
20.6735024
20
29.6189425
11
20.0716024
21
29.6189425
0
LINE
8
DEFAULT_255_2_778
10
20.0716024
20
37.2288425
11
20.6735024
21
37.2288425
0
LINE
8
DEFAULT_255_2_778
10
20.6735024
20
37.2288425
11
21.1757024
21
37.4955425
0
LINE
8
DEFAULT_255_2_778
10
21.1757024
20
37.4955425
11
21.7091024
21
37.4955425
0
LINE
8
DEFAULT_255_2_778
10
21.7091024
20
37.4955425
11
21.7091024
21
36.9545425
0
LINE
8
DEFAULT_255_2_778
10
21.7091024
20
36.9545425
11
22.0520024
21
35.6845425
0
LINE
8
DEFAULT_255_2_778
10
22.0520024
20
35.6845425
11
23.9062024
21
35.6845425
0
LINE
8
DEFAULT_255_2_778
10
23.9062024
20
35.6845425
11
24.2491024
21
36.9545425
0
LINE
8
DEFAULT_255_2_778
10
24.2491024
20
36.9545425
11
24.2491024
21
37.6225425
0
LINE
8
DEFAULT_255_2_778
10
24.2491024
20
37.6225425
11
26.3827024
21
37.6225425
0
LINE
8
DEFAULT_255_2_778
10
26.3827024
20
37.6225425
11
26.3827024
21
29.2252425
0
LINE
8
DEFAULT_255_2_778
10
24.2491024
20
37.4955425
11
26.2557024
21
37.4955425
0
LINE
8
DEFAULT_255_2_778
10
26.2557024
20
37.4955425
11
26.2557024
21
29.3522425
0
LINE
8
DEFAULT_255_2_778
10
18.9659024
20
30.9347425
11
18.9659024
21
35.9131425
0
LINE
8
DEFAULT_255_2_778
10
20.6931024
20
31.8618425
11
21.4551024
21
31.8618425
0
LINE
8
DEFAULT_255_2_778
10
20.6931024
20
32.4968425
11
21.4551024
21
32.4968425
0
LINE
8
DEFAULT_255_2_778
10
20.6931024
20
34.3510425
11
21.4551024
21
34.3510425
0
LINE
8
DEFAULT_255_2_778
10
20.6931024
20
34.9860425
11
21.4551024
21
34.9860425
0
LINE
8
DEFAULT_255_2_778
10
23.4871024
20
31.8618425
11
24.2491024
21
31.8618425
0
LINE
8
DEFAULT_255_2_778
10
23.4871024
20
32.4968425
11
24.2491024
21
32.4968425
0
LINE
8
DEFAULT_255_2_778
10
23.4871024
20
34.3510425
11
24.2491024
21
34.3510425
0
LINE
8
DEFAULT_255_2_778
10
23.4871024
20
34.9860425
11
24.2491024
21
34.9860425
0
LINE
8
DEFAULT_255_2_778
10
21.4551024
20
31.5189425
11
21.7091024
21
31.7729425
0
LINE
8
DEFAULT_255_2_778
10
26.2557024
20
37.4955425
11
26.3827024
21
37.6225425
0
LINE
8
DEFAULT_255_2_778
10
23.4871024
20
35.3289425
11
23.2331024
21
35.0749425
0
LINE
8
DEFAULT_255_2_778
10
7.5875024
20
21.5986425
11
7.3176024
21
21.5938425
0
LINE
8
DEFAULT_255_2_778
10
7.3176024
20
21.5938425
11
7.0477024
21
21.5986425
0
LINE
8
DEFAULT_255_2_778
10
2.8176024
20
27.7139425
11
1.3875024
21
27.7139425
0
LINE
8
DEFAULT_255_2_778
10
1.3875024
20
27.7139425
11
1.3875024
21
27.3138425
0
LINE
8
DEFAULT_255_2_778
10
1.3875024
20
27.3138425
11
2.8176024
21
27.3138425
0
LINE
8
DEFAULT_255_2_778
10
11.5176062
20
36.9997429
11
11.0263062
21
36.9997429
0
LINE
8
DEFAULT_255_2_778
10
3.6089062
20
36.9997429
11
3.1176062
21
36.9997429
0
LINE
8
DEFAULT_255_2_778
10
3.1176062
20
36.9997429
11
3.1176062
21
25.5980429
0
LINE
8
DEFAULT_255_2_778
10
9.555128
20
38.4994594
11
9.556728
21
38.5968594
0
LINE
8
DEFAULT_255_2_778
10
9.556728
20
38.5968594
11
9.557828
21
38.6907594
0
LINE
8
DEFAULT_255_2_778
10
9.557828
20
38.6907594
11
9.558628
21
38.7772594
0
LINE
8
DEFAULT_255_2_778
10
9.558628
20
38.7772594
11
9.558828
21
38.8529594
0
LINE
8
DEFAULT_255_2_778
10
9.558828
20
38.8529594
11
9.558828
21
38.8860594
0
LINE
8
DEFAULT_255_2_778
10
9.558828
20
38.8860594
11
9.558628
21
38.9151594
0
LINE
8
DEFAULT_255_2_778
10
9.558628
20
38.9151594
11
9.558328
21
38.9402594
0
LINE
8
DEFAULT_255_2_778
10
9.558328
20
38.9402594
11
9.557828
21
38.9611594
0
LINE
8
DEFAULT_255_2_778
10
9.557828
20
38.9611594
11
9.557328
21
38.9778594
0
LINE
8
DEFAULT_255_2_778
10
9.557328
20
38.9778594
11
9.556728
21
38.9897594
0
LINE
8
DEFAULT_255_2_778
10
9.556728
20
38.9897594
11
9.556528
21
38.9939594
0
LINE
8
DEFAULT_255_2_778
10
9.556528
20
38.9939594
11
9.556228
21
38.9968594
0
LINE
8
DEFAULT_255_2_778
10
9.556228
20
38.9968594
11
9.555928
21
38.9987594
0
LINE
8
DEFAULT_255_2_778
10
9.555928
20
38.9987594
11
9.555428
21
38.9992594
0
LINE
8
DEFAULT_255_2_778
10
9.555428
20
38.9992594
11
7.320528
21
39.0381594
0
LINE
8
DEFAULT_255_2_778
10
7.320528
20
39.0381594
11
5.085528
21
38.9992594
0
LINE
8
DEFAULT_255_2_778
10
5.085528
20
38.9992594
11
5.085028
21
38.9987594
0
LINE
8
DEFAULT_255_2_778
10
5.085028
20
38.9987594
11
5.084728
21
38.9968594
0
LINE
8
DEFAULT_255_2_778
10
5.084728
20
38.9968594
11
5.084528
21
38.9939594
0
LINE
8
DEFAULT_255_2_778
10
5.084528
20
38.9939594
11
5.084228
21
38.9897594
0
LINE
8
DEFAULT_255_2_778
10
5.084228
20
38.9897594
11
5.083728
21
38.9778594
0
LINE
8
DEFAULT_255_2_778
10
5.083728
20
38.9778594
11
5.083228
21
38.9611594
0
LINE
8
DEFAULT_255_2_778
10
5.083228
20
38.9611594
11
5.082628
21
38.9402594
0
LINE
8
DEFAULT_255_2_778
10
5.082628
20
38.9402594
11
5.082428
21
38.9151594
0
LINE
8
DEFAULT_255_2_778
10
5.082428
20
38.9151594
11
5.082128
21
38.8860594
0
LINE
8
DEFAULT_255_2_778
10
5.082128
20
38.8860594
11
5.082128
21
38.8529594
0
LINE
8
DEFAULT_255_2_778
10
5.082128
20
38.8529594
11
5.082428
21
38.7772594
0
LINE
8
DEFAULT_255_2_778
10
5.082428
20
38.7772594
11
5.083228
21
38.6907594
0
LINE
8
DEFAULT_255_2_778
10
5.083228
20
38.6907594
11
5.084228
21
38.5968594
0
LINE
8
DEFAULT_255_2_778
10
5.084228
20
38.5968594
11
5.085828
21
38.4994594
0
LINE
8
DEFAULT_255_2_778
10
1.787528
20
19.7140594
11
1.787528
21
27.3139594
0
LINE
8
DEFAULT_255_2_778
10
1.787528
20
27.7139594
11
1.787528
21
34.3439594
0
ARC
8
DEFAULT_255_2_778
10
9.5201168
20
37.0067645
40
1.9929722
50
64.3154842
51
89.0676624
0
ARC
8
DEFAULT_255_2_778
10
9.5152613
20
36.9982139
40
2.0027825
50
9.587694
51
64.2963209
0
ARC
8
DEFAULT_255_2_778
10
9.5045864
20
37.0003317
40
2.0129594
50
359.9840946
51
9.4776501
0
ARC
8
DEFAULT_255_2_778
10
5.1150699
20
37.0065102
40
1.9932264
50
90.9320798
51
115.6396577
0
ARC
8
DEFAULT_255_2_778
10
5.1197889
20
36.9982266
40
2.0027365
50
115.6588253
51
170.4705784
0
ARC
8
DEFAULT_255_2_778
10
5.1306195
20
37.0003244
40
2.0130739
50
170.5804958
51
180.0156974
0
ARC
8
DEFAULT_255_2_778
10
7.1208324
20
25.5954358
40
4.0032875
50
179.9622577
51
195.6493897
0
ARC
8
DEFAULT_255_2_778
10
7.1141895
20
25.5984989
40
3.9977199
50
195.7173459
51
224.556801
0
ARC
8
DEFAULT_255_2_778
10
7.117751
20
25.5942492
40
3.9972799
50
224.4775784
51
253.2889407
0
ARC
8
DEFAULT_255_2_778
10
7.1147244
20
25.6007346
40
4.0026239
50
253.3571298
51
269.0397535
0
LINE
8
DEFAULT_255_2_778
10
11.5175458
20
36.9997729
11
11.5175458
21
25.5980729
0
LINE
8
DEFAULT_255_2_778
10
1.7875458
20
36.8438729
11
1.2874458
21
36.3438729
0
LINE
8
DEFAULT_255_2_778
10
7.3175458
20
34.5383729
11
7.3175458
21
39.0383729
0
ARC
8
DEFAULT_255_2_778
10
5.1026671
20
37.0018619
40
1.4937953
50
149.7645978
51
180.0723078
0
ARC
8
DEFAULT_255_2_778
10
5.1092427
20
36.9993563
40
1.5007386
50
98.6711412
51
149.8083653
0
ARC
8
DEFAULT_255_2_778
10
5.1088591
20
36.9867418
40
1.513153
50
90.9726569
51
98.584771
0
ARC
8
DEFAULT_255_2_778
10
9.5286036
20
37.0062479
40
1.4936196
50
58.7604486
51
89.0843248
0
ARC
8
DEFAULT_255_2_778
10
9.5258591
20
36.9995085
40
1.5008055
50
7.6998797
51
58.8042994
0
ARC
8
DEFAULT_255_2_778
10
9.5133023
20
37.0001065
40
1.5131706
50
0.0064484
51
7.6137381
0
LINE
8
DEFAULT_255_2_778
10
3.1175729
20
27.0426768
11
3.6088729
21
27.0426768
0
LINE
8
DEFAULT_255_2_778
10
3.6088729
20
27.0426768
11
3.6088729
21
36.9999768
0
LINE
8
DEFAULT_255_2_778
10
5.0831729
20
38.4996768
11
7.3178729
21
38.5385768
0
LINE
8
DEFAULT_255_2_778
10
7.3178729
20
38.5385768
11
9.5524729
21
38.4996768
0
LINE
8
DEFAULT_255_2_778
10
11.0264729
20
37.0002768
11
11.0264729
21
27.0426768
0
LINE
8
DEFAULT_255_2_778
10
11.0264729
20
27.0426768
11
11.5178729
21
27.0426768
0
LINE
8
DEFAULT_255_2_778
10
7.3175729
20
23.0381768
11
7.3175729
21
27.5382768
0
ARC
8
DEFAULT_255_2_778
10
7.1082923
20
27.0398304
40
3.4993572
50
179.9577796
51
197.0556038
0
ARC
8
DEFAULT_255_2_778
10
7.1149164
20
27.048416
40
3.5082139
50
197.1579251
51
252.1466067
0
ARC
8
DEFAULT_255_2_778
10
7.106474
20
27.0428458
40
3.5003295
50
252.2501892
51
269.0384903
0
ARC
8
DEFAULT_255_2_778
10
7.5287858
20
27.0424189
40
3.4999013
50
270.960188
51
288.0561922
0
ARC
8
DEFAULT_255_2_778
10
7.5203978
20
27.0482463
40
3.508047
50
288.1569441
51
343.1440374
0
ARC
8
DEFAULT_255_2_778
10
7.5264433
20
27.0397158
40
3.4997937
50
343.248993
51
0.0440917
0
ARC
8
DEFAULT_255_2_778
10
9.0316004
20
34.0810673
40
0.4796746
50
24.4307588
51
85.1283783
0
ARC
8
DEFAULT_255_2_778
10
8.8423452
20
33.966378
40
0.6999073
50
359.6161583
51
26.5715854
0
ARC
8
DEFAULT_255_2_778
10
8.6719449
20
33.9616891
40
0.8702919
50
359.9223087
51
359.9999978
0
ARC
8
DEFAULT_255_2_778
10
5.3732162
20
33.9608641
40
0.2799805
50
179.9757848
51
180.07265
0
ARC
8
DEFAULT_255_2_778
10
5.7833685
20
33.9675895
40
0.6901643
50
149.0656681
51
180.5485119
0
ARC
8
DEFAULT_255_2_778
10
5.5991509
20
34.0920892
40
0.4683068
50
94.4106655
51
150.5453107
0
ARC
8
DEFAULT_255_2_778
10
5.6401885
20
32.0678062
40
0.6065223
50
90.4584061
51
108.7592124
0
ARC
8
DEFAULT_255_2_778
10
5.6115615
20
32.1482592
40
0.5211384
50
108.6236235
51
129.0088518
0
ARC
8
DEFAULT_255_2_778
10
5.5508153
20
32.2225185
40
0.4251994
50
128.9467397
51
152.1873127
0
ARC
8
DEFAULT_255_2_778
10
5.5132209
20
32.2479886
40
0.3800968
50
152.9390586
51
165.2582513
0
ARC
8
DEFAULT_255_2_778
10
5.478317
20
32.2598882
40
0.3433238
50
165.6965133
51
179.0952936
0
ARC
8
DEFAULT_255_2_778
10
5.4525749
20
29.8148865
40
0.3175591
50
180.6454754
51
182.0914965
0
ARC
8
DEFAULT_255_2_778
10
5.4751303
20
29.8164023
40
0.3401553
50
182.2079871
51
194.3826156
0
ARC
8
DEFAULT_255_2_778
10
5.4919165
20
29.8201724
40
0.3573522
50
194.2996121
51
195.914211
0
ARC
8
DEFAULT_255_2_778
10
5.4837771
20
29.8172989
40
0.3487373
50
195.8268786
51
207.6039339
0
ARC
8
DEFAULT_255_2_778
10
5.5508146
20
29.8540988
40
0.4251983
50
207.8126321
51
231.0532663
0
ARC
8
DEFAULT_255_2_778
10
5.6115615
20
29.928359
40
0.5211384
50
230.9911482
51
251.3763765
0
ARC
8
DEFAULT_255_2_778
10
5.6390677
20
30.0003338
40
0.5981364
50
251.0812807
51
269.6425382
0
ARC
8
DEFAULT_255_2_778
10
9.163178
20
32.2603923
40
0.3372896
50
0.7842813
51
14.4239008
0
ARC
8
DEFAULT_255_2_778
10
9.1435555
20
32.2561458
40
0.3573522
50
14.2996121
51
15.914211
0
ARC
8
DEFAULT_255_2_778
10
9.1516949
20
32.2590193
40
0.3487373
50
15.8268786
51
27.6039339
0
ARC
8
DEFAULT_255_2_778
10
9.0846581
20
32.2222195
40
0.4251976
50
27.812655
51
51.0533268
0
ARC
8
DEFAULT_255_2_778
10
9.0239104
20
32.1479592
40
0.5211384
50
50.9911482
51
71.3763765
0
ARC
8
DEFAULT_255_2_778
10
8.9964043
20
32.0759843
40
0.5981364
50
71.0812807
51
89.6425382
0
ARC
8
DEFAULT_255_2_778
10
8.9954496
20
30.0057557
40
0.6037649
50
270.4447317
51
288.8314494
0
ARC
8
DEFAULT_255_2_778
10
9.0259016
20
29.9245394
40
0.5170729
50
288.5426181
51
309.0898572
0
ARC
8
DEFAULT_255_2_778
10
9.0859417
20
29.8529921
40
0.423686
50
308.8887307
51
332.2028186
0
ARC
8
DEFAULT_255_2_778
10
9.1222518
20
29.8283292
40
0.3800959
50
332.9390379
51
345.2582582
0
ARC
8
DEFAULT_255_2_778
10
9.1624808
20
29.8157189
40
0.337988
50
345.5902551
51
359.201554
0
ARC
8
DEFAULT_255_2_778
10
8.801903
20
28.116097
40
0.740633
50
358.4876226
51
0.0009326
0
ARC
8
DEFAULT_255_2_778
10
8.8155536
20
28.1150052
40
0.7269586
50
343.0779443
51
358.5452462
0
ARC
8
DEFAULT_255_2_778
10
8.9106478
20
28.0841964
40
0.6270167
50
323.508684
51
343.2420323
0
ARC
8
DEFAULT_255_2_778
10
8.9827991
20
28.0332564
40
0.5387203
50
311.808886
51
323.30072
0
ARC
8
DEFAULT_255_2_778
10
9.0279889
20
27.9821638
40
0.4705117
50
298.7133725
51
311.8548647
0
ARC
8
DEFAULT_255_2_778
10
9.0475415
20
27.9438517
40
0.4275188
50
284.4241955
51
298.8819597
0
ARC
8
DEFAULT_255_2_778
10
9.0526806
20
27.9266468
40
0.4095767
50
270.0140479
51
284.3274816
0
ARC
8
DEFAULT_255_2_778
10
9.0527821
20
27.9237039
40
0.4066339
50
269.2044252
51
269.9998482
0
ARC
8
DEFAULT_255_2_778
10
5.7970038
20
28.1141951
40
0.7034705
50
179.8441158
51
180.0057723
0
ARC
8
DEFAULT_255_2_778
10
5.8164174
20
28.114486
40
0.7228843
50
180.0286683
51
196.9772906
0
ARC
8
DEFAULT_255_2_778
10
5.725429
20
28.0841989
40
0.6270221
50
196.7580554
51
216.491232
0
ARC
8
DEFAULT_255_2_778
10
5.6529758
20
28.0325328
40
0.5380498
50
216.6564039
51
228.1553872
0
ARC
8
DEFAULT_255_2_778
10
5.6099006
20
27.9848736
40
0.4738097
50
228.1910664
51
241.2406865
0
ARC
8
DEFAULT_255_2_778
10
5.5884304
20
27.9438517
40
0.4275188
50
241.1180403
51
255.5758045
0
ARC
8
DEFAULT_255_2_778
10
5.5832914
20
27.9266468
40
0.4095767
50
255.6725184
51
269.9859521
0
ARC
8
DEFAULT_255_2_778
10
5.5831899
20
27.9237039
40
0.4066339
50
270.0001518
51
270.7955748
0
LINE
8
DEFAULT_255_2_778
10
7.047736
20
23.5430091
11
7.317636
21
23.5383091
0
LINE
8
DEFAULT_255_2_778
10
7.317636
20
23.5383091
11
7.587436
21
23.5430091
0
LINE
8
DEFAULT_255_2_778
10
9.046936
20
34.5595091
11
9.072336
21
34.5590091
0
LINE
8
DEFAULT_255_2_778
10
5.563136
20
34.5590091
11
5.588536
21
34.5595091
0
LINE
8
DEFAULT_255_2_778
10
5.635336
20
29.4022091
11
5.643536
21
30.1166091
0
LINE
8
DEFAULT_255_2_778
10
5.643536
20
30.1166091
11
5.646536
21
31.0382091
0
LINE
8
DEFAULT_255_2_778
10
5.646536
20
31.0382091
11
5.643536
21
31.9600091
0
LINE
8
DEFAULT_255_2_778
10
5.643536
20
31.9600091
11
5.635336
21
32.6743091
0
LINE
8
DEFAULT_255_2_778
10
5.135036
20
32.2653091
11
5.093036
21
33.9605091
0
LINE
8
DEFAULT_255_2_778
10
5.093036
20
33.9605091
11
5.093036
21
28.1161091
0
LINE
8
DEFAULT_255_2_778
10
5.093036
20
28.1161091
11
5.135036
21
29.8113091
0
LINE
8
DEFAULT_255_2_778
10
5.635336
20
29.4022091
11
5.635336
21
29.4022091
0
LINE
8
DEFAULT_255_2_778
10
9.000136
20
32.6741091
11
9.046936
21
34.5595091
0
LINE
8
DEFAULT_255_2_778
10
9.046936
20
34.5595091
11
7.317636
21
34.5383091
0
LINE
8
DEFAULT_255_2_778
10
7.317636
20
34.5383091
11
5.588336
21
34.5595091
0
LINE
8
DEFAULT_255_2_778
10
5.588336
20
34.5595091
11
5.635136
21
32.6741091
0
LINE
8
DEFAULT_255_2_778
10
5.635136
20
32.6741091
11
9.000136
21
32.6741091
0
LINE
8
DEFAULT_255_2_778
10
9.000136
20
32.6741091
11
8.991836
21
31.9597091
0
LINE
8
DEFAULT_255_2_778
10
8.991836
20
31.9597091
11
8.988936
21
31.0382091
0
LINE
8
DEFAULT_255_2_778
10
8.988936
20
31.0382091
11
8.991836
21
30.1164091
0
LINE
8
DEFAULT_255_2_778
10
8.991836
20
30.1164091
11
9.000136
21
29.4020091
0
LINE
8
DEFAULT_255_2_778
10
9.500436
20
29.8110091
11
9.492236
21
30.3468091
0
LINE
8
DEFAULT_255_2_778
10
9.492236
20
30.3468091
11
9.489336
21
31.0382091
0
LINE
8
DEFAULT_255_2_778
10
9.489336
20
31.0382091
11
9.492236
21
31.7295091
0
LINE
8
DEFAULT_255_2_778
10
9.492236
20
31.7295091
11
9.542536
21
33.9605091
0
LINE
8
DEFAULT_255_2_778
10
9.542536
20
33.9605091
11
9.542536
21
28.1161091
0
LINE
8
DEFAULT_255_2_778
10
5.588836
20
27.5171091
11
5.635636
21
29.4022091
0
LINE
8
DEFAULT_255_2_778
10
5.635636
20
29.4022091
11
9.000136
21
29.4022091
0
LINE
8
DEFAULT_255_2_778
10
9.000136
20
29.4022091
11
9.046936
21
27.5171091
0
LINE
8
DEFAULT_255_2_778
10
9.046936
20
27.5171091
11
7.317636
21
27.5383091
0
LINE
8
DEFAULT_255_2_778
10
7.317636
20
27.5383091
11
5.588336
21
27.5171091
0
ENDSEC
0
EOF