0
SECTION
2
HEADER
9
$MEASUREMENT
70
1
0
ENDSEC
0
SECTION
2
TABLES
0
TABLE
2
LTYPE
0
LTYPE
72
65
70
64
2
CONTINUOUS
3
______
73
0
40
0
0
ENDTAB
0
TABLE
2
LAYER
0
LAYER
2
DEFAULT_255_2_778
70
0
62
255
6
CONTINUOUS
0
ENDTAB
0
ENDSEC
0
SECTION
2
ENTITIES
0
ARC
8
DEFAULT_255_2_778
10
29.9971708
20
28.90544
40
0.2723687
50
65.9039275
51
77.4250033
0
ARC
8
DEFAULT_255_2_778
10
30.0908819
20
29.1124169
40
0.04518
50
47.2154066
51
67.2272039
0
ARC
8
DEFAULT_255_2_778
10
30.1133842
20
29.136084
40
0.0125336
50
4.994035
51
49.2225877
0
ARC
8
DEFAULT_255_2_778
10
30.1125265
20
28.3110752
40
0.0134392
50
313.8952666
51
353.1617036
0
ARC
8
DEFAULT_255_2_778
10
30.0786394
20
28.3386276
40
0.0570373
50
318.8230399
51
319.243267
0
ARC
8
DEFAULT_255_2_778
10
30.0949085
20
28.3279793
40
0.0378773
50
290.818134
51
314.7404512
0
ARC
8
DEFAULT_255_2_778
10
29.992495
20
28.555319
40
0.287161
50
282.8726622
51
293.798407
0
LINE
8
DEFAULT_255_2_778
10
29.2611701
20
29.171275
11
30.0564701
21
29.171275
0
LINE
8
DEFAULT_255_2_778
10
29.2611701
20
28.275075
11
30.0564701
21
28.275075
0
LINE
8
DEFAULT_255_2_778
10
30.0564701
20
28.275075
11
30.0564701
21
29.171275
0
LINE
8
DEFAULT_255_2_778
10
30.1258701
20
29.137175
11
30.1258701
21
28.309475
0
ARC
8
DEFAULT_255_2_778
10
29.9971708
20
30.5054067
40
0.2723687
50
65.9039275
51
77.4250033
0
ARC
8
DEFAULT_255_2_778
10
30.0908819
20
30.7123837
40
0.04518
50
47.2154066
51
67.2272039
0
ARC
8
DEFAULT_255_2_778
10
30.1133837
20
30.7360506
40
0.012534
50
4.9944428
51
49.2213678
0
ARC
8
DEFAULT_255_2_778
10
30.1125265
20
29.911042
40
0.0134392
50
313.8952666
51
353.1617036
0
ARC
8
DEFAULT_255_2_778
10
30.0786394
20
29.9385944
40
0.0570373
50
318.8230399
51
319.243267
0
ARC
8
DEFAULT_255_2_778
10
30.0949085
20
29.9279461
40
0.0378773
50
290.818134
51
314.7404512
0
ARC
8
DEFAULT_255_2_778
10
30.000896
20
30.1344558
40
0.2647132
50
282.1188779
51
293.9539397
0
LINE
8
DEFAULT_255_2_778
10
29.2611701
20
30.7712418
11
30.0564701
21
30.7712418
0
LINE
8
DEFAULT_255_2_778
10
29.2611701
20
29.8753418
11
30.0564701
21
29.8753418
0
LINE
8
DEFAULT_255_2_778
10
30.0564701
20
29.8753418
11
30.0564701
21
30.7712418
0
LINE
8
DEFAULT_255_2_778
10
30.1258701
20
30.7371418
11
30.1258701
21
29.9094418
0
ARC
8
DEFAULT_255_2_778
10
29.9971708
20
32.10534
40
0.2723687
50
65.9039275
51
77.4250033
0
ARC
8
DEFAULT_255_2_778
10
30.0908819
20
32.3123169
40
0.04518
50
47.2154066
51
67.2272039
0
ARC
8
DEFAULT_255_2_778
10
30.1133842
20
32.335984
40
0.0125336
50
4.994035
51
49.2225877
0
ARC
8
DEFAULT_255_2_778
10
30.1125265
20
31.5109752
40
0.0134392
50
313.8952666
51
353.1617036
0
ARC
8
DEFAULT_255_2_778
10
30.0786394
20
31.5385276
40
0.0570373
50
318.8230399
51
319.243267
0
ARC
8
DEFAULT_255_2_778
10
30.0949085
20
31.5278793
40
0.0378773
50
290.818134
51
314.7404512
0
ARC
8
DEFAULT_255_2_778
10
29.992495
20
31.755219
40
0.287161
50
282.8726622
51
293.798407
0
LINE
8
DEFAULT_255_2_778
10
29.2611701
20
32.371175
11
30.0564701
21
32.371175
0
LINE
8
DEFAULT_255_2_778
10
29.2611701
20
31.474975
11
30.0564701
21
31.474975
0
LINE
8
DEFAULT_255_2_778
10
30.0564701
20
31.474975
11
30.0564701
21
32.371175
0
LINE
8
DEFAULT_255_2_778
10
30.1258701
20
32.337075
11
30.1258701
21
31.509375
0
ARC
8
DEFAULT_255_2_778
10
29.9971708
20
33.7055067
40
0.2723687
50
65.9039275
51
77.4250033
0
ARC
8
DEFAULT_255_2_778
10
30.0908819
20
33.9124837
40
0.04518
50
47.2154066
51
67.2272039
0
ARC
8
DEFAULT_255_2_778
10
30.1133837
20
33.9361506
40
0.012534
50
4.9944428
51
49.2213678
0
ARC
8
DEFAULT_255_2_778
10
30.1125265
20
33.111142
40
0.0134392
50
313.8952666
51
353.1617036
0
ARC
8
DEFAULT_255_2_778
10
30.0786394
20
33.1386944
40
0.0570373
50
318.8230399
51
319.243267
0
ARC
8
DEFAULT_255_2_778
10
30.0949085
20
33.1280461
40
0.0378773
50
290.818134
51
314.7404512
0
ARC
8
DEFAULT_255_2_778
10
30.000896
20
33.3345558
40
0.2647132
50
282.1188779
51
293.9539397
0
LINE
8
DEFAULT_255_2_778
10
29.2611701
20
33.9713418
11
30.0564701
21
33.9713418
0
LINE
8
DEFAULT_255_2_778
10
29.2611701
20
33.0754418
11
30.0564701
21
33.0754418
0
LINE
8
DEFAULT_255_2_778
10
30.0564701
20
33.0754418
11
30.0564701
21
33.9713418
0
LINE
8
DEFAULT_255_2_778
10
30.1258701
20
33.9372418
11
30.1258701
21
33.1095418
0
ARC
8
DEFAULT_255_2_778
10
29.992495
20
35.291327
40
0.287161
50
66.201593
51
77.1273378
0
ARC
8
DEFAULT_255_2_778
10
30.0908819
20
35.5124129
40
0.04518
50
47.2154066
51
67.2272039
0
ARC
8
DEFAULT_255_2_778
10
30.1133836
20
35.5360797
40
0.0125341
50
4.9948254
51
49.2212274
0
ARC
8
DEFAULT_255_2_778
10
30.1125265
20
34.7110712
40
0.0134392
50
313.8952666
51
353.1617036
0
ARC
8
DEFAULT_255_2_778
10
30.0786394
20
34.7386235
40
0.0570373
50
318.8230399
51
319.243267
0
ARC
8
DEFAULT_255_2_778
10
30.0949085
20
34.7279753
40
0.0378773
50
290.818134
51
314.7404512
0
ARC
8
DEFAULT_255_2_778
10
29.992495
20
34.9553149
40
0.287161
50
282.8726622
51
293.798407
0
LINE
8
DEFAULT_255_2_778
10
29.2611701
20
35.571271
11
30.0564701
21
35.571271
0
LINE
8
DEFAULT_255_2_778
10
29.2611701
20
34.675171
11
30.0564701
21
34.675171
0
LINE
8
DEFAULT_255_2_778
10
30.0564701
20
34.675171
11
30.0564701
21
35.571271
0
LINE
8
DEFAULT_255_2_778
10
30.1258701
20
35.537171
11
30.1258701
21
34.709471
0
ARC
8
DEFAULT_255_2_778
10
29.9971708
20
36.90534
40
0.2723687
50
65.9039275
51
77.4250033
0
ARC
8
DEFAULT_255_2_778
10
30.0908819
20
37.1123169
40
0.04518
50
47.2154066
51
67.2272039
0
ARC
8
DEFAULT_255_2_778
10
30.1133842
20
37.135984
40
0.0125336
50
4.994035
51
49.2225877
0
ARC
8
DEFAULT_255_2_778
10
30.1125265
20
36.3109752
40
0.0134392
50
313.8952666
51
353.1617036
0
ARC
8
DEFAULT_255_2_778
10
30.0786394
20
36.3385276
40
0.0570373
50
318.8230399
51
319.243267
0
ARC
8
DEFAULT_255_2_778
10
30.0949085
20
36.3278793
40
0.0378773
50
290.818134
51
314.7404512
0
ARC
8
DEFAULT_255_2_778
10
29.992495
20
36.555219
40
0.287161
50
282.8726622
51
293.798407
0
LINE
8
DEFAULT_255_2_778
10
29.2611701
20
37.171175
11
30.0564701
21
37.171175
0
LINE
8
DEFAULT_255_2_778
10
29.2611701
20
36.274975
11
30.0564701
21
36.274975
0
LINE
8
DEFAULT_255_2_778
10
30.0564701
20
36.274975
11
30.0564701
21
37.171175
0
LINE
8
DEFAULT_255_2_778
10
30.1258701
20
37.137075
11
30.1258701
21
36.309375
0
ARC
8
DEFAULT_255_2_778
10
29.9971708
20
38.5056067
40
0.2723687
50
65.9039275
51
77.4250033
0
ARC
8
DEFAULT_255_2_778
10
30.0908819
20
38.7125837
40
0.04518
50
47.2154066
51
67.2272039
0
ARC
8
DEFAULT_255_2_778
10
30.1133837
20
38.7362506
40
0.012534
50
4.9944428
51
49.2213678
0
ARC
8
DEFAULT_255_2_778
10
30.1125265
20
37.911242
40
0.0134392
50
313.8952666
51
353.1617036
0
ARC
8
DEFAULT_255_2_778
10
30.0786394
20
37.9387944
40
0.0570373
50
318.8230399
51
319.243267
0
ARC
8
DEFAULT_255_2_778
10
30.0949085
20
37.9281461
40
0.0378773
50
290.818134
51
314.7404512
0
ARC
8
DEFAULT_255_2_778
10
30.000896
20
38.1346558
40
0.2647132
50
282.1188779
51
293.9539397
0
LINE
8
DEFAULT_255_2_778
10
29.2611701
20
38.7714418
11
30.0564701
21
38.7714418
0
LINE
8
DEFAULT_255_2_778
10
29.2611701
20
37.8755418
11
30.0564701
21
37.8755418
0
LINE
8
DEFAULT_255_2_778
10
30.0564701
20
37.8755418
11
30.0564701
21
38.7714418
0
LINE
8
DEFAULT_255_2_778
10
30.1258701
20
38.7373418
11
30.1258701
21
37.9096418
0
ARC
8
DEFAULT_255_2_778
10
29.992495
20
40.091427
40
0.287161
50
66.201593
51
77.1273378
0
ARC
8
DEFAULT_255_2_778
10
30.0908819
20
40.3125129
40
0.04518
50
47.2154066
51
67.2272039
0
ARC
8
DEFAULT_255_2_778
10
30.1133836
20
40.3361797
40
0.0125341
50
4.9948254
51
49.2212274
0
ARC
8
DEFAULT_255_2_778
10
30.1125265
20
39.5111712
40
0.0134392
50
313.8952666
51
353.1617036
0
ARC
8
DEFAULT_255_2_778
10
30.0786394
20
39.5387235
40
0.0570373
50
318.8230399
51
319.243267
0
ARC
8
DEFAULT_255_2_778
10
30.0949085
20
39.5280753
40
0.0378773
50
290.818134
51
314.7404512
0
ARC
8
DEFAULT_255_2_778
10
29.992495
20
39.7554149
40
0.287161
50
282.8726622
51
293.798407
0
LINE
8
DEFAULT_255_2_778
10
29.2611701
20
40.371371
11
30.0564701
21
40.371371
0
LINE
8
DEFAULT_255_2_778
10
29.2611701
20
39.475271
11
30.0564701
21
39.475271
0
LINE
8
DEFAULT_255_2_778
10
30.0564701
20
39.475271
11
30.0564701
21
40.371371
0
LINE
8
DEFAULT_255_2_778
10
30.1258701
20
40.337271
11
30.1258701
21
39.509571
0
ARC
8
DEFAULT_255_2_778
10
29.9971708
20
41.70544
40
0.2723687
50
65.9039275
51
77.4250033
0
ARC
8
DEFAULT_255_2_778
10
30.0908819
20
41.9124169
40
0.04518
50
47.2154066
51
67.2272039
0
ARC
8
DEFAULT_255_2_778
10
30.1133842
20
41.936084
40
0.0125336
50
4.994035
51
49.2225877
0
ARC
8
DEFAULT_255_2_778
10
30.1125265
20
41.1110752
40
0.0134392
50
313.8952666
51
353.1617036
0
ARC
8
DEFAULT_255_2_778
10
30.0786394
20
41.1386276
40
0.0570373
50
318.8230399
51
319.243267
0
ARC
8
DEFAULT_255_2_778
10
30.0949085
20
41.1279793
40
0.0378773
50
290.818134
51
314.7404512
0
ARC
8
DEFAULT_255_2_778
10
29.992495
20
41.355319
40
0.287161
50
282.8726622
51
293.798407
0
LINE
8
DEFAULT_255_2_778
10
29.2611701
20
41.971275
11
30.0564701
21
41.971275
0
LINE
8
DEFAULT_255_2_778
10
29.2611701
20
41.075075
11
30.0564701
21
41.075075
0
LINE
8
DEFAULT_255_2_778
10
30.0564701
20
41.075075
11
30.0564701
21
41.971275
0
LINE
8
DEFAULT_255_2_778
10
30.1258701
20
41.937175
11
30.1258701
21
41.109475
0
ARC
8
DEFAULT_255_2_778
10
18.6999878
20
77.2069359
40
0.0349131
50
116.8863297
51
174.9256938
0
ARC
8
DEFAULT_255_2_778
10
19.0760552
20
77.1004401
40
0.4252072
50
165.0652765
51
178.8867609
0
ARC
8
DEFAULT_255_2_778
10
19.3918633
20
77.0781687
40
0.741564
50
177.6402845
51
180.0149652
0
ARC
8
DEFAULT_255_2_778
10
19.1891914
20
74.6303402
40
0.538955
50
179.1245269
51
191.9743258
0
ARC
8
DEFAULT_255_2_778
10
18.7157138
20
74.5214495
40
0.0538299
50
183.1182029
51
232.6481503
0
ARC
8
DEFAULT_255_2_778
10
18.6848732
20
74.4863342
40
0.0078879
50
256.6715719
51
265.0993289
0
LINE
8
DEFAULT_255_2_778
10
19.8803993
20
77.335175
11
18.6841993
21
77.238075
0
LINE
8
DEFAULT_255_2_778
10
18.6502993
20
77.077975
11
18.6502993
21
74.638575
0
LINE
8
DEFAULT_255_2_778
10
18.6841993
20
74.478475
11
19.7289993
21
74.393575
0
LINE
8
DEFAULT_255_2_778
10
19.7892993
20
74.388475
11
19.7284993
21
74.388475
0
LINE
8
DEFAULT_255_2_778
10
17.0900993
20
77.338075
11
17.1939993
21
77.235175
0
LINE
8
DEFAULT_255_2_778
10
17.1939993
20
77.235175
11
17.1939993
21
74.481075
0
LINE
8
DEFAULT_255_2_778
10
17.1939993
20
74.481075
11
17.0889993
21
74.388475
0
LINE
8
DEFAULT_255_2_778
10
17.0889993
20
74.388475
11
17.0815993
21
77.346275
0
LINE
8
DEFAULT_255_2_778
10
17.0815993
20
77.346275
11
20.0189993
21
77.346275
0
LINE
8
DEFAULT_255_2_778
10
20.0189993
20
77.346275
11
19.9292993
21
74.377075
0
LINE
8
DEFAULT_255_2_778
10
19.9292993
20
74.377075
11
17.0889993
21
74.388475
0
ARC
8
DEFAULT_255_2_778
10
18.7195505
20
73.3798027
40
0.0349131
50
116.8863297
51
174.9256938
0
ARC
8
DEFAULT_255_2_778
10
19.0956179
20
73.2733069
40
0.4252072
50
165.0652765
51
178.8867609
0
ARC
8
DEFAULT_255_2_778
10
19.411426
20
73.2510355
40
0.741564
50
177.6402845
51
180.0149652
0
ARC
8
DEFAULT_255_2_778
10
19.2105447
20
70.8032074
40
0.5407454
50
179.1274743
51
191.8854609
0
ARC
8
DEFAULT_255_2_778
10
18.7363521
20
70.6949382
40
0.0550472
50
183.2288141
51
231.9925633
0
ARC
8
DEFAULT_255_2_778
10
18.7044461
20
70.6592833
40
0.0079709
50
255.5427928
51
265.0771372
0
LINE
8
DEFAULT_255_2_778
10
19.899962
20
73.5080418
11
18.703762
21
73.4109418
0
LINE
8
DEFAULT_255_2_778
10
18.669862
20
73.2508418
11
18.669862
21
70.8114418
0
LINE
8
DEFAULT_255_2_778
10
18.703762
20
70.6513418
11
19.748562
21
70.5663418
0
LINE
8
DEFAULT_255_2_778
10
19.808862
20
70.5613418
11
19.748062
21
70.5613418
0
LINE
8
DEFAULT_255_2_778
10
17.109662
20
73.5109418
11
17.213562
21
73.4080418
0
LINE
8
DEFAULT_255_2_778
10
17.213562
20
73.4080418
11
17.213562
21
70.6539418
0
LINE
8
DEFAULT_255_2_778
10
17.213562
20
70.6539418
11
17.108562
21
70.5613418
0
LINE
8
DEFAULT_255_2_778
10
17.108562
20
70.5613418
11
17.101162
21
73.5191418
0
LINE
8
DEFAULT_255_2_778
10
17.101162
20
73.5191418
11
20.038862
21
73.5191418
0
LINE
8
DEFAULT_255_2_778
10
20.038862
20
73.5191418
11
19.949162
21
70.5502418
0
LINE
8
DEFAULT_255_2_778
10
19.949162
20
70.5502418
11
17.108562
21
70.5613418
0
ARC
8
DEFAULT_255_2_778
10
18.7251878
20
65.3100027
40
0.0349131
50
116.8863297
51
174.9256938
0
ARC
8
DEFAULT_255_2_778
10
19.1012552
20
65.2035069
40
0.4252072
50
165.0652765
51
178.8867609
0
ARC
8
DEFAULT_255_2_778
10
19.4170633
20
65.1812355
40
0.741564
50
177.6402845
51
180.0149652
0
ARC
8
DEFAULT_255_2_778
10
19.216182
20
62.7334074
40
0.5407454
50
179.1274743
51
191.8854609
0
ARC
8
DEFAULT_255_2_778
10
18.7419894
20
62.6251382
40
0.0550472
50
183.2288141
51
231.9925633
0
ARC
8
DEFAULT_255_2_778
10
18.7100833
20
62.5894833
40
0.0079709
50
255.5427928
51
265.0771372
0
LINE
8
DEFAULT_255_2_778
10
19.9055993
20
65.4382418
11
18.7093993
21
65.3411418
0
LINE
8
DEFAULT_255_2_778
10
18.6754993
20
65.1810418
11
18.6754993
21
62.7416418
0
LINE
8
DEFAULT_255_2_778
10
18.7093993
20
62.5815418
11
19.7541993
21
62.4965418
0
LINE
8
DEFAULT_255_2_778
10
19.8144993
20
62.4915418
11
19.7536993
21
62.4915418
0
LINE
8
DEFAULT_255_2_778
10
17.1152993
20
65.4411418
11
17.2191993
21
65.3382418
0
LINE
8
DEFAULT_255_2_778
10
17.2191993
20
65.3382418
11
17.2191993
21
62.5841418
0
LINE
8
DEFAULT_255_2_778
10
17.2191993
20
62.5841418
11
17.1141993
21
62.4915418
0
LINE
8
DEFAULT_255_2_778
10
17.1141993
20
62.4915418
11
17.1067993
21
65.4493418
0
LINE
8
DEFAULT_255_2_778
10
17.1067993
20
65.4493418
11
20.0441993
21
65.4493418
0
LINE
8
DEFAULT_255_2_778
10
20.0441993
20
65.4493418
11
19.9544993
21
62.4804418
0
LINE
8
DEFAULT_255_2_778
10
19.9544993
20
62.4804418
11
17.1141993
21
62.4915418
0
ARC
8
DEFAULT_255_2_778
10
18.7055878
20
69.1372359
40
0.0349131
50
116.8863297
51
174.9256938
0
ARC
8
DEFAULT_255_2_778
10
19.0816552
20
69.0307401
40
0.4252072
50
165.0652765
51
178.8867609
0
ARC
8
DEFAULT_255_2_778
10
19.3974633
20
69.0084687
40
0.741564
50
177.6402845
51
180.0149652
0
ARC
8
DEFAULT_255_2_778
10
19.1947914
20
66.5606402
40
0.538955
50
179.1245269
51
191.9743258
0
ARC
8
DEFAULT_255_2_778
10
18.7213138
20
66.4517495
40
0.0538299
50
183.1182029
51
232.6481503
0
ARC
8
DEFAULT_255_2_778
10
18.6904732
20
66.4166342
40
0.0078879
50
256.6715719
51
265.0993289
0
LINE
8
DEFAULT_255_2_778
10
19.8859993
20
69.265475
11
18.6897993
21
69.168375
0
LINE
8
DEFAULT_255_2_778
10
18.6558993
20
69.008275
11
18.6558993
21
66.568875
0
LINE
8
DEFAULT_255_2_778
10
18.6897993
20
66.408775
11
19.7345993
21
66.323875
0
LINE
8
DEFAULT_255_2_778
10
19.7948993
20
66.318775
11
19.7340993
21
66.318775
0
LINE
8
DEFAULT_255_2_778
10
17.0956993
20
69.268375
11
17.1995993
21
69.165475
0
LINE
8
DEFAULT_255_2_778
10
17.1995993
20
69.165475
11
17.1995993
21
66.411375
0
LINE
8
DEFAULT_255_2_778
10
17.1995993
20
66.411375
11
17.0945993
21
66.318775
0
LINE
8
DEFAULT_255_2_778
10
17.0945993
20
66.318775
11
17.0871993
21
69.276575
0
LINE
8
DEFAULT_255_2_778
10
17.0871993
20
69.276575
11
20.0245993
21
69.276575
0
LINE
8
DEFAULT_255_2_778
10
20.0245993
20
69.276575
11
19.9348993
21
66.307375
0
LINE
8
DEFAULT_255_2_778
10
19.9348993
20
66.307375
11
17.0945993
21
66.318775
0
ARC
8
DEFAULT_255_2_778
10
18.7251878
20
56.9756027
40
0.0349131
50
116.8863297
51
174.9256938
0
ARC
8
DEFAULT_255_2_778
10
19.1012552
20
56.8691069
40
0.4252072
50
165.0652765
51
178.8867609
0
ARC
8
DEFAULT_255_2_778
10
19.4170633
20
56.8468355
40
0.741564
50
177.6402845
51
180.0149652
0
ARC
8
DEFAULT_255_2_778
10
19.216182
20
54.3990074
40
0.5407454
50
179.1274743
51
191.8854609
0
ARC
8
DEFAULT_255_2_778
10
18.7419894
20
54.2907382
40
0.0550472
50
183.2288141
51
231.9925633
0
ARC
8
DEFAULT_255_2_778
10
18.7100833
20
54.2550833
40
0.0079709
50
255.5427928
51
265.0771372
0
LINE
8
DEFAULT_255_2_778
10
19.9055993
20
57.1038418
11
18.7093993
21
57.0067418
0
LINE
8
DEFAULT_255_2_778
10
18.6754993
20
56.8466418
11
18.6754993
21
54.4072418
0
LINE
8
DEFAULT_255_2_778
10
18.7093993
20
54.2471418
11
19.7541993
21
54.1621418
0
LINE
8
DEFAULT_255_2_778
10
19.8144993
20
54.1571418
11
19.7536993
21
54.1571418
0
LINE
8
DEFAULT_255_2_778
10
17.1152993
20
57.1067418
11
17.2191993
21
57.0038418
0
LINE
8
DEFAULT_255_2_778
10
17.2191993
20
57.0038418
11
17.2191993
21
54.2497418
0
LINE
8
DEFAULT_255_2_778
10
17.2191993
20
54.2497418
11
17.1141993
21
54.1571418
0
LINE
8
DEFAULT_255_2_778
10
17.1141993
20
54.1571418
11
17.1067993
21
57.1149418
0
LINE
8
DEFAULT_255_2_778
10
17.1067993
20
57.1149418
11
20.0441993
21
57.1149418
0
LINE
8
DEFAULT_255_2_778
10
20.0441993
20
57.1149418
11
19.9544993
21
54.1460418
0
LINE
8
DEFAULT_255_2_778
10
19.9544993
20
54.1460418
11
17.1141993
21
54.1571418
0
ARC
8
DEFAULT_255_2_778
10
18.7055878
20
60.8028359
40
0.0349131
50
116.8863297
51
174.9256938
0
ARC
8
DEFAULT_255_2_778
10
19.0816552
20
60.6963401
40
0.4252072
50
165.0652765
51
178.8867609
0
ARC
8
DEFAULT_255_2_778
10
19.3974633
20
60.6740687
40
0.741564
50
177.6402845
51
180.0149652
0
ARC
8
DEFAULT_255_2_778
10
19.1947914
20
58.2262402
40
0.538955
50
179.1245269
51
191.9743258
0
ARC
8
DEFAULT_255_2_778
10
18.7213138
20
58.1173495
40
0.0538299
50
183.1182029
51
232.6481503
0
ARC
8
DEFAULT_255_2_778
10
18.6904732
20
58.0822342
40
0.0078879
50
256.6715719
51
265.0993289
0
LINE
8
DEFAULT_255_2_778
10
19.8859993
20
60.931075
11
18.6897993
21
60.833975
0
LINE
8
DEFAULT_255_2_778
10
18.6558993
20
60.673875
11
18.6558993
21
58.234475
0
LINE
8
DEFAULT_255_2_778
10
18.6897993
20
58.074375
11
19.7345993
21
57.989475
0
LINE
8
DEFAULT_255_2_778
10
19.7948993
20
57.984375
11
19.7340993
21
57.984375
0
LINE
8
DEFAULT_255_2_778
10
17.0956993
20
60.933975
11
17.1995993
21
60.831075
0
LINE
8
DEFAULT_255_2_778
10
17.1995993
20
60.831075
11
17.1995993
21
58.076975
0
LINE
8
DEFAULT_255_2_778
10
17.1995993
20
58.076975
11
17.0945993
21
57.984375
0
LINE
8
DEFAULT_255_2_778
10
17.0945993
20
57.984375
11
17.0871993
21
60.942175
0
LINE
8
DEFAULT_255_2_778
10
17.0871993
20
60.942175
11
20.0245993
21
60.942175
0
LINE
8
DEFAULT_255_2_778
10
20.0245993
20
60.942175
11
19.9348993
21
57.972975
0
LINE
8
DEFAULT_255_2_778
10
19.9348993
20
57.972975
11
17.0945993
21
57.984375
0
ARC
8
DEFAULT_255_2_778
10
18.7251878
20
49.1704027
40
0.0349131
50
116.8863297
51
174.9256938
0
ARC
8
DEFAULT_255_2_778
10
19.1012552
20
49.0639069
40
0.4252072
50
165.0652765
51
178.8867609
0
ARC
8
DEFAULT_255_2_778
10
19.4170633
20
49.0416355
40
0.741564
50
177.6402845
51
180.0149652
0
ARC
8
DEFAULT_255_2_778
10
19.216182
20
46.5938074
40
0.5407454
50
179.1274743
51
191.8854609
0
ARC
8
DEFAULT_255_2_778
10
18.7419894
20
46.4855382
40
0.0550472
50
183.2288141
51
231.9925633
0
ARC
8
DEFAULT_255_2_778
10
18.7100833
20
46.4498833
40
0.0079709
50
255.5427928
51
265.0771372
0
LINE
8
DEFAULT_255_2_778
10
19.9055993
20
49.2986418
11
18.7093993
21
49.2015418
0
LINE
8
DEFAULT_255_2_778
10
18.6754993
20
49.0414418
11
18.6754993
21
46.6020418
0
LINE
8
DEFAULT_255_2_778
10
18.7093993
20
46.4419418
11
19.7541993
21
46.3569418
0
LINE
8
DEFAULT_255_2_778
10
19.8144993
20
46.3519418
11
19.7536993
21
46.3519418
0
LINE
8
DEFAULT_255_2_778
10
17.1152993
20
49.3015418
11
17.2191993
21
49.1986418
0
LINE
8
DEFAULT_255_2_778
10
17.2191993
20
49.1986418
11
17.2191993
21
46.4445418
0
LINE
8
DEFAULT_255_2_778
10
17.2191993
20
46.4445418
11
17.1141993
21
46.3519418
0
LINE
8
DEFAULT_255_2_778
10
17.1141993
20
46.3519418
11
17.1067993
21
49.3097418
0
LINE
8
DEFAULT_255_2_778
10
17.1067993
20
49.3097418
11
20.0441993
21
49.3097418
0
LINE
8
DEFAULT_255_2_778
10
20.0441993
20
49.3097418
11
19.9544993
21
46.3408418
0
LINE
8
DEFAULT_255_2_778
10
19.9544993
20
46.3408418
11
17.1141993
21
46.3519418
0
ARC
8
DEFAULT_255_2_778
10
18.7055878
20
52.9976359
40
0.0349131
50
116.8863297
51
174.9256938
0
ARC
8
DEFAULT_255_2_778
10
19.0816552
20
52.8911401
40
0.4252072
50
165.0652765
51
178.8867609
0
ARC
8
DEFAULT_255_2_778
10
19.3974633
20
52.8688687
40
0.741564
50
177.6402845
51
180.0149652
0
ARC
8
DEFAULT_255_2_778
10
19.1947914
20
50.4210402
40
0.538955
50
179.1245269
51
191.9743258
0
ARC
8
DEFAULT_255_2_778
10
18.7213138
20
50.3121495
40
0.0538299
50
183.1182029
51
232.6481503
0
ARC
8
DEFAULT_255_2_778
10
18.6904732
20
50.2770342
40
0.0078879
50
256.6715719
51
265.0993289
0
LINE
8
DEFAULT_255_2_778
10
19.8859993
20
53.125875
11
18.6897993
21
53.028775
0
LINE
8
DEFAULT_255_2_778
10
18.6558993
20
52.868675
11
18.6558993
21
50.429275
0
LINE
8
DEFAULT_255_2_778
10
18.6897993
20
50.269175
11
19.7345993
21
50.184275
0
LINE
8
DEFAULT_255_2_778
10
19.7948993
20
50.179175
11
19.7340993
21
50.179175
0
LINE
8
DEFAULT_255_2_778
10
17.0956993
20
53.128775
11
17.1995993
21
53.025875
0
LINE
8
DEFAULT_255_2_778
10
17.1995993
20
53.025875
11
17.1995993
21
50.271775
0
LINE
8
DEFAULT_255_2_778
10
17.1995993
20
50.271775
11
17.0945993
21
50.179175
0
LINE
8
DEFAULT_255_2_778
10
17.0945993
20
50.179175
11
17.0871993
21
53.136975
0
LINE
8
DEFAULT_255_2_778
10
17.0871993
20
53.136975
11
20.0245993
21
53.136975
0
LINE
8
DEFAULT_255_2_778
10
20.0245993
20
53.136975
11
19.9348993
21
50.167775
0
LINE
8
DEFAULT_255_2_778
10
19.9348993
20
50.167775
11
17.0945993
21
50.179175
0
ARC
8
DEFAULT_255_2_778
10
18.7257036
20
44.8044692
40
0.0354451
50
117.3863191
51
174.6748619
0
ARC
8
DEFAULT_255_2_778
10
19.1002473
20
44.6983075
40
0.4241993
50
165.0474767
51
178.8857288
0
ARC
8
DEFAULT_255_2_778
10
19.4162611
20
44.6760407
40
0.7407618
50
177.6390114
51
180.0153869
0
ARC
8
DEFAULT_255_2_778
10
19.216182
20
42.2282074
40
0.5407454
50
179.1274743
51
191.8854609
0
ARC
8
DEFAULT_255_2_778
10
18.7419894
20
42.1199382
40
0.0550472
50
183.2288141
51
231.9925633
0
ARC
8
DEFAULT_255_2_778
10
18.7100833
20
42.0842833
40
0.0079709
50
255.5427928
51
265.0771372
0
LINE
8
DEFAULT_255_2_778
10
19.9055993
20
44.9330418
11
18.7093993
21
44.8359418
0
LINE
8
DEFAULT_255_2_778
10
18.6754993
20
44.6758418
11
18.6754993
21
42.2364418
0
LINE
8
DEFAULT_255_2_778
10
18.7093993
20
42.0763418
11
19.7541993
21
41.9913418
0
LINE
8
DEFAULT_255_2_778
10
19.8144993
20
41.9863418
11
19.7536993
21
41.9863418
0
LINE
8
DEFAULT_255_2_778
10
17.1152993
20
44.9359418
11
17.2191993
21
44.8330418
0
LINE
8
DEFAULT_255_2_778
10
17.2191993
20
44.8330418
11
17.2191993
21
42.0789418
0
LINE
8
DEFAULT_255_2_778
10
17.2191993
20
42.0789418
11
17.1141993
21
41.9863418
0
LINE
8
DEFAULT_255_2_778
10
17.1141993
20
41.9863418
11
17.1067993
21
44.9441418
0
LINE
8
DEFAULT_255_2_778
10
17.1067993
20
44.9441418
11
20.0441993
21
44.9441418
0
LINE
8
DEFAULT_255_2_778
10
20.0441993
20
44.9441418
11
19.9544993
21
41.9752418
0
LINE
8
DEFAULT_255_2_778
10
19.9544993
20
41.9752418
11
17.1141993
21
41.9863418
0
ARC
8
DEFAULT_255_2_778
10
18.7251878
20
36.9996027
40
0.0349131
50
116.8863297
51
174.9256938
0
ARC
8
DEFAULT_255_2_778
10
19.1012552
20
36.8931069
40
0.4252072
50
165.0652765
51
178.8867609
0
ARC
8
DEFAULT_255_2_778
10
19.4170633
20
36.8708355
40
0.741564
50
177.6402845
51
180.0149652
0
ARC
8
DEFAULT_255_2_778
10
19.216182
20
34.4230074
40
0.5407454
50
179.1274743
51
191.8854609
0
ARC
8
DEFAULT_255_2_778
10
18.7419894
20
34.3147382
40
0.0550472
50
183.2288141
51
231.9925633
0
ARC
8
DEFAULT_255_2_778
10
18.7100833
20
34.2790833
40
0.0079709
50
255.5427928
51
265.0771372
0
LINE
8
DEFAULT_255_2_778
10
19.9055993
20
37.1278418
11
18.7093993
21
37.0307418
0
LINE
8
DEFAULT_255_2_778
10
18.6754993
20
36.8706418
11
18.6754993
21
34.4312418
0
LINE
8
DEFAULT_255_2_778
10
18.7093993
20
34.2711418
11
19.7541993
21
34.1861418
0
LINE
8
DEFAULT_255_2_778
10
19.8144993
20
34.1811418
11
19.7536993
21
34.1811418
0
LINE
8
DEFAULT_255_2_778
10
17.1152993
20
37.1307418
11
17.2191993
21
37.0278418
0
LINE
8
DEFAULT_255_2_778
10
17.2191993
20
37.0278418
11
17.2191993
21
34.2737418
0
LINE
8
DEFAULT_255_2_778
10
17.2191993
20
34.2737418
11
17.1141993
21
34.1811418
0
LINE
8
DEFAULT_255_2_778
10
17.1141993
20
34.1811418
11
17.1067993
21
37.1389418
0
LINE
8
DEFAULT_255_2_778
10
17.1067993
20
37.1389418
11
20.0441993
21
37.1389418
0
LINE
8
DEFAULT_255_2_778
10
20.0441993
20
37.1389418
11
19.9544993
21
34.1700418
0
LINE
8
DEFAULT_255_2_778
10
19.9544993
20
34.1700418
11
17.1141993
21
34.1811418
0
ARC
8
DEFAULT_255_2_778
10
18.7061036
20
40.8264692
40
0.0354451
50
117.3863191
51
174.6748619
0
ARC
8
DEFAULT_255_2_778
10
19.0806473
20
40.7203075
40
0.4241993
50
165.0474767
51
178.8857288
0
ARC
8
DEFAULT_255_2_778
10
19.3966611
20
40.6980407
40
0.7407618
50
177.6390114
51
180.0153869
0
ARC
8
DEFAULT_255_2_778
10
19.196582
20
38.2502074
40
0.5407454
50
179.1274743
51
191.8854609
0
ARC
8
DEFAULT_255_2_778
10
18.7223894
20
38.1419382
40
0.0550472
50
183.2288141
51
231.9925633
0
ARC
8
DEFAULT_255_2_778
10
18.6904833
20
38.1062833
40
0.0079709
50
255.5427928
51
265.0771372
0
LINE
8
DEFAULT_255_2_778
10
19.8859993
20
40.9550418
11
18.6897993
21
40.8579418
0
LINE
8
DEFAULT_255_2_778
10
18.6558993
20
40.6978418
11
18.6558993
21
38.2584418
0
LINE
8
DEFAULT_255_2_778
10
18.6897993
20
38.0983418
11
19.7345993
21
38.0134418
0
LINE
8
DEFAULT_255_2_778
10
19.7948993
20
38.0083418
11
19.7340993
21
38.0083418
0
LINE
8
DEFAULT_255_2_778
10
17.0956993
20
40.9579418
11
17.1995993
21
40.8550418
0
LINE
8
DEFAULT_255_2_778
10
17.1995993
20
40.8550418
11
17.1995993
21
38.1009418
0
LINE
8
DEFAULT_255_2_778
10
17.1995993
20
38.1009418
11
17.0945993
21
38.0083418
0
LINE
8
DEFAULT_255_2_778
10
17.0945993
20
38.0083418
11
17.0871993
21
40.9661418
0
LINE
8
DEFAULT_255_2_778
10
17.0871993
20
40.9661418
11
20.0245993
21
40.9661418
0
LINE
8
DEFAULT_255_2_778
10
20.0245993
20
40.9661418
11
19.9348993
21
37.9972418
0
LINE
8
DEFAULT_255_2_778
10
19.9348993
20
37.9972418
11
17.0945993
21
38.0083418
0
ARC
8
DEFAULT_255_2_778
10
18.7251878
20
32.6340027
40
0.0349131
50
116.8863297
51
174.9256938
0
ARC
8
DEFAULT_255_2_778
10
19.1012552
20
32.5275069
40
0.4252072
50
165.0652765
51
178.8867609
0
ARC
8
DEFAULT_255_2_778
10
19.4170633
20
32.5052355
40
0.741564
50
177.6402845
51
180.0149652
0
ARC
8
DEFAULT_255_2_778
10
19.216182
20
30.0574074
40
0.5407454
50
179.1274743
51
191.8854609
0
ARC
8
DEFAULT_255_2_778
10
18.7419894
20
29.9491382
40
0.0550472
50
183.2288141
51
231.9925633
0
ARC
8
DEFAULT_255_2_778
10
18.7100833
20
29.9134833
40
0.0079709
50
255.5427928
51
265.0771372
0
LINE
8
DEFAULT_255_2_778
10
19.9055993
20
32.7622418
11
18.7093993
21
32.6651418
0
LINE
8
DEFAULT_255_2_778
10
18.6754993
20
32.5050418
11
18.6754993
21
30.0656418
0
LINE
8
DEFAULT_255_2_778
10
18.7093993
20
29.9055418
11
19.7541993
21
29.8205418
0
LINE
8
DEFAULT_255_2_778
10
19.8144993
20
29.8155418
11
19.7536993
21
29.8155418
0
LINE
8
DEFAULT_255_2_778
10
17.1152993
20
32.7651418
11
17.2191993
21
32.6622418
0
LINE
8
DEFAULT_255_2_778
10
17.2191993
20
32.6622418
11
17.2191993
21
29.9081418
0
LINE
8
DEFAULT_255_2_778
10
17.2191993
20
29.9081418
11
17.1141993
21
29.8155418
0
LINE
8
DEFAULT_255_2_778
10
17.1141993
20
29.8155418
11
17.1067993
21
32.7733418
0
LINE
8
DEFAULT_255_2_778
10
17.1067993
20
32.7733418
11
20.0441993
21
32.7733418
0
LINE
8
DEFAULT_255_2_778
10
20.0441993
20
32.7733418
11
19.9544993
21
29.8044418
0
LINE
8
DEFAULT_255_2_778
10
19.9544993
20
29.8044418
11
17.1141993
21
29.8155418
0
ARC
8
DEFAULT_255_2_778
10
18.7251878
20
24.8287027
40
0.0349131
50
116.8863297
51
174.9256938
0
ARC
8
DEFAULT_255_2_778
10
19.1012552
20
24.7222069
40
0.4252072
50
165.0652765
51
178.8867609
0
ARC
8
DEFAULT_255_2_778
10
19.4170633
20
24.6999355
40
0.741564
50
177.6402845
51
180.0149652
0
ARC
8
DEFAULT_255_2_778
10
19.216182
20
22.2521074
40
0.5407454
50
179.1274743
51
191.8854609
0
ARC
8
DEFAULT_255_2_778
10
18.7419894
20
22.1438382
40
0.0550472
50
183.2288141
51
231.9925633
0
ARC
8
DEFAULT_255_2_778
10
18.7100833
20
22.1081833
40
0.0079709
50
255.5427928
51
265.0771372
0
LINE
8
DEFAULT_255_2_778
10
19.9055993
20
24.9569418
11
18.7093993
21
24.8598418
0
LINE
8
DEFAULT_255_2_778
10
18.6754993
20
24.6997418
11
18.6754993
21
22.2603418
0
LINE
8
DEFAULT_255_2_778
10
18.7093993
20
22.1002418
11
19.7541993
21
22.0152418
0
LINE
8
DEFAULT_255_2_778
10
19.8144993
20
22.0102418
11
19.7536993
21
22.0102418
0
LINE
8
DEFAULT_255_2_778
10
17.1152993
20
24.9598418
11
17.2191993
21
24.8569418
0
LINE
8
DEFAULT_255_2_778
10
17.2191993
20
24.8569418
11
17.2191993
21
22.1028418
0
LINE
8
DEFAULT_255_2_778
10
17.2191993
20
22.1028418
11
17.1141993
21
22.0102418
0
LINE
8
DEFAULT_255_2_778
10
17.1141993
20
22.0102418
11
17.1067993
21
24.9680418
0
LINE
8
DEFAULT_255_2_778
10
17.1067993
20
24.9680418
11
20.0441993
21
24.9680418
0
LINE
8
DEFAULT_255_2_778
10
20.0441993
20
24.9680418
11
19.9544993
21
21.9991418
0
LINE
8
DEFAULT_255_2_778
10
19.9544993
20
21.9991418
11
17.1141993
21
22.0102418
0
ARC
8
DEFAULT_255_2_778
10
18.7055878
20
28.6559067
40
0.0349131
50
116.8863297
51
174.9256938
0
ARC
8
DEFAULT_255_2_778
10
19.0816552
20
28.5494109
40
0.4252072
50
165.0652765
51
178.8867609
0
ARC
8
DEFAULT_255_2_778
10
19.3974633
20
28.5271395
40
0.741564
50
177.6402845
51
180.0149652
0
ARC
8
DEFAULT_255_2_778
10
19.196582
20
26.0793115
40
0.5407454
50
179.1274743
51
191.8854609
0
ARC
8
DEFAULT_255_2_778
10
18.7223894
20
25.9710422
40
0.0550472
50
183.2288141
51
231.9925633
0
ARC
8
DEFAULT_255_2_778
10
18.6904833
20
25.9353874
40
0.0079709
50
255.5427928
51
265.0771372
0
LINE
8
DEFAULT_255_2_778
10
19.8859993
20
28.7841458
11
18.6897993
21
28.6870458
0
LINE
8
DEFAULT_255_2_778
10
18.6558993
20
28.5269458
11
18.6558993
21
26.0875458
0
LINE
8
DEFAULT_255_2_778
10
18.6897993
20
25.9274458
11
19.7345993
21
25.8425458
0
LINE
8
DEFAULT_255_2_778
10
19.7948993
20
25.8374458
11
19.7340993
21
25.8374458
0
LINE
8
DEFAULT_255_2_778
10
17.0956993
20
28.7870458
11
17.1995993
21
28.6841458
0
LINE
8
DEFAULT_255_2_778
10
17.1995993
20
28.6841458
11
17.1995993
21
25.9300458
0
LINE
8
DEFAULT_255_2_778
10
17.1995993
20
25.9300458
11
17.0945993
21
25.8374458
0
LINE
8
DEFAULT_255_2_778
10
17.0945993
20
25.8374458
11
17.0871993
21
28.7952458
0
LINE
8
DEFAULT_255_2_778
10
17.0871993
20
28.7952458
11
20.0245993
21
28.7952458
0
LINE
8
DEFAULT_255_2_778
10
20.0245993
20
28.7952458
11
19.9348993
21
25.8263458
0
LINE
8
DEFAULT_255_2_778
10
19.9348993
20
25.8263458
11
17.0945993
21
25.8374458
0
ARC
8
DEFAULT_255_2_778
10
18.7251878
20
20.1985027
40
0.0349131
50
116.8863297
51
174.9256938
0
ARC
8
DEFAULT_255_2_778
10
19.1012552
20
20.0920069
40
0.4252072
50
165.0652765
51
178.8867609
0
ARC
8
DEFAULT_255_2_778
10
19.4170633
20
20.0697355
40
0.741564
50
177.6402845
51
180.0149652
0
ARC
8
DEFAULT_255_2_778
10
19.216182
20
17.6219074
40
0.5407454
50
179.1274743
51
191.8854609
0
ARC
8
DEFAULT_255_2_778
10
18.7419894
20
17.5136382
40
0.0550472
50
183.2288141
51
231.9925633
0
ARC
8
DEFAULT_255_2_778
10
18.7100833
20
17.4779833
40
0.0079709
50
255.5427928
51
265.0771372
0
LINE
8
DEFAULT_255_2_778
10
19.9055993
20
20.3267418
11
18.7093993
21
20.2296418
0
LINE
8
DEFAULT_255_2_778
10
18.6754993
20
20.0695418
11
18.6754993
21
17.6301418
0
LINE
8
DEFAULT_255_2_778
10
18.7093993
20
17.4700418
11
19.7541993
21
17.3850418
0
LINE
8
DEFAULT_255_2_778
10
19.8144993
20
17.3800418
11
19.7536993
21
17.3800418
0
LINE
8
DEFAULT_255_2_778
10
17.1152993
20
20.3296418
11
17.2191993
21
20.2267418
0
LINE
8
DEFAULT_255_2_778
10
17.2191993
20
20.2267418
11
17.2191993
21
17.4726418
0
LINE
8
DEFAULT_255_2_778
10
17.2191993
20
17.4726418
11
17.1141993
21
17.3800418
0
LINE
8
DEFAULT_255_2_778
10
17.1141993
20
17.3800418
11
17.1067993
21
20.3378418
0
LINE
8
DEFAULT_255_2_778
10
17.1067993
20
20.3378418
11
20.0441993
21
20.3378418
0
LINE
8
DEFAULT_255_2_778
10
20.0441993
20
20.3378418
11
19.9544993
21
17.3689418
0
LINE
8
DEFAULT_255_2_778
10
19.9544993
20
17.3689418
11
17.1141993
21
17.3800418
0
ARC
8
DEFAULT_255_2_778
10
18.7251878
20
12.3933027
40
0.0349131
50
116.8863297
51
174.9256938
0
ARC
8
DEFAULT_255_2_778
10
19.1012552
20
12.2868069
40
0.4252072
50
165.0652765
51
178.8867609
0
ARC
8
DEFAULT_255_2_778
10
19.4170633
20
12.2645355
40
0.741564
50
177.6402845
51
180.0149652
0
ARC
8
DEFAULT_255_2_778
10
19.216182
20
9.8167074
40
0.5407454
50
179.1274743
51
191.8854609
0
ARC
8
DEFAULT_255_2_778
10
18.7419894
20
9.7084382
40
0.0550472
50
183.2288141
51
231.9925633
0
ARC
8
DEFAULT_255_2_778
10
18.7100833
20
9.6727833
40
0.0079709
50
255.5427928
51
265.0771372
0
LINE
8
DEFAULT_255_2_778
10
19.9055993
20
12.5215418
11
18.7093993
21
12.4244418
0
LINE
8
DEFAULT_255_2_778
10
18.6754993
20
12.2643418
11
18.6754993
21
9.8249418
0
LINE
8
DEFAULT_255_2_778
10
18.7093993
20
9.6648418
11
19.7541993
21
9.5798418
0
LINE
8
DEFAULT_255_2_778
10
19.8144993
20
9.5748418
11
19.7536993
21
9.5748418
0
LINE
8
DEFAULT_255_2_778
10
17.1152993
20
12.5244418
11
17.2191993
21
12.4215418
0
LINE
8
DEFAULT_255_2_778
10
17.2191993
20
12.4215418
11
17.2191993
21
9.6674418
0
LINE
8
DEFAULT_255_2_778
10
17.2191993
20
9.6674418
11
17.1141993
21
9.5748418
0
LINE
8
DEFAULT_255_2_778
10
17.1141993
20
9.5748418
11
17.1067993
21
12.5326418
0
LINE
8
DEFAULT_255_2_778
10
17.1067993
20
12.5326418
11
20.0441993
21
12.5326418
0
LINE
8
DEFAULT_255_2_778
10
20.0441993
20
12.5326418
11
19.9544993
21
9.5637418
0
LINE
8
DEFAULT_255_2_778
10
19.9544993
20
9.5637418
11
17.1141993
21
9.5748418
0
ARC
8
DEFAULT_255_2_778
10
18.7055878
20
16.2205067
40
0.0349131
50
116.8863297
51
174.9256938
0
ARC
8
DEFAULT_255_2_778
10
19.0816552
20
16.1140109
40
0.4252072
50
165.0652765
51
178.8867609
0
ARC
8
DEFAULT_255_2_778
10
19.3974633
20
16.0917395
40
0.741564
50
177.6402845
51
180.0149652
0
ARC
8
DEFAULT_255_2_778
10
19.196582
20
13.6439115
40
0.5407454
50
179.1274743
51
191.8854609
0
ARC
8
DEFAULT_255_2_778
10
18.7223894
20
13.5356422
40
0.0550472
50
183.2288141
51
231.9925633
0
ARC
8
DEFAULT_255_2_778
10
18.6904833
20
13.4999874
40
0.0079709
50
255.5427928
51
265.0771372
0
LINE
8
DEFAULT_255_2_778
10
19.8859993
20
16.3487458
11
18.6897993
21
16.2516458
0
LINE
8
DEFAULT_255_2_778
10
18.6558993
20
16.0915458
11
18.6558993
21
13.6521458
0
LINE
8
DEFAULT_255_2_778
10
18.6897993
20
13.4920458
11
19.7345993
21
13.4071458
0
LINE
8
DEFAULT_255_2_778
10
19.7948993
20
13.4020458
11
19.7340993
21
13.4020458
0
LINE
8
DEFAULT_255_2_778
10
17.0956993
20
16.3516458
11
17.1995993
21
16.2487458
0
LINE
8
DEFAULT_255_2_778
10
17.1995993
20
16.2487458
11
17.1995993
21
13.4946458
0
LINE
8
DEFAULT_255_2_778
10
17.1995993
20
13.4946458
11
17.0945993
21
13.4020458
0
LINE
8
DEFAULT_255_2_778
10
17.0945993
20
13.4020458
11
17.0871993
21
16.3598458
0
LINE
8
DEFAULT_255_2_778
10
17.0871993
20
16.3598458
11
20.0245993
21
16.3598458
0
LINE
8
DEFAULT_255_2_778
10
20.0245993
20
16.3598458
11
19.9348993
21
13.3909458
0
LINE
8
DEFAULT_255_2_778
10
19.9348993
20
13.3909458
11
17.0945993
21
13.4020458
0
ARC
8
DEFAULT_255_2_778
10
18.7251878
20
8.1600027
40
0.0349131
50
116.8863297
51
174.9256938
0
ARC
8
DEFAULT_255_2_778
10
19.1012552
20
8.0535069
40
0.4252072
50
165.0652765
51
178.8867609
0
ARC
8
DEFAULT_255_2_778
10
19.4170633
20
8.0312355
40
0.741564
50
177.6402845
51
180.0149652
0
ARC
8
DEFAULT_255_2_778
10
19.216182
20
5.5834074
40
0.5407454
50
179.1274743
51
191.8854609
0
ARC
8
DEFAULT_255_2_778
10
18.7419894
20
5.4751382
40
0.0550472
50
183.2288141
51
231.9925633
0
ARC
8
DEFAULT_255_2_778
10
18.7100833
20
5.4394833
40
0.0079709
50
255.5427928
51
265.0771372
0
LINE
8
DEFAULT_255_2_778
10
19.9055993
20
8.2882418
11
18.7093993
21
8.1911418
0
LINE
8
DEFAULT_255_2_778
10
18.6754993
20
8.0310418
11
18.6754993
21
5.5916418
0
LINE
8
DEFAULT_255_2_778
10
18.7093993
20
5.4315418
11
19.7541993
21
5.3465418
0
LINE
8
DEFAULT_255_2_778
10
19.8144993
20
5.3415418
11
19.7536993
21
5.3415418
0
LINE
8
DEFAULT_255_2_778
10
17.1152993
20
8.2911418
11
17.2191993
21
8.1882418
0
LINE
8
DEFAULT_255_2_778
10
17.2191993
20
8.1882418
11
17.2191993
21
5.4341418
0
LINE
8
DEFAULT_255_2_778
10
17.2191993
20
5.4341418
11
17.1141993
21
5.3415418
0
LINE
8
DEFAULT_255_2_778
10
17.1141993
20
5.3415418
11
17.1067993
21
8.2993418
0
LINE
8
DEFAULT_255_2_778
10
17.1067993
20
8.2993418
11
20.0441993
21
8.2993418
0
LINE
8
DEFAULT_255_2_778
10
20.0441993
20
8.2993418
11
19.9544993
21
5.3304418
0
LINE
8
DEFAULT_255_2_778
10
19.9544993
20
5.3304418
11
17.1141993
21
5.3415418
0
ARC
8
DEFAULT_255_2_778
10
22.5466733
20
17.6444543
40
0.161401
50
90.8505575
51
179.5444604
0
ARC
8
DEFAULT_255_2_778
10
22.3909785
20
17.6478355
40
0.0060749
50
200.203085
51
276.2722377
0
ARC
8
DEFAULT_255_2_778
10
22.2806802
20
17.1062076
40
0.5469629
50
78.2210781
51
78.295192
0
ARC
8
DEFAULT_255_2_778
10
22.3741573
20
17.5547316
40
0.0888015
50
77.8302643
51
78.1880497
0
ARC
8
DEFAULT_255_2_778
10
22.4749504
20
18.0794527
40
0.4459126
50
262.3224387
51
267.0339934
0
ARC
8
DEFAULT_255_2_778
10
22.5466039
20
13.580522
40
0.1611296
50
90.7561709
51
179.6388829
0
ARC
8
DEFAULT_255_2_778
10
22.3913561
20
13.5838894
40
0.0063317
50
201.8050814
51
279.4904066
0
ARC
8
DEFAULT_255_2_778
10
22.4126894
20
13.7224484
40
0.1462185
50
262.0238714
51
262.3313367
0
ARC
8
DEFAULT_255_2_778
10
22.4798107
20
14.0644083
40
0.4950427
50
262.5563424
51
266.8000769
0
ARC
8
DEFAULT_255_2_778
10
25.8961136
20
9.9018585
40
0.1663272
50
269.505238
51
269.9917381
0
ARC
8
DEFAULT_255_2_778
10
25.8966544
20
9.8975244
40
0.1619939
50
269.800236
51
329.8814922
0
ARC
8
DEFAULT_255_2_778
10
22.5469395
20
7.6230886
40
0.1614677
50
90.8736897
51
179.5213461
0
ARC
8
DEFAULT_255_2_778
10
22.4580702
20
7.8216538
40
0.214398
50
253.6391715
51
263.036537
0
ARC
8
DEFAULT_255_2_778
10
22.5471733
20
8.0887207
40
0.161401
50
180.4555396
51
269.1494425
0
ARC
8
DEFAULT_255_2_778
10
22.458069
20
10.2240477
40
0.2143916
50
253.6390211
51
263.0366601
0
ARC
8
DEFAULT_255_2_778
10
22.5469397
20
10.0281867
40
0.161468
50
180.4787778
51
269.1262222
0
ARC
8
DEFAULT_255_2_778
10
25.8964893
20
15.8341665
40
0.1629569
50
59.7521663
51
89.9548771
0
ARC
8
DEFAULT_255_2_778
10
25.8966169
20
15.8358352
40
0.1612882
50
89.9997408
51
92.7504248
0
ARC
8
DEFAULT_255_2_778
10
25.8966147
20
19.8987889
40
0.1623561
50
59.6797383
51
89.8753579
0
ARC
8
DEFAULT_255_2_778
10
25.8969718
20
19.9029336
40
0.158211
50
90.0014355
51
92.9326623
0
ARC
8
DEFAULT_255_2_778
10
25.8961136
20
18.0298585
40
0.1663272
50
269.505238
51
269.9917381
0
ARC
8
DEFAULT_255_2_778
10
25.8966544
20
18.0255244
40
0.1619939
50
269.800236
51
329.8814922
0
ARC
8
DEFAULT_255_2_778
10
22.5469395
20
15.7510886
40
0.1614677
50
90.8736897
51
179.5213461
0
ARC
8
DEFAULT_255_2_778
10
22.4580689
20
15.9496538
40
0.2143976
50
253.6394956
51
263.0368747
0
ARC
8
DEFAULT_255_2_778
10
25.8966877
20
13.9698616
40
0.1700327
50
269.4236617
51
269.9930014
0
ARC
8
DEFAULT_255_2_778
10
25.8971829
20
13.9612494
40
0.1614214
50
269.8168595
51
329.9995251
0
ARC
8
DEFAULT_255_2_778
10
22.5471073
20
11.6874197
40
0.1613346
50
90.827479
51
179.5675209
0
ARC
8
DEFAULT_255_2_778
10
22.4603502
20
11.8924638
40
0.2212021
50
253.6220531
51
262.7350209
0
ARC
8
DEFAULT_255_2_778
10
25.8966162
20
22.0952456
40
0.1669143
50
269.5060938
51
269.9916957
0
ARC
8
DEFAULT_255_2_778
10
25.8972231
20
22.0902047
40
0.1618745
50
269.7766242
51
329.9059423
0
ARC
8
DEFAULT_255_2_778
10
22.5473203
20
19.8160054
40
0.1612477
50
90.7969939
51
179.5621822
0
ARC
8
DEFAULT_255_2_778
10
22.4585748
20
20.0144818
40
0.2144261
50
253.6401051
51
263.0362316
0
ARC
8
DEFAULT_255_2_778
10
22.5476733
20
14.0932207
40
0.161401
50
180.4555396
51
269.1494425
0
ARC
8
DEFAULT_255_2_778
10
22.4579815
20
14.2848539
40
0.2100221
50
253.5413633
51
263.1349754
0
ARC
8
DEFAULT_255_2_778
10
22.5476733
20
18.1572207
40
0.161401
50
180.4555396
51
269.1494425
0
ARC
8
DEFAULT_255_2_778
10
22.4608509
20
18.3596668
40
0.2212051
50
253.6220906
51
262.7349338
0
ARC
8
DEFAULT_255_2_778
10
25.8973637
20
32.0909673
40
0.1631779
50
59.8276577
51
89.8567632
0
ARC
8
DEFAULT_255_2_778
10
25.8977716
20
32.0960978
40
0.1580469
50
89.9999675
51
92.9356181
0
ARC
8
DEFAULT_255_2_778
10
25.8973637
20
36.1549673
40
0.1631779
50
59.8276577
51
89.8567632
0
ARC
8
DEFAULT_255_2_778
10
25.8977716
20
36.1600978
40
0.1580469
50
89.9999675
51
92.9356181
0
ARC
8
DEFAULT_255_2_778
10
25.8971879
20
34.2907258
40
0.1700969
50
269.4238169
51
269.9929512
0
ARC
8
DEFAULT_255_2_778
10
25.8976911
20
34.2822083
40
0.1615803
50
269.8141346
51
329.9669972
0
ARC
8
DEFAULT_255_2_778
10
22.5476733
20
32.0081543
40
0.161401
50
90.8505575
51
179.5444604
0
ARC
8
DEFAULT_255_2_778
10
22.4608509
20
32.2132668
40
0.2212051
50
253.6220906
51
262.7349338
0
ARC
8
DEFAULT_255_2_778
10
25.8972136
20
38.3514562
40
0.166325
50
269.5052372
51
269.9917373
0
ARC
8
DEFAULT_255_2_778
10
25.8977466
20
38.3469645
40
0.161834
50
269.8028079
51
329.9140913
0
ARC
8
DEFAULT_255_2_778
10
22.5478203
20
36.0728054
40
0.1612477
50
90.7969885
51
179.5621952
0
ARC
8
DEFAULT_255_2_778
10
22.458269
20
36.2668933
40
0.2099605
50
253.5399444
51
263.1363776
0
ARC
8
DEFAULT_255_2_778
10
22.5483255
20
30.3501735
40
0.1615545
50
180.5092865
51
269.1317364
0
ARC
8
DEFAULT_255_2_778
10
22.4623687
20
30.5573299
40
0.2261583
50
253.7221101
51
262.6349642
0
ARC
8
DEFAULT_255_2_778
10
22.5483255
20
34.4141735
40
0.1615545
50
180.5092811
51
269.1317497
0
ARC
8
DEFAULT_255_2_778
10
22.4623687
20
34.6213299
40
0.2261583
50
253.7221101
51
262.6349642
0
ARC
8
DEFAULT_255_2_778
10
25.8974136
20
26.1596585
40
0.1663272
50
269.505238
51
269.9917381
0
ARC
8
DEFAULT_255_2_778
10
25.8979544
20
26.1553244
40
0.1619939
50
269.800236
51
329.8814922
0
ARC
8
DEFAULT_255_2_778
10
22.5483254
20
23.8808015
40
0.1615545
50
90.8682321
51
179.4907264
0
ARC
8
DEFAULT_255_2_778
10
22.4623687
20
24.0909299
40
0.2261583
50
253.7221101
51
262.6349642
0
ARC
8
DEFAULT_255_2_778
10
25.8977182
20
30.2253083
40
0.167377
50
269.5067738
51
269.991764
0
ARC
8
DEFAULT_255_2_778
10
25.8983754
20
30.2197133
40
0.1617833
50
269.7587265
51
329.9246505
0
ARC
8
DEFAULT_255_2_778
10
22.5483862
20
27.94554
40
0.161314
50
90.8200646
51
179.5391554
0
ARC
8
DEFAULT_255_2_778
10
22.4592121
20
28.1418404
40
0.2121453
50
253.5894858
51
263.0868628
0
ARC
8
DEFAULT_255_2_778
10
22.5487073
20
22.2227553
40
0.1613346
50
180.4324791
51
269.172521
0
ARC
8
DEFAULT_255_2_778
10
22.4619522
20
22.4252728
40
0.2212113
50
253.6222307
51
262.7348179
0
ARC
8
DEFAULT_255_2_778
10
22.5487521
20
26.2868005
40
0.1613805
50
180.4839154
51
269.1568465
0
ARC
8
DEFAULT_255_2_778
10
22.4619522
20
26.4892728
40
0.2212113
50
253.6222307
51
262.7348179
0
ARC
8
DEFAULT_255_2_778
10
25.8984443
20
23.9648647
40
0.1628804
50
59.79959
51
89.8841257
0
ARC
8
DEFAULT_255_2_778
10
25.8987753
20
23.9693849
40
0.1583598
50
90.000561
51
92.1240056
0
ARC
8
DEFAULT_255_2_778
10
25.8986582
20
23.9720581
40
0.1556842
50
92.1174136
51
92.9384339
0
ARC
8
DEFAULT_255_2_778
10
25.8984951
20
28.0296852
40
0.1620598
50
59.6514264
51
89.9028614
0
ARC
8
DEFAULT_255_2_778
10
25.8987715
20
28.0335846
40
0.15816
50
90.0005616
51
92.1253083
0
ARC
8
DEFAULT_255_2_778
10
25.8986582
20
28.0360581
40
0.1556841
50
92.1174136
51
92.9384339
0
ARC
8
DEFAULT_255_2_778
10
25.8979162
20
50.5453456
40
0.1669143
50
269.5060938
51
269.9916957
0
ARC
8
DEFAULT_255_2_778
10
25.8985231
20
50.5403047
40
0.1618745
50
269.7766242
51
329.9059423
0
ARC
8
DEFAULT_255_2_778
10
22.5487733
20
48.2660543
40
0.161401
50
90.8505575
51
179.5444604
0
ARC
8
DEFAULT_255_2_778
10
22.4590769
20
48.4602319
40
0.2099998
50
253.5408812
51
263.1355152
0
ARC
8
DEFAULT_255_2_778
10
25.8984908
20
46.4853923
40
0.1706634
50
269.4247673
51
269.992961
0
ARC
8
DEFAULT_255_2_778
10
25.8990595
20
46.4761895
40
0.1614617
50
269.7907215
51
329.9913664
0
ARC
8
DEFAULT_255_2_778
10
22.5489719
20
44.2022533
40
0.1614005
50
90.8145742
51
179.5086227
0
ARC
8
DEFAULT_255_2_778
10
22.4631681
20
44.4122261
40
0.2261544
50
253.7219965
51
262.6350021
0
ARC
8
DEFAULT_255_2_778
10
25.8985136
20
54.6095585
40
0.1663272
50
269.505238
51
269.9917381
0
ARC
8
DEFAULT_255_2_778
10
25.8990544
20
54.6052244
40
0.1619939
50
269.800236
51
329.8814922
0
ARC
8
DEFAULT_255_2_778
10
22.5492733
20
52.3308543
40
0.161401
50
90.8505575
51
179.5444604
0
ARC
8
DEFAULT_255_2_778
10
22.4595747
20
52.5250266
40
0.209994
50
253.5410431
51
263.1359368
0
ARC
8
DEFAULT_255_2_778
10
22.5495733
20
46.6081207
40
0.161401
50
180.4555396
51
269.1494425
0
ARC
8
DEFAULT_255_2_778
10
22.4606619
20
46.8040192
40
0.2143624
50
253.6386982
51
263.0376242
0
ARC
8
DEFAULT_255_2_778
10
22.5495733
20
50.6721207
40
0.161401
50
180.4555396
51
269.1494425
0
ARC
8
DEFAULT_255_2_778
10
22.4606643
20
50.868034
40
0.2143773
50
253.6391904
51
263.0374602
0
ARC
8
DEFAULT_255_2_778
10
25.8992951
20
40.2227852
40
0.1620598
50
59.6514264
51
89.9028614
0
ARC
8
DEFAULT_255_2_778
10
25.8995715
20
40.2266846
40
0.15816
50
90.0005616
51
92.1253083
0
ARC
8
DEFAULT_255_2_778
10
25.8994582
20
40.2291581
40
0.1556841
50
92.1174136
51
92.9384339
0
ARC
8
DEFAULT_255_2_778
10
25.8992951
20
44.2867852
40
0.1620598
50
59.6514264
51
89.9028614
0
ARC
8
DEFAULT_255_2_778
10
25.8995715
20
44.2906846
40
0.15816
50
90.0005616
51
92.1253083
0
ARC
8
DEFAULT_255_2_778
10
25.8994582
20
44.2931581
40
0.1556841
50
92.1174136
51
92.9384339
0
ARC
8
DEFAULT_255_2_778
10
25.8987162
20
42.4181456
40
0.1669143
50
269.5060938
51
269.9916957
0
ARC
8
DEFAULT_255_2_778
10
25.8993231
20
42.4131047
40
0.1618745
50
269.7766242
51
329.9059423
0
ARC
8
DEFAULT_255_2_778
10
22.5495733
20
40.1388543
40
0.161401
50
90.8505575
51
179.5444604
0
ARC
8
DEFAULT_255_2_778
10
22.4606643
20
40.337334
40
0.2143773
50
253.6391904
51
263.0374602
0
ARC
8
DEFAULT_255_2_778
10
22.5498396
20
38.4801866
40
0.1614679
50
180.4787411
51
269.1262483
0
ARC
8
DEFAULT_255_2_778
10
22.4609711
20
38.6760669
40
0.2144108
50
253.639937
51
263.0367334
0
ARC
8
DEFAULT_255_2_778
10
22.5498396
20
42.5441866
40
0.1614679
50
180.4787411
51
269.1262483
0
ARC
8
DEFAULT_255_2_778
10
22.4609713
20
42.7400681
40
0.214412
50
253.6399502
51
263.0366939
0
ARC
8
DEFAULT_255_2_778
10
25.8995147
20
60.5429889
40
0.1623561
50
59.6797383
51
89.8753579
0
ARC
8
DEFAULT_255_2_778
10
25.8998718
20
60.5471336
40
0.158211
50
90.0014355
51
92.9326623
0
ARC
8
DEFAULT_255_2_778
10
25.8995147
20
64.6069889
40
0.1623561
50
59.6797383
51
89.8753579
0
ARC
8
DEFAULT_255_2_778
10
25.8998718
20
64.6111336
40
0.158211
50
90.0014355
51
92.9326623
0
ARC
8
DEFAULT_255_2_778
10
25.8990136
20
58.6740585
40
0.1663272
50
269.505238
51
269.9917381
0
ARC
8
DEFAULT_255_2_778
10
25.8995544
20
58.6697244
40
0.1619939
50
269.800236
51
329.8814922
0
ARC
8
DEFAULT_255_2_778
10
22.5498395
20
56.3952885
40
0.1614678
50
90.8737158
51
179.5213094
0
ARC
8
DEFAULT_255_2_778
10
22.4616051
20
56.5940395
40
0.2146598
50
253.4830166
51
262.8743388
0
ARC
8
DEFAULT_255_2_778
10
25.8995877
20
62.7423616
40
0.1700327
50
269.4236617
51
269.9930014
0
ARC
8
DEFAULT_255_2_778
10
25.9000829
20
62.7337494
40
0.1614214
50
269.8168595
51
329.9995251
0
ARC
8
DEFAULT_255_2_778
10
22.5500073
20
60.4599197
40
0.1613346
50
90.827479
51
179.5675209
0
ARC
8
DEFAULT_255_2_778
10
22.4632509
20
60.6649668
40
0.2212051
50
253.6220906
51
262.7349338
0
ARC
8
DEFAULT_255_2_778
10
22.5502204
20
54.7370697
40
0.1612478
50
180.4378306
51
269.202975
0
ARC
8
DEFAULT_255_2_778
10
22.4644694
20
54.944533
40
0.2261614
50
253.7221476
51
262.6348766
0
ARC
8
DEFAULT_255_2_778
10
22.5502203
20
58.8010696
40
0.1612477
50
180.4378178
51
269.2030061
0
ARC
8
DEFAULT_255_2_778
10
22.4644694
20
59.008533
40
0.2261614
50
253.7221476
51
262.6348766
0
ARC
8
DEFAULT_255_2_778
10
25.9000147
20
68.6717889
40
0.1623561
50
59.6797383
51
89.8753579
0
ARC
8
DEFAULT_255_2_778
10
25.9003718
20
68.6759336
40
0.158211
50
90.0014355
51
92.9326623
0
ARC
8
DEFAULT_255_2_778
10
25.9000147
20
72.7357889
40
0.1623561
50
59.6797383
51
89.8753579
0
ARC
8
DEFAULT_255_2_778
10
25.9003718
20
72.7399336
40
0.158211
50
90.0014355
51
92.9326623
0
ARC
8
DEFAULT_255_2_778
10
25.8995162
20
66.8034456
40
0.1669143
50
269.5060938
51
269.9916957
0
ARC
8
DEFAULT_255_2_778
10
25.9001231
20
66.7984047
40
0.1618745
50
269.7766242
51
329.9059423
0
ARC
8
DEFAULT_255_2_778
10
22.5503733
20
64.5241543
40
0.161401
50
90.8505575
51
179.5444604
0
ARC
8
DEFAULT_255_2_778
10
22.4637964
20
64.7339303
40
0.2258751
50
253.8787357
51
262.7976085
0
ARC
8
DEFAULT_255_2_778
10
25.9000879
20
70.8712258
40
0.1700969
50
269.4238169
51
269.9929512
0
ARC
8
DEFAULT_255_2_778
10
25.9005911
20
70.8627083
40
0.1615803
50
269.8141346
51
329.9669972
0
ARC
8
DEFAULT_255_2_778
10
22.5505733
20
68.5886543
40
0.161401
50
90.8505575
51
179.5444604
0
ARC
8
DEFAULT_255_2_778
10
22.4642547
20
68.7961736
40
0.2236564
50
253.6721322
51
262.6848911
0
ARC
8
DEFAULT_255_2_778
10
22.5508733
20
62.8659207
40
0.161401
50
180.4555396
51
269.1494425
0
ARC
8
DEFAULT_255_2_778
10
22.461789
20
63.0576653
40
0.210206
50
253.3834476
51
262.9742095
0
ARC
8
DEFAULT_255_2_778
10
22.5508733
20
66.9299207
40
0.161401
50
180.4555396
51
269.1494425
0
ARC
8
DEFAULT_255_2_778
10
22.461789
20
67.1216653
40
0.210206
50
253.3834476
51
262.9742095
0
ARC
8
DEFAULT_255_2_778
10
25.9001182
20
74.933006
40
0.1673747
50
269.506773
51
269.9917632
0
ARC
8
DEFAULT_255_2_778
10
25.9007675
20
74.9272537
40
0.1616236
50
269.7612862
51
329.9572641
0
ARC
8
DEFAULT_255_2_778
10
22.5507203
20
72.6533054
40
0.1612477
50
90.7969939
51
179.5621822
0
ARC
8
DEFAULT_255_2_778
10
22.4611724
20
72.847413
40
0.2099804
50
253.5405769
51
263.1360989
0
ARC
8
DEFAULT_255_2_778
10
22.5511733
20
70.9945207
40
0.161401
50
180.4555396
51
269.1494425
0
ARC
8
DEFAULT_255_2_778
10
22.4652707
20
71.2018393
40
0.2261679
50
253.7222874
51
262.6347606
0
ARC
8
DEFAULT_255_2_778
10
22.5511077
20
75.0584555
40
0.1613348
50
180.4325664
51
269.1723977
0
ARC
8
DEFAULT_255_2_778
10
22.4652707
20
75.2658393
40
0.2261679
50
253.7222874
51
262.6347606
0
ARC
8
DEFAULT_255_2_778
10
22.4011407
20
5.4993068
40
0.0502821
50
259.7092283
51
261.8096582
0
ARC
8
DEFAULT_255_2_778
10
22.3917195
20
5.4555538
40
0.0057372
50
198.4565945
51
274.3842969
0
ARC
8
DEFAULT_255_2_778
10
25.900249
20
11.7770357
40
0.1621112
50
59.7250466
51
89.9293773
0
ARC
8
DEFAULT_255_2_778
10
25.900445
20
11.7795973
40
0.1595495
50
89.9986306
51
92.9343627
0
ARC
8
DEFAULT_255_2_778
10
22.5502203
20
12.1584696
40
0.1612477
50
180.4378178
51
269.2030061
0
ARC
8
DEFAULT_255_2_778
10
22.5500733
20
16.2223207
40
0.161401
50
180.4555396
51
269.1494425
0
ARC
8
DEFAULT_255_2_778
10
22.4078011
20
21.7792703
40
0.068937
50
258.670188
51
260.2084015
0
ARC
8
DEFAULT_255_2_778
10
22.393908
20
21.7175033
40
0.0058369
50
198.6419803
51
273.4388814
0
ARC
8
DEFAULT_255_2_778
10
22.5497523
20
21.7142744
40
0.1613806
50
90.8431969
51
179.516041
0
ARC
8
DEFAULT_255_2_778
10
22.4032407
20
33.9537068
40
0.0502821
50
259.7092283
51
261.8096582
0
ARC
8
DEFAULT_255_2_778
10
22.3938195
20
33.9099538
40
0.0057372
50
198.4565945
51
274.3842969
0
ARC
8
DEFAULT_255_2_778
10
22.5498395
20
33.9067886
40
0.1614677
50
90.8736897
51
179.5213461
0
ARC
8
DEFAULT_255_2_778
10
22.4119027
20
29.9320686
40
0.0932833
50
259.0967151
51
260.2326205
0
ARC
8
DEFAULT_255_2_778
10
22.3938319
20
29.8461797
40
0.0057261
50
197.7135092
51
274.2678066
0
ARC
8
DEFAULT_255_2_778
10
22.5497523
20
29.8430744
40
0.1613806
50
90.8431969
51
179.516041
0
ARC
8
DEFAULT_255_2_778
10
22.4028279
20
25.8248705
40
0.0494383
50
259.836881
51
261.8009925
0
ARC
8
DEFAULT_255_2_778
10
22.3936368
20
25.7819372
40
0.0057484
50
198.2450239
51
274.666313
0
ARC
8
DEFAULT_255_2_778
10
22.5495733
20
25.7788543
40
0.161401
50
90.8505575
51
179.5444604
0
ARC
8
DEFAULT_255_2_778
10
22.5495733
20
28.4148207
40
0.161401
50
180.4555396
51
269.1494425
0
ARC
8
DEFAULT_255_2_778
10
22.5491203
20
20.2864696
40
0.1612477
50
180.4378178
51
269.2030061
0
ARC
8
DEFAULT_255_2_778
10
22.548906
20
24.3505563
40
0.1613342
50
180.4683504
51
269.2084966
0
ARC
8
DEFAULT_255_2_778
10
22.4020279
20
38.0168705
40
0.0494383
50
259.836881
51
261.8009925
0
ARC
8
DEFAULT_255_2_778
10
22.3928368
20
37.9739372
40
0.0057484
50
198.2450239
51
274.666313
0
ARC
8
DEFAULT_255_2_778
10
22.5487733
20
37.9708543
40
0.161401
50
90.8505575
51
179.5444604
0
ARC
8
DEFAULT_255_2_778
10
22.4020279
20
46.1453705
40
0.0494383
50
259.836881
51
261.8009925
0
ARC
8
DEFAULT_255_2_778
10
22.3928368
20
46.1024372
40
0.0057484
50
198.2450239
51
274.666313
0
ARC
8
DEFAULT_255_2_778
10
22.5487733
20
46.0993543
40
0.161401
50
90.8505575
51
179.5444604
0
ARC
8
DEFAULT_255_2_778
10
22.4020279
20
42.0813705
40
0.0494383
50
259.836881
51
261.8009925
0
ARC
8
DEFAULT_255_2_778
10
22.3928368
20
42.0384372
40
0.0057484
50
198.2450239
51
274.666313
0
ARC
8
DEFAULT_255_2_778
10
22.5487733
20
42.0353543
40
0.161401
50
90.8505575
51
179.5444604
0
ARC
8
DEFAULT_255_2_778
10
22.3999279
20
54.2675705
40
0.0494383
50
259.836881
51
261.8009925
0
ARC
8
DEFAULT_255_2_778
10
22.3907368
20
54.2246372
40
0.0057484
50
198.2450239
51
274.666313
0
ARC
8
DEFAULT_255_2_778
10
22.5466733
20
54.2215543
40
0.161401
50
90.8505575
51
179.5444604
0
ARC
8
DEFAULT_255_2_778
10
22.4045825
20
50.2224165
40
0.0685852
50
258.7518827
51
260.1734679
0
ARC
8
DEFAULT_255_2_778
10
22.3908287
20
50.1609883
40
0.0058517
50
198.4383014
51
273.6814277
0
ARC
8
DEFAULT_255_2_778
10
22.5465203
20
50.1579054
40
0.1612476
50
90.7969812
51
179.5622132
0
ARC
8
DEFAULT_255_2_778
10
22.5466733
20
48.7298207
40
0.161401
50
180.4555396
51
269.1494425
0
ARC
8
DEFAULT_255_2_778
10
22.5463733
20
44.6655207
40
0.161401
50
180.4555396
51
269.1494425
0
ARC
8
DEFAULT_255_2_778
10
22.5460524
20
36.5373009
40
0.1613808
50
180.4840462
51
269.1567411
0
ARC
8
DEFAULT_255_2_778
10
22.5457205
20
40.6011697
40
0.1612478
50
180.4378483
51
269.202932
0
ARC
8
DEFAULT_255_2_778
10
22.5455733
20
32.4730207
40
0.161401
50
180.4555396
51
269.1494425
0
ARC
8
DEFAULT_255_2_778
10
22.4033011
20
66.4787703
40
0.068937
50
258.670188
51
260.2084015
0
ARC
8
DEFAULT_255_2_778
10
22.389408
20
66.4170033
40
0.0058369
50
198.6419803
51
273.4388814
0
ARC
8
DEFAULT_255_2_778
10
22.5452719
20
66.4137533
40
0.1614005
50
90.8145742
51
179.5086227
0
ARC
8
DEFAULT_255_2_778
10
22.4033011
20
62.4147703
40
0.068937
50
258.670188
51
260.2084015
0
ARC
8
DEFAULT_255_2_778
10
22.389408
20
62.3530033
40
0.0058369
50
198.6419803
51
273.4388814
0
ARC
8
DEFAULT_255_2_778
10
22.5452719
20
62.3497533
40
0.1614005
50
90.8145742
51
179.5086227
0
ARC
8
DEFAULT_255_2_778
10
22.403694
20
58.3556855
40
0.0738819
50
259.1991466
51
260.4036042
0
ARC
8
DEFAULT_255_2_778
10
22.3893776
20
58.2891338
40
0.0060397
50
199.3006079
51
274.4746547
0
ARC
8
DEFAULT_255_2_778
10
22.5449862
20
58.28584
40
0.161314
50
90.8200646
51
179.5391554
0
ARC
8
DEFAULT_255_2_778
10
22.5450733
20
52.7938207
40
0.161401
50
180.4555396
51
269.1494425
0
ARC
8
DEFAULT_255_2_778
10
22.5447733
20
56.8578207
40
0.161401
50
180.4555396
51
269.1494425
0
ARC
8
DEFAULT_255_2_778
10
22.5446255
20
60.9216735
40
0.1615545
50
180.5092811
51
269.1317497
0
ARC
8
DEFAULT_255_2_778
10
22.5442733
20
64.9855207
40
0.161401
50
180.4555396
51
269.1494425
0
ARC
8
DEFAULT_255_2_778
10
22.402594
20
74.6116855
40
0.0738819
50
259.1991466
51
260.4036042
0
ARC
8
DEFAULT_255_2_778
10
22.3882776
20
74.5451338
40
0.0060397
50
199.3006079
51
274.4746547
0
ARC
8
DEFAULT_255_2_778
10
22.5438862
20
74.54184
40
0.161314
50
90.8200646
51
179.5391554
0
ARC
8
DEFAULT_255_2_778
10
22.4016825
20
70.5424165
40
0.0685852
50
258.7518827
51
260.1734679
0
ARC
8
DEFAULT_255_2_778
10
22.3879287
20
70.4809883
40
0.0058517
50
198.4383014
51
273.6814277
0
ARC
8
DEFAULT_255_2_778
10
22.5436203
20
70.4779054
40
0.1612476
50
90.7969939
51
179.5621822
0
ARC
8
DEFAULT_255_2_778
10
22.5437733
20
69.0498207
40
0.161401
50
180.4555396
51
269.1494425
0
ARC
8
DEFAULT_255_2_778
10
22.5434733
20
73.1138207
40
0.161401
50
180.4555396
51
269.1494425
0
ARC
8
DEFAULT_255_2_778
10
22.3882267
20
73.1149137
40
0.0065925
50
201.127485
51
276.7365444
0
ARC
8
DEFAULT_255_2_778
10
22.4034584
20
73.1929599
40
0.08582
50
260.3009151
51
260.8270035
0
ARC
8
DEFAULT_255_2_778
10
22.4856753
20
73.588657
40
0.4904578
50
261.3814352
51
265.238403
0
ARC
8
DEFAULT_255_2_778
10
22.5511502
20
74.279974
40
1.1848501
50
264.8581817
51
265.0530879
0
ARC
8
DEFAULT_255_2_778
10
23.0305751
20
5.9448933
40
0.1611695
50
270.7473778
51
308.7146732
0
ARC
8
DEFAULT_255_2_778
10
22.3975777
20
9.5654528
40
0.0524261
50
260.3048251
51
261.9955522
0
ARC
8
DEFAULT_255_2_778
10
22.3881814
20
9.519679
40
0.0059308
50
199.108339
51
275.4895019
0
ARC
8
DEFAULT_255_2_778
10
22.5439733
20
9.5164543
40
0.161401
50
90.8505575
51
179.5444604
0
LINE
8
DEFAULT_255_2_778
10
26.0578774
20
66.8408375
11
22.5442774
21
66.9014375
0
LINE
8
DEFAULT_255_2_778
10
22.5442774
20
66.9014375
11
22.5442774
21
68.5632375
0
LINE
8
DEFAULT_255_2_778
10
22.5442774
20
68.5632375
11
26.0578774
21
68.6238375
0
LINE
8
DEFAULT_255_2_778
10
22.7897774
20
11.9868375
11
22.7897774
21
11.8527375
0
LINE
8
DEFAULT_255_2_778
10
22.7897774
20
7.9228375
11
22.7897774
21
7.7887375
0
LINE
8
DEFAULT_255_2_778
10
25.6533774
20
16.0014375
11
25.6533774
21
17.8595375
0
LINE
8
DEFAULT_255_2_778
10
25.6533774
20
17.8595375
11
22.7826774
21
17.8101375
0
LINE
8
DEFAULT_255_2_778
10
22.7820774
20
17.8063375
11
22.7826774
21
17.8101375
0
LINE
8
DEFAULT_255_2_778
10
22.7826774
20
17.8101375
11
22.5442774
21
17.8058375
0
LINE
8
DEFAULT_255_2_778
10
22.3928774
20
17.6415375
11
22.4153774
21
17.6375375
0
LINE
8
DEFAULT_255_2_778
10
22.4518774
20
17.6341375
11
22.5010774
21
17.6312375
0
LINE
8
DEFAULT_255_2_778
10
22.5010774
20
17.6312375
11
22.5611774
21
17.6291375
0
LINE
8
DEFAULT_255_2_778
10
22.5611774
20
17.6291375
11
22.6299774
21
17.6278375
0
LINE
8
DEFAULT_255_2_778
10
22.6299774
20
17.6278375
11
22.7828774
21
17.6275375
0
LINE
8
DEFAULT_255_2_778
10
22.7828774
20
17.6275375
11
22.7818774
21
17.6926375
0
LINE
8
DEFAULT_255_2_778
10
22.7818774
20
17.6926375
11
22.7815774
21
17.7254375
0
LINE
8
DEFAULT_255_2_778
10
22.7815774
20
17.7254375
11
22.7815774
21
17.7548375
0
LINE
8
DEFAULT_255_2_778
10
22.7815774
20
17.7548375
11
22.7815774
21
17.7783375
0
LINE
8
DEFAULT_255_2_778
10
22.7815774
20
17.7783375
11
22.7818774
21
17.7955375
0
LINE
8
DEFAULT_255_2_778
10
25.6536774
20
11.9371375
11
25.6536774
21
13.7953375
0
LINE
8
DEFAULT_255_2_778
10
25.6536774
20
13.7953375
11
22.7828774
21
13.7458375
0
LINE
8
DEFAULT_255_2_778
10
22.7828774
20
13.7458375
11
22.5444774
21
13.7416375
0
LINE
8
DEFAULT_255_2_778
10
22.3931774
20
13.5775375
11
22.4156774
21
13.5735375
0
LINE
8
DEFAULT_255_2_778
10
22.4521774
20
13.5701375
11
22.5013774
21
13.5672375
0
LINE
8
DEFAULT_255_2_778
10
22.5013774
20
13.5672375
11
22.5614774
21
13.5651375
0
LINE
8
DEFAULT_255_2_778
10
22.5614774
20
13.5651375
11
22.6302774
21
13.5638375
0
LINE
8
DEFAULT_255_2_778
10
22.6302774
20
13.5638375
11
22.7831774
21
13.5635375
0
LINE
8
DEFAULT_255_2_778
10
22.7831774
20
13.5635375
11
22.7820774
21
13.6286375
0
LINE
8
DEFAULT_255_2_778
10
22.7820774
20
13.6286375
11
22.7818774
21
13.6614375
0
LINE
8
DEFAULT_255_2_778
10
22.7818774
20
13.6614375
11
22.7818774
21
13.6908375
0
LINE
8
DEFAULT_255_2_778
10
22.7818774
20
13.6908375
11
22.7818774
21
13.7143375
0
LINE
8
DEFAULT_255_2_778
10
22.7818774
20
13.7143375
11
22.7828774
21
13.7458375
0
LINE
8
DEFAULT_255_2_778
10
22.7900774
20
52.6284375
11
22.7900774
21
52.4930375
0
LINE
8
DEFAULT_255_2_778
10
22.7900774
20
60.7551375
11
22.7900774
21
60.6210375
0
LINE
8
DEFAULT_255_2_778
10
22.0378774
20
53.6029375
11
22.3857774
21
53.6029375
0
LINE
8
DEFAULT_255_2_778
10
22.3857774
20
55.6367375
11
22.0378774
21
55.6428375
0
LINE
8
DEFAULT_255_2_778
10
22.0378774
20
57.4351375
11
22.3857774
21
57.4412375
0
LINE
8
DEFAULT_255_2_778
10
22.3857774
20
59.2369375
11
22.0378774
21
59.2430375
0
LINE
8
DEFAULT_255_2_778
10
22.3857774
20
59.6370375
11
22.0378774
21
59.6431375
0
LINE
8
DEFAULT_255_2_778
10
22.7900774
20
9.6818375
11
22.7900774
21
9.8625375
0
LINE
8
DEFAULT_255_2_778
10
25.8946774
20
9.7344375
11
25.6536774
21
9.7326375
0
LINE
8
DEFAULT_255_2_778
10
26.0581774
20
7.8451375
11
22.5444774
21
7.7845375
0
LINE
8
DEFAULT_255_2_778
10
22.3854774
20
7.6244375
11
22.3886774
21
7.6202375
0
LINE
8
DEFAULT_255_2_778
10
22.3886774
20
7.6202375
11
22.3976774
21
7.6159375
0
LINE
8
DEFAULT_255_2_778
10
22.4320774
20
7.6088375
11
22.4836774
21
7.6040375
0
LINE
8
DEFAULT_255_2_778
10
22.4836774
20
7.6040375
11
22.5447774
21
7.6022375
0
LINE
8
DEFAULT_255_2_778
10
22.5447774
20
7.6022375
11
22.5436774
21
7.6699375
0
LINE
8
DEFAULT_255_2_778
10
22.5436774
20
7.6699375
11
22.5434774
21
7.7014375
0
LINE
8
DEFAULT_255_2_778
10
22.5434774
20
7.7014375
11
22.5434774
21
7.7294375
0
LINE
8
DEFAULT_255_2_778
10
22.5434774
20
7.7294375
11
22.5434774
21
7.7527375
0
LINE
8
DEFAULT_255_2_778
10
22.5434774
20
7.7527375
11
22.5436774
21
7.7702375
0
LINE
8
DEFAULT_255_2_778
10
22.5436774
20
7.7702375
11
22.5439774
21
7.7765375
0
LINE
8
DEFAULT_255_2_778
10
22.5439774
20
7.7765375
11
22.5442774
21
7.7810375
0
LINE
8
DEFAULT_255_2_778
10
22.5442774
20
7.7810375
11
22.5444774
21
7.7837375
0
LINE
8
DEFAULT_255_2_778
10
22.5444774
20
7.7837375
11
22.5447774
21
7.7847375
0
LINE
8
DEFAULT_255_2_778
10
26.0584774
20
7.8667375
11
22.5447774
21
7.9273375
0
LINE
8
DEFAULT_255_2_778
10
22.3857774
20
8.0874375
11
22.3899774
21
8.0842375
0
LINE
8
DEFAULT_255_2_778
10
22.3899774
20
8.0842375
11
22.4026774
21
8.0808375
0
LINE
8
DEFAULT_255_2_778
10
22.4026774
20
8.0808375
11
22.4235774
21
8.0774375
0
LINE
8
DEFAULT_255_2_778
10
22.4235774
20
8.0774375
11
22.4524774
21
8.0742375
0
LINE
8
DEFAULT_255_2_778
10
22.4524774
20
8.0742375
11
22.5304774
21
8.0686375
0
LINE
8
DEFAULT_255_2_778
10
22.5304774
20
8.0686375
11
22.6307774
21
8.0641375
0
LINE
8
DEFAULT_255_2_778
10
22.6307774
20
8.0641375
11
22.7598774
21
8.0609375
0
LINE
8
DEFAULT_255_2_778
10
22.7598774
20
8.0609375
11
22.7828774
21
8.0607375
0
LINE
8
DEFAULT_255_2_778
10
22.7828774
20
8.0607375
11
22.7820774
21
7.9890375
0
LINE
8
DEFAULT_255_2_778
10
22.7820774
20
7.9890375
11
22.7820774
21
7.9607375
0
LINE
8
DEFAULT_255_2_778
10
22.7820774
20
7.9607375
11
22.7820774
21
7.9398375
0
LINE
8
DEFAULT_255_2_778
10
22.7820774
20
7.9398375
11
22.7823774
21
7.9271375
0
LINE
8
DEFAULT_255_2_778
10
22.7823774
20
7.9271375
11
22.7828774
21
7.9228375
0
LINE
8
DEFAULT_255_2_778
10
26.0581774
20
9.8061375
11
22.5444774
21
9.8667375
0
LINE
8
DEFAULT_255_2_778
10
22.5444774
20
9.8667375
11
22.5442774
21
9.8694375
0
LINE
8
DEFAULT_255_2_778
10
22.5442774
20
9.8694375
11
22.5439774
21
9.8771375
0
LINE
8
DEFAULT_255_2_778
10
22.5439774
20
9.8771375
11
22.5436774
21
9.8895375
0
LINE
8
DEFAULT_255_2_778
10
22.5436774
20
9.8895375
11
22.5436774
21
9.9062375
0
LINE
8
DEFAULT_255_2_778
10
22.5436774
20
9.9062375
11
22.5436774
21
9.9268375
0
LINE
8
DEFAULT_255_2_778
10
22.5436774
20
9.9268375
11
22.5439774
21
9.9506375
0
LINE
8
DEFAULT_255_2_778
10
22.5439774
20
9.9506375
11
22.5447774
21
10.0046375
0
LINE
8
DEFAULT_255_2_778
10
22.5447774
20
10.0046375
11
22.4836774
21
10.0064375
0
LINE
8
DEFAULT_255_2_778
10
22.4836774
20
10.0064375
11
22.4320774
21
10.0112375
0
LINE
8
DEFAULT_255_2_778
10
22.3976774
20
10.0183375
11
22.3886774
21
10.0226375
0
LINE
8
DEFAULT_255_2_778
10
22.3886774
20
10.0226375
11
22.3854774
21
10.0268375
0
LINE
8
DEFAULT_255_2_778
10
22.7900774
20
17.8098375
11
22.7900774
21
17.9905375
0
LINE
8
DEFAULT_255_2_778
10
25.8946774
20
17.8624375
11
25.6536774
21
17.8606375
0
LINE
8
DEFAULT_255_2_778
10
26.0581774
20
15.9731375
11
22.5444774
21
15.9125375
0
LINE
8
DEFAULT_255_2_778
10
22.3854774
20
15.7524375
11
22.3886774
21
15.7482375
0
LINE
8
DEFAULT_255_2_778
10
22.3886774
20
15.7482375
11
22.3976774
21
15.7439375
0
LINE
8
DEFAULT_255_2_778
10
22.4320774
20
15.7368375
11
22.4836774
21
15.7320375
0
LINE
8
DEFAULT_255_2_778
10
22.4836774
20
15.7320375
11
22.5447774
21
15.7302375
0
LINE
8
DEFAULT_255_2_778
10
22.5447774
20
15.7302375
11
22.5436774
21
15.7979375
0
LINE
8
DEFAULT_255_2_778
10
22.5436774
20
15.7979375
11
22.5434774
21
15.8294375
0
LINE
8
DEFAULT_255_2_778
10
22.5434774
20
15.8294375
11
22.5434774
21
15.8574375
0
LINE
8
DEFAULT_255_2_778
10
22.5434774
20
15.8574375
11
22.5434774
21
15.8807375
0
LINE
8
DEFAULT_255_2_778
10
22.5434774
20
15.8807375
11
22.5436774
21
15.8982375
0
LINE
8
DEFAULT_255_2_778
10
22.5436774
20
15.8982375
11
22.5439774
21
15.9045375
0
LINE
8
DEFAULT_255_2_778
10
22.5439774
20
15.9045375
11
22.5442774
21
15.9090375
0
LINE
8
DEFAULT_255_2_778
10
22.5442774
20
15.9090375
11
22.5444774
21
15.9117375
0
LINE
8
DEFAULT_255_2_778
10
22.5444774
20
15.9117375
11
22.5447774
21
15.9127375
0
LINE
8
DEFAULT_255_2_778
10
22.7902774
20
13.7460375
11
22.7902774
21
13.9268375
0
LINE
8
DEFAULT_255_2_778
10
25.8949774
20
13.7987375
11
25.6538774
21
13.7969375
0
LINE
8
DEFAULT_255_2_778
10
26.0584774
20
11.9093375
11
22.5447774
21
11.8487375
0
LINE
8
DEFAULT_255_2_778
10
22.3857774
20
11.6886375
11
22.3889774
21
11.6844375
0
LINE
8
DEFAULT_255_2_778
10
22.3889774
20
11.6844375
11
22.3979774
21
11.6802375
0
LINE
8
DEFAULT_255_2_778
10
22.4323774
20
11.6730375
11
22.4838774
21
11.6683375
0
LINE
8
DEFAULT_255_2_778
10
22.4838774
20
11.6683375
11
22.5450774
21
11.6664375
0
LINE
8
DEFAULT_255_2_778
10
22.5450774
20
11.6664375
11
22.5439774
21
11.7342375
0
LINE
8
DEFAULT_255_2_778
10
22.5439774
20
11.7342375
11
22.5436774
21
11.7656375
0
LINE
8
DEFAULT_255_2_778
10
22.5436774
20
11.7656375
11
22.5436774
21
11.7937375
0
LINE
8
DEFAULT_255_2_778
10
22.5436774
20
11.7937375
11
22.5436774
21
11.8170375
0
LINE
8
DEFAULT_255_2_778
10
22.5436774
20
11.8170375
11
22.5439774
21
11.8344375
0
LINE
8
DEFAULT_255_2_778
10
22.5439774
20
11.8344375
11
22.5442774
21
11.8408375
0
LINE
8
DEFAULT_255_2_778
10
22.5442774
20
11.8408375
11
22.5444774
21
11.8453375
0
LINE
8
DEFAULT_255_2_778
10
22.5444774
20
11.8453375
11
22.5447774
21
11.8479375
0
LINE
8
DEFAULT_255_2_778
10
22.5447774
20
11.8479375
11
22.5450774
21
11.8490375
0
LINE
8
DEFAULT_255_2_778
10
22.7905774
20
21.8746375
11
22.7905774
21
22.0553375
0
LINE
8
DEFAULT_255_2_778
10
25.8951774
20
21.9272375
11
25.6541774
21
21.9254375
0
LINE
8
DEFAULT_255_2_778
10
26.0586774
20
20.0378375
11
22.5450774
21
19.9772375
0
LINE
8
DEFAULT_255_2_778
10
22.3860774
20
19.8172375
11
22.3891774
21
19.8130375
0
LINE
8
DEFAULT_255_2_778
10
22.3891774
20
19.8130375
11
22.3981774
21
19.8087375
0
LINE
8
DEFAULT_255_2_778
10
22.4325774
20
19.8016375
11
22.4841774
21
19.7968375
0
LINE
8
DEFAULT_255_2_778
10
22.4841774
20
19.7968375
11
22.5452774
21
19.7950375
0
LINE
8
DEFAULT_255_2_778
10
22.5452774
20
19.7950375
11
22.5442774
21
19.8627375
0
LINE
8
DEFAULT_255_2_778
10
22.5442774
20
19.8627375
11
22.5439774
21
19.8942375
0
LINE
8
DEFAULT_255_2_778
10
22.5439774
20
19.8942375
11
22.5439774
21
19.9222375
0
LINE
8
DEFAULT_255_2_778
10
22.5439774
20
19.9222375
11
22.5439774
21
19.9455375
0
LINE
8
DEFAULT_255_2_778
10
22.5439774
20
19.9455375
11
22.5442774
21
19.9630375
0
LINE
8
DEFAULT_255_2_778
10
22.5442774
20
19.9630375
11
22.5444774
21
19.9693375
0
LINE
8
DEFAULT_255_2_778
10
22.5444774
20
19.9693375
11
22.5447774
21
19.9738375
0
LINE
8
DEFAULT_255_2_778
10
22.5447774
20
19.9738375
11
22.5450774
21
19.9765375
0
LINE
8
DEFAULT_255_2_778
10
22.5450774
20
19.9765375
11
22.5452774
21
19.9775375
0
LINE
8
DEFAULT_255_2_778
10
26.0589774
20
13.8712375
11
22.5452774
21
13.9318375
0
LINE
8
DEFAULT_255_2_778
10
22.3862774
20
14.0919375
11
22.3894774
21
14.0876375
0
LINE
8
DEFAULT_255_2_778
10
22.3894774
20
14.0876375
11
22.3984774
21
14.0834375
0
LINE
8
DEFAULT_255_2_778
10
22.4328774
20
14.0763375
11
22.4844774
21
14.0715375
0
LINE
8
DEFAULT_255_2_778
10
22.4844774
20
14.0715375
11
22.5455774
21
14.0696375
0
LINE
8
DEFAULT_255_2_778
10
22.5455774
20
14.0696375
11
22.5447774
21
14.0157375
0
LINE
8
DEFAULT_255_2_778
10
22.5447774
20
14.0157375
11
22.5444774
21
13.9919375
0
LINE
8
DEFAULT_255_2_778
10
22.5444774
20
13.9919375
11
22.5444774
21
13.9712375
0
LINE
8
DEFAULT_255_2_778
10
22.5444774
20
13.9712375
11
22.5444774
21
13.9545375
0
LINE
8
DEFAULT_255_2_778
10
22.5444774
20
13.9545375
11
22.5447774
21
13.9421375
0
LINE
8
DEFAULT_255_2_778
10
22.5447774
20
13.9421375
11
22.5450774
21
13.9344375
0
LINE
8
DEFAULT_255_2_778
10
22.5450774
20
13.9344375
11
22.5452774
21
13.9318375
0
LINE
8
DEFAULT_255_2_778
10
26.0589774
20
17.9352375
11
22.5452774
21
17.9958375
0
LINE
8
DEFAULT_255_2_778
10
22.3862774
20
18.1559375
11
22.3894774
21
18.1516375
0
LINE
8
DEFAULT_255_2_778
10
22.3894774
20
18.1516375
11
22.3984774
21
18.1474375
0
LINE
8
DEFAULT_255_2_778
10
22.4328774
20
18.1402375
11
22.4844774
21
18.1355375
0
LINE
8
DEFAULT_255_2_778
10
22.4844774
20
18.1355375
11
22.5455774
21
18.1336375
0
LINE
8
DEFAULT_255_2_778
10
22.5455774
20
18.1336375
11
22.5447774
21
18.0797375
0
LINE
8
DEFAULT_255_2_778
10
22.5447774
20
18.0797375
11
22.5444774
21
18.0558375
0
LINE
8
DEFAULT_255_2_778
10
22.5444774
20
18.0558375
11
22.5444774
21
18.0352375
0
LINE
8
DEFAULT_255_2_778
10
22.5444774
20
18.0352375
11
22.5444774
21
18.0185375
0
LINE
8
DEFAULT_255_2_778
10
22.5444774
20
18.0185375
11
22.5447774
21
18.0061375
0
LINE
8
DEFAULT_255_2_778
10
22.5447774
20
18.0061375
11
22.5450774
21
17.9984375
0
LINE
8
DEFAULT_255_2_778
10
22.5450774
20
17.9984375
11
22.5452774
21
17.9958375
0
LINE
8
DEFAULT_255_2_778
10
22.7908774
20
34.0668375
11
22.7908774
21
34.2476375
0
LINE
8
DEFAULT_255_2_778
10
25.8954774
20
34.1195375
11
25.6544774
21
34.1176375
0
LINE
8
DEFAULT_255_2_778
10
26.0589774
20
32.2301375
11
22.5452774
21
32.1695375
0
LINE
8
DEFAULT_255_2_778
10
22.3862774
20
32.0094375
11
22.3894774
21
32.0052375
0
LINE
8
DEFAULT_255_2_778
10
22.3894774
20
32.0052375
11
22.3984774
21
32.0010375
0
LINE
8
DEFAULT_255_2_778
10
22.4328774
20
31.9938375
11
22.4844774
21
31.9891375
0
LINE
8
DEFAULT_255_2_778
10
22.4844774
20
31.9891375
11
22.5455774
21
31.9872375
0
LINE
8
DEFAULT_255_2_778
10
22.5455774
20
31.9872375
11
22.5444774
21
32.0550375
0
LINE
8
DEFAULT_255_2_778
10
22.5444774
20
32.0550375
11
22.5442774
21
32.0864375
0
LINE
8
DEFAULT_255_2_778
10
22.5442774
20
32.0864375
11
22.5442774
21
32.1145375
0
LINE
8
DEFAULT_255_2_778
10
22.5442774
20
32.1145375
11
22.5442774
21
32.1378375
0
LINE
8
DEFAULT_255_2_778
10
22.5442774
20
32.1378375
11
22.5444774
21
32.1552375
0
LINE
8
DEFAULT_255_2_778
10
22.5444774
20
32.1552375
11
22.5447774
21
32.1616375
0
LINE
8
DEFAULT_255_2_778
10
22.5447774
20
32.1616375
11
22.5450774
21
32.1661375
0
LINE
8
DEFAULT_255_2_778
10
22.5450774
20
32.1661375
11
22.5452774
21
32.1687375
0
LINE
8
DEFAULT_255_2_778
10
22.5452774
20
32.1687375
11
22.5455774
21
32.1698375
0
LINE
8
DEFAULT_255_2_778
10
22.7910774
20
38.1314375
11
22.7910774
21
38.3121375
0
LINE
8
DEFAULT_255_2_778
10
25.8957774
20
38.1840375
11
25.6546774
21
38.1822375
0
LINE
8
DEFAULT_255_2_778
10
26.0592774
20
36.2946375
11
22.5455774
21
36.2340375
0
LINE
8
DEFAULT_255_2_778
10
22.3865774
20
36.0740375
11
22.3897774
21
36.0697375
0
LINE
8
DEFAULT_255_2_778
10
22.3897774
20
36.0697375
11
22.3987774
21
36.0655375
0
LINE
8
DEFAULT_255_2_778
10
22.4331774
20
36.0584375
11
22.4846774
21
36.0536375
0
LINE
8
DEFAULT_255_2_778
10
22.4846774
20
36.0536375
11
22.5458774
21
36.0518375
0
LINE
8
DEFAULT_255_2_778
10
22.5458774
20
36.0518375
11
22.5447774
21
36.1195375
0
LINE
8
DEFAULT_255_2_778
10
22.5447774
20
36.1195375
11
22.5444774
21
36.1510375
0
LINE
8
DEFAULT_255_2_778
10
22.5444774
20
36.1510375
11
22.5444774
21
36.1790375
0
LINE
8
DEFAULT_255_2_778
10
22.5444774
20
36.1790375
11
22.5444774
21
36.2023375
0
LINE
8
DEFAULT_255_2_778
10
22.5444774
20
36.2023375
11
22.5447774
21
36.2198375
0
LINE
8
DEFAULT_255_2_778
10
22.5447774
20
36.2198375
11
22.5450774
21
36.2261375
0
LINE
8
DEFAULT_255_2_778
10
22.5450774
20
36.2261375
11
22.5452774
21
36.2306375
0
LINE
8
DEFAULT_255_2_778
10
22.5452774
20
36.2306375
11
22.5455774
21
36.2332375
0
LINE
8
DEFAULT_255_2_778
10
22.5455774
20
36.2332375
11
22.5458774
21
36.2343375
0
LINE
8
DEFAULT_255_2_778
10
26.0594774
20
30.1280375
11
22.5458774
21
30.1886375
0
LINE
8
DEFAULT_255_2_778
10
22.3867774
20
30.3487375
11
22.3899774
21
30.3444375
0
LINE
8
DEFAULT_255_2_778
10
22.3899774
20
30.3444375
11
22.3989774
21
30.3402375
0
LINE
8
DEFAULT_255_2_778
10
22.4333774
20
30.3330375
11
22.4849774
21
30.3283375
0
LINE
8
DEFAULT_255_2_778
10
22.4849774
20
30.3283375
11
22.5460774
21
30.3264375
0
LINE
8
DEFAULT_255_2_778
10
22.5460774
20
30.3264375
11
22.5452774
21
30.2725375
0
LINE
8
DEFAULT_255_2_778
10
22.5452774
20
30.2725375
11
22.5450774
21
30.2486375
0
LINE
8
DEFAULT_255_2_778
10
22.5450774
20
30.2486375
11
22.5450774
21
30.2280375
0
LINE
8
DEFAULT_255_2_778
10
22.5450774
20
30.2280375
11
22.5450774
21
30.2113375
0
LINE
8
DEFAULT_255_2_778
10
22.5450774
20
30.2113375
11
22.5452774
21
30.1989375
0
LINE
8
DEFAULT_255_2_778
10
22.5452774
20
30.1989375
11
22.5455774
21
30.1912375
0
LINE
8
DEFAULT_255_2_778
10
22.5455774
20
30.1912375
11
22.5458774
21
30.1886375
0
LINE
8
DEFAULT_255_2_778
10
22.5458774
20
32.3129375
11
25.9004774
21
32.2550375
0
LINE
8
DEFAULT_255_2_778
10
26.0594774
20
34.1920375
11
22.5458774
21
34.2526375
0
LINE
8
DEFAULT_255_2_778
10
22.3867774
20
34.4127375
11
22.3899774
21
34.4084375
0
LINE
8
DEFAULT_255_2_778
10
22.3899774
20
34.4084375
11
22.3989774
21
34.4042375
0
LINE
8
DEFAULT_255_2_778
10
22.4333774
20
34.3970375
11
22.4849774
21
34.3923375
0
LINE
8
DEFAULT_255_2_778
10
22.4849774
20
34.3923375
11
22.5460774
21
34.3904375
0
LINE
8
DEFAULT_255_2_778
10
22.5460774
20
34.3904375
11
22.5452774
21
34.3365375
0
LINE
8
DEFAULT_255_2_778
10
22.5452774
20
34.3365375
11
22.5450774
21
34.3126375
0
LINE
8
DEFAULT_255_2_778
10
22.5450774
20
34.3126375
11
22.5450774
21
34.2920375
0
LINE
8
DEFAULT_255_2_778
10
22.5450774
20
34.2920375
11
22.5450774
21
34.2753375
0
LINE
8
DEFAULT_255_2_778
10
22.5450774
20
34.2753375
11
22.5452774
21
34.2629375
0
LINE
8
DEFAULT_255_2_778
10
22.5452774
20
34.2629375
11
22.5455774
21
34.2552375
0
LINE
8
DEFAULT_255_2_778
10
22.5455774
20
34.2552375
11
22.5458774
21
34.2526375
0
LINE
8
DEFAULT_255_2_778
10
22.7913774
20
25.9396375
11
22.7913774
21
26.1203375
0
LINE
8
DEFAULT_255_2_778
10
25.8959774
20
25.9923375
11
25.6549774
21
25.9904375
0
LINE
8
DEFAULT_255_2_778
10
26.0594774
20
24.1029375
11
22.5458774
21
24.0423375
0
LINE
8
DEFAULT_255_2_778
10
22.3867774
20
23.8822375
11
22.3899774
21
23.8780375
0
LINE
8
DEFAULT_255_2_778
10
22.3899774
20
23.8780375
11
22.3989774
21
23.8738375
0
LINE
8
DEFAULT_255_2_778
10
22.4333774
20
23.8666375
11
22.4849774
21
23.8619375
0
LINE
8
DEFAULT_255_2_778
10
22.4849774
20
23.8619375
11
22.5460774
21
23.8600375
0
LINE
8
DEFAULT_255_2_778
10
22.5460774
20
23.8600375
11
22.5450774
21
23.9277375
0
LINE
8
DEFAULT_255_2_778
10
22.5450774
20
23.9277375
11
22.5447774
21
23.9592375
0
LINE
8
DEFAULT_255_2_778
10
22.5447774
20
23.9592375
11
22.5447774
21
23.9873375
0
LINE
8
DEFAULT_255_2_778
10
22.5447774
20
23.9873375
11
22.5447774
21
24.0106375
0
LINE
8
DEFAULT_255_2_778
10
22.5447774
20
24.0106375
11
22.5450774
21
24.0280375
0
LINE
8
DEFAULT_255_2_778
10
22.5450774
20
24.0280375
11
22.5452774
21
24.0344375
0
LINE
8
DEFAULT_255_2_778
10
22.5452774
20
24.0344375
11
22.5455774
21
24.0389375
0
LINE
8
DEFAULT_255_2_778
10
22.5455774
20
24.0389375
11
22.5458774
21
24.0415375
0
LINE
8
DEFAULT_255_2_778
10
22.5458774
20
24.0415375
11
22.5460774
21
24.0426375
0
LINE
8
DEFAULT_255_2_778
10
22.7916774
20
30.0042375
11
22.7916774
21
30.1849375
0
LINE
8
DEFAULT_255_2_778
10
25.8962774
20
30.0568375
11
25.6552774
21
30.0550375
0
LINE
8
DEFAULT_255_2_778
10
26.0597774
20
28.1674375
11
22.5460774
21
28.1068375
0
LINE
8
DEFAULT_255_2_778
10
22.3870774
20
27.9468375
11
22.3902774
21
27.9425375
0
LINE
8
DEFAULT_255_2_778
10
22.3902774
20
27.9425375
11
22.3992774
21
27.9383375
0
LINE
8
DEFAULT_255_2_778
10
22.4336774
20
27.9312375
11
22.4852774
21
27.9264375
0
LINE
8
DEFAULT_255_2_778
10
22.4852774
20
27.9264375
11
22.5463774
21
27.9245375
0
LINE
8
DEFAULT_255_2_778
10
22.5463774
20
27.9245375
11
22.5452774
21
27.9923375
0
LINE
8
DEFAULT_255_2_778
10
22.5452774
20
27.9923375
11
22.5450774
21
28.0238375
0
LINE
8
DEFAULT_255_2_778
10
22.5450774
20
28.0238375
11
22.5450774
21
28.0518375
0
LINE
8
DEFAULT_255_2_778
10
22.5450774
20
28.0518375
11
22.5450774
21
28.0751375
0
LINE
8
DEFAULT_255_2_778
10
22.5450774
20
28.0751375
11
22.5452774
21
28.0926375
0
LINE
8
DEFAULT_255_2_778
10
22.5452774
20
28.0926375
11
22.5455774
21
28.0989375
0
LINE
8
DEFAULT_255_2_778
10
22.5455774
20
28.0989375
11
22.5458774
21
28.1034375
0
LINE
8
DEFAULT_255_2_778
10
22.5458774
20
28.1034375
11
22.5460774
21
28.1060375
0
LINE
8
DEFAULT_255_2_778
10
22.5460774
20
28.1060375
11
22.5463774
21
28.1071375
0
LINE
8
DEFAULT_255_2_778
10
26.0600774
20
22.0008375
11
22.5463774
21
22.0614375
0
LINE
8
DEFAULT_255_2_778
10
22.3873774
20
22.2215375
11
22.3905774
21
22.2172375
0
LINE
8
DEFAULT_255_2_778
10
22.3905774
20
22.2172375
11
22.3995774
21
22.2130375
0
LINE
8
DEFAULT_255_2_778
10
22.4339774
20
22.2058375
11
22.4854774
21
22.2011375
0
LINE
8
DEFAULT_255_2_778
10
22.4854774
20
22.2011375
11
22.5466774
21
22.1992375
0
LINE
8
DEFAULT_255_2_778
10
22.5466774
20
22.1992375
11
22.5458774
21
22.1452375
0
LINE
8
DEFAULT_255_2_778
10
22.5458774
20
22.1452375
11
22.5455774
21
22.1214375
0
LINE
8
DEFAULT_255_2_778
10
22.5455774
20
22.1214375
11
22.5455774
21
22.1008375
0
LINE
8
DEFAULT_255_2_778
10
22.5455774
20
22.1008375
11
22.5455774
21
22.0841375
0
LINE
8
DEFAULT_255_2_778
10
22.5455774
20
22.0841375
11
22.5458774
21
22.0717375
0
LINE
8
DEFAULT_255_2_778
10
22.5458774
20
22.0717375
11
22.5460774
21
22.0640375
0
LINE
8
DEFAULT_255_2_778
10
22.5460774
20
22.0640375
11
22.5463774
21
22.0614375
0
LINE
8
DEFAULT_255_2_778
10
26.0600774
20
26.0648375
11
22.5463774
21
26.1254375
0
LINE
8
DEFAULT_255_2_778
10
22.3873774
20
26.2854375
11
22.3905774
21
26.2812375
0
LINE
8
DEFAULT_255_2_778
10
22.3905774
20
26.2812375
11
22.3995774
21
26.2770375
0
LINE
8
DEFAULT_255_2_778
10
22.4339774
20
26.2698375
11
22.4854774
21
26.2651375
0
LINE
8
DEFAULT_255_2_778
10
22.4854774
20
26.2651375
11
22.5466774
21
26.2632375
0
LINE
8
DEFAULT_255_2_778
10
22.5466774
20
26.2632375
11
22.5458774
21
26.2092375
0
LINE
8
DEFAULT_255_2_778
10
22.5458774
20
26.2092375
11
22.5455774
21
26.1854375
0
LINE
8
DEFAULT_255_2_778
10
22.5455774
20
26.1854375
11
22.5455774
21
26.1648375
0
LINE
8
DEFAULT_255_2_778
10
22.5455774
20
26.1648375
11
22.5455774
21
26.1481375
0
LINE
8
DEFAULT_255_2_778
10
22.5455774
20
26.1481375
11
22.5458774
21
26.1357375
0
LINE
8
DEFAULT_255_2_778
10
22.5458774
20
26.1357375
11
22.5460774
21
26.1280375
0
LINE
8
DEFAULT_255_2_778
10
22.5460774
20
26.1280375
11
22.5463774
21
26.1254375
0
LINE
8
DEFAULT_255_2_778
10
22.7918774
20
50.3247375
11
22.7918774
21
50.5054375
0
LINE
8
DEFAULT_255_2_778
10
25.8964774
20
50.3773375
11
25.6554774
21
50.3755375
0
LINE
8
DEFAULT_255_2_778
10
26.0600774
20
48.4880375
11
22.5463774
21
48.4274375
0
LINE
8
DEFAULT_255_2_778
10
22.3873774
20
48.2673375
11
22.3905774
21
48.2631375
0
LINE
8
DEFAULT_255_2_778
10
22.3905774
20
48.2631375
11
22.3995774
21
48.2588375
0
LINE
8
DEFAULT_255_2_778
10
22.4339774
20
48.2517375
11
22.4854774
21
48.2469375
0
LINE
8
DEFAULT_255_2_778
10
22.4854774
20
48.2469375
11
22.5466774
21
48.2451375
0
LINE
8
DEFAULT_255_2_778
10
22.5466774
20
48.2451375
11
22.5455774
21
48.3128375
0
LINE
8
DEFAULT_255_2_778
10
22.5455774
20
48.3128375
11
22.5452774
21
48.3443375
0
LINE
8
DEFAULT_255_2_778
10
22.5452774
20
48.3443375
11
22.5452774
21
48.3723375
0
LINE
8
DEFAULT_255_2_778
10
22.5452774
20
48.3723375
11
22.5452774
21
48.3956375
0
LINE
8
DEFAULT_255_2_778
10
22.5452774
20
48.3956375
11
22.5455774
21
48.4131375
0
LINE
8
DEFAULT_255_2_778
10
22.5455774
20
48.4131375
11
22.5458774
21
48.4194375
0
LINE
8
DEFAULT_255_2_778
10
22.5458774
20
48.4194375
11
22.5460774
21
48.4239375
0
LINE
8
DEFAULT_255_2_778
10
22.5460774
20
48.4239375
11
22.5463774
21
48.4266375
0
LINE
8
DEFAULT_255_2_778
10
22.5463774
20
48.4266375
11
22.5466774
21
48.4276375
0
LINE
8
DEFAULT_255_2_778
10
22.7921774
20
46.2610375
11
22.7921774
21
46.4417375
0
LINE
8
DEFAULT_255_2_778
10
25.8967774
20
46.3136375
11
25.6557774
21
46.3118375
0
LINE
8
DEFAULT_255_2_778
10
26.0602774
20
44.4242375
11
22.5466774
21
44.3636375
0
LINE
8
DEFAULT_255_2_778
10
22.3875774
20
44.2036375
11
22.3907774
21
44.1993375
0
LINE
8
DEFAULT_255_2_778
10
22.3907774
20
44.1993375
11
22.3997774
21
44.1951375
0
LINE
8
DEFAULT_255_2_778
10
22.4341774
20
44.1879375
11
22.4857774
21
44.1832375
0
LINE
8
DEFAULT_255_2_778
10
22.4857774
20
44.1832375
11
22.5468774
21
44.1813375
0
LINE
8
DEFAULT_255_2_778
10
22.5468774
20
44.1813375
11
22.5458774
21
44.2491375
0
LINE
8
DEFAULT_255_2_778
10
22.5458774
20
44.2491375
11
22.5455774
21
44.2806375
0
LINE
8
DEFAULT_255_2_778
10
22.5455774
20
44.2806375
11
22.5455774
21
44.3086375
0
LINE
8
DEFAULT_255_2_778
10
22.5455774
20
44.3086375
11
22.5455774
21
44.3319375
0
LINE
8
DEFAULT_255_2_778
10
22.5455774
20
44.3319375
11
22.5458774
21
44.3493375
0
LINE
8
DEFAULT_255_2_778
10
22.5458774
20
44.3493375
11
22.5460774
21
44.3557375
0
LINE
8
DEFAULT_255_2_778
10
22.5460774
20
44.3557375
11
22.5463774
21
44.3602375
0
LINE
8
DEFAULT_255_2_778
10
22.5463774
20
44.3602375
11
22.5466774
21
44.3628375
0
LINE
8
DEFAULT_255_2_778
10
22.5466774
20
44.3628375
11
22.5468774
21
44.3639375
0
LINE
8
DEFAULT_255_2_778
10
22.7924774
20
54.3895375
11
22.7924774
21
54.5702375
0
LINE
8
DEFAULT_255_2_778
10
25.8970774
20
54.4421375
11
25.6559774
21
54.4403375
0
LINE
8
DEFAULT_255_2_778
10
26.0605774
20
52.5527375
11
22.5468774
21
52.4922375
0
LINE
8
DEFAULT_255_2_778
10
22.3878774
20
52.3321375
11
22.3910774
21
52.3279375
0
LINE
8
DEFAULT_255_2_778
10
22.3910774
20
52.3279375
11
22.4000774
21
52.3236375
0
LINE
8
DEFAULT_255_2_778
10
22.4344774
20
52.3165375
11
22.4860774
21
52.3117375
0
LINE
8
DEFAULT_255_2_778
10
22.4860774
20
52.3117375
11
22.5471774
21
52.3099375
0
LINE
8
DEFAULT_255_2_778
10
22.5471774
20
52.3099375
11
22.5460774
21
52.3776375
0
LINE
8
DEFAULT_255_2_778
10
22.5460774
20
52.3776375
11
22.5458774
21
52.4091375
0
LINE
8
DEFAULT_255_2_778
10
22.5458774
20
52.4091375
11
22.5458774
21
52.4371375
0
LINE
8
DEFAULT_255_2_778
10
22.5458774
20
52.4371375
11
22.5458774
21
52.4604375
0
LINE
8
DEFAULT_255_2_778
10
22.5458774
20
52.4604375
11
22.5460774
21
52.4779375
0
LINE
8
DEFAULT_255_2_778
10
22.5460774
20
52.4779375
11
22.5463774
21
52.4842375
0
LINE
8
DEFAULT_255_2_778
10
22.5463774
20
52.4842375
11
22.5466774
21
52.4887375
0
LINE
8
DEFAULT_255_2_778
10
22.5466774
20
52.4887375
11
22.5468774
21
52.4914375
0
LINE
8
DEFAULT_255_2_778
10
22.5468774
20
52.4914375
11
22.5471774
21
52.4924375
0
LINE
8
DEFAULT_255_2_778
10
26.0607774
20
46.3861375
11
22.5471774
21
46.4467375
0
LINE
8
DEFAULT_255_2_778
10
22.3881774
20
46.6068375
11
22.3913774
21
46.6025375
0
LINE
8
DEFAULT_255_2_778
10
22.3913774
20
46.6025375
11
22.4002774
21
46.5983375
0
LINE
8
DEFAULT_255_2_778
10
22.4346774
20
46.5912375
11
22.4862774
21
46.5864375
0
LINE
8
DEFAULT_255_2_778
10
22.4862774
20
46.5864375
11
22.5473774
21
46.5845375
0
LINE
8
DEFAULT_255_2_778
10
22.5473774
20
46.5845375
11
22.5466774
21
46.5306375
0
LINE
8
DEFAULT_255_2_778
10
22.5466774
20
46.5306375
11
22.5463774
21
46.5068375
0
LINE
8
DEFAULT_255_2_778
10
22.5463774
20
46.5068375
11
22.5463774
21
46.4861375
0
LINE
8
DEFAULT_255_2_778
10
22.5463774
20
46.4861375
11
22.5463774
21
46.4695375
0
LINE
8
DEFAULT_255_2_778
10
22.5463774
20
46.4695375
11
22.5466774
21
46.4570375
0
LINE
8
DEFAULT_255_2_778
10
22.5466774
20
46.4570375
11
22.5468774
21
46.4493375
0
LINE
8
DEFAULT_255_2_778
10
22.5468774
20
46.4493375
11
22.5471774
21
46.4467375
0
LINE
8
DEFAULT_255_2_778
10
26.0607774
20
50.4501375
11
22.5471774
21
50.5107375
0
LINE
8
DEFAULT_255_2_778
10
22.3881774
20
50.6708375
11
22.3913774
21
50.6665375
0
LINE
8
DEFAULT_255_2_778
10
22.3913774
20
50.6665375
11
22.4002774
21
50.6623375
0
LINE
8
DEFAULT_255_2_778
10
22.4346774
20
50.6552375
11
22.4862774
21
50.6504375
0
LINE
8
DEFAULT_255_2_778
10
22.4862774
20
50.6504375
11
22.5473774
21
50.6486375
0
LINE
8
DEFAULT_255_2_778
10
22.5473774
20
50.6486375
11
22.5466774
21
50.5946375
0
LINE
8
DEFAULT_255_2_778
10
22.5466774
20
50.5946375
11
22.5463774
21
50.5708375
0
LINE
8
DEFAULT_255_2_778
10
22.5463774
20
50.5708375
11
22.5463774
21
50.5501375
0
LINE
8
DEFAULT_255_2_778
10
22.5463774
20
50.5501375
11
22.5463774
21
50.5335375
0
LINE
8
DEFAULT_255_2_778
10
22.5463774
20
50.5335375
11
22.5466774
21
50.5210375
0
LINE
8
DEFAULT_255_2_778
10
22.5466774
20
50.5210375
11
22.5468774
21
50.5133375
0
LINE
8
DEFAULT_255_2_778
10
22.5468774
20
50.5133375
11
22.5471774
21
50.5107375
0
LINE
8
DEFAULT_255_2_778
10
22.7926774
20
42.1975375
11
22.7926774
21
42.3782375
0
LINE
8
DEFAULT_255_2_778
10
25.8972774
20
42.2501375
11
25.6562774
21
42.2483375
0
LINE
8
DEFAULT_255_2_778
10
26.0607774
20
40.3608375
11
22.5471774
21
40.3002375
0
LINE
8
DEFAULT_255_2_778
10
22.3881774
20
40.1401375
11
22.3913774
21
40.1359375
0
LINE
8
DEFAULT_255_2_778
10
22.3913774
20
40.1359375
11
22.4002774
21
40.1316375
0
LINE
8
DEFAULT_255_2_778
10
22.4346774
20
40.1245375
11
22.4862774
21
40.1197375
0
LINE
8
DEFAULT_255_2_778
10
22.4862774
20
40.1197375
11
22.5473774
21
40.1179375
0
LINE
8
DEFAULT_255_2_778
10
22.5473774
20
40.1179375
11
22.5463774
21
40.1856375
0
LINE
8
DEFAULT_255_2_778
10
22.5463774
20
40.1856375
11
22.5460774
21
40.2171375
0
LINE
8
DEFAULT_255_2_778
10
22.5460774
20
40.2171375
11
22.5460774
21
40.2451375
0
LINE
8
DEFAULT_255_2_778
10
22.5460774
20
40.2451375
11
22.5460774
21
40.2684375
0
LINE
8
DEFAULT_255_2_778
10
22.5460774
20
40.2684375
11
22.5463774
21
40.2859375
0
LINE
8
DEFAULT_255_2_778
10
22.5463774
20
40.2859375
11
22.5466774
21
40.2922375
0
LINE
8
DEFAULT_255_2_778
10
22.5466774
20
40.2922375
11
22.5468774
21
40.2967375
0
LINE
8
DEFAULT_255_2_778
10
22.5468774
20
40.2967375
11
22.5471774
21
40.2994375
0
LINE
8
DEFAULT_255_2_778
10
22.5471774
20
40.2994375
11
22.5473774
21
40.3004375
0
LINE
8
DEFAULT_255_2_778
10
26.0610774
20
38.2581375
11
22.5473774
21
38.3187375
0
LINE
8
DEFAULT_255_2_778
10
22.3883774
20
38.4788375
11
22.3915774
21
38.4745375
0
LINE
8
DEFAULT_255_2_778
10
22.3915774
20
38.4745375
11
22.4005774
21
38.4703375
0
LINE
8
DEFAULT_255_2_778
10
22.4349774
20
38.4632375
11
22.4865774
21
38.4584375
0
LINE
8
DEFAULT_255_2_778
10
22.4865774
20
38.4584375
11
22.5476774
21
38.4565375
0
LINE
8
DEFAULT_255_2_778
10
22.5476774
20
38.4565375
11
22.5468774
21
38.4026375
0
LINE
8
DEFAULT_255_2_778
10
22.5468774
20
38.4026375
11
22.5466774
21
38.3788375
0
LINE
8
DEFAULT_255_2_778
10
22.5466774
20
38.3788375
11
22.5466774
21
38.3581375
0
LINE
8
DEFAULT_255_2_778
10
22.5466774
20
38.3581375
11
22.5466774
21
38.3415375
0
LINE
8
DEFAULT_255_2_778
10
22.5466774
20
38.3415375
11
22.5468774
21
38.3290375
0
LINE
8
DEFAULT_255_2_778
10
22.5468774
20
38.3290375
11
22.5471774
21
38.3213375
0
LINE
8
DEFAULT_255_2_778
10
22.5471774
20
38.3213375
11
22.5473774
21
38.3187375
0
LINE
8
DEFAULT_255_2_778
10
26.0610774
20
42.3221375
11
22.5473774
21
42.3827375
0
LINE
8
DEFAULT_255_2_778
10
22.3883774
20
42.5428375
11
22.3915774
21
42.5385375
0
LINE
8
DEFAULT_255_2_778
10
22.3915774
20
42.5385375
11
22.4005774
21
42.5343375
0
LINE
8
DEFAULT_255_2_778
10
22.4349774
20
42.5272375
11
22.4865774
21
42.5224375
0
LINE
8
DEFAULT_255_2_778
10
22.4865774
20
42.5224375
11
22.5476774
21
42.5205375
0
LINE
8
DEFAULT_255_2_778
10
22.5476774
20
42.5205375
11
22.5468774
21
42.4666375
0
LINE
8
DEFAULT_255_2_778
10
22.5468774
20
42.4666375
11
22.5466774
21
42.4428375
0
LINE
8
DEFAULT_255_2_778
10
22.5466774
20
42.4428375
11
22.5466774
21
42.4221375
0
LINE
8
DEFAULT_255_2_778
10
22.5466774
20
42.4221375
11
22.5466774
21
42.4054375
0
LINE
8
DEFAULT_255_2_778
10
22.5466774
20
42.4054375
11
22.5468774
21
42.3930375
0
LINE
8
DEFAULT_255_2_778
10
22.5468774
20
42.3930375
11
22.5471774
21
42.3853375
0
LINE
8
DEFAULT_255_2_778
10
22.5471774
20
42.3853375
11
22.5473774
21
42.3827375
0
LINE
8
DEFAULT_255_2_778
10
22.7929774
20
58.4540375
11
22.7929774
21
58.6347375
0
LINE
8
DEFAULT_255_2_778
10
25.8975774
20
58.5067375
11
25.6565774
21
58.5048375
0
LINE
8
DEFAULT_255_2_778
10
26.0610774
20
56.6173375
11
22.5473774
21
56.5567375
0
LINE
8
DEFAULT_255_2_778
10
22.3883774
20
56.3966375
11
22.3915774
21
56.3924375
0
LINE
8
DEFAULT_255_2_778
10
22.3915774
20
56.3924375
11
22.4005774
21
56.3882375
0
LINE
8
DEFAULT_255_2_778
10
22.4349774
20
56.3810375
11
22.4865774
21
56.3762375
0
LINE
8
DEFAULT_255_2_778
10
22.4865774
20
56.3762375
11
22.5476774
21
56.3744375
0
LINE
8
DEFAULT_255_2_778
10
22.5476774
20
56.3744375
11
22.5466774
21
56.4421375
0
LINE
8
DEFAULT_255_2_778
10
22.5466774
20
56.4421375
11
22.5463774
21
56.4736375
0
LINE
8
DEFAULT_255_2_778
10
22.5463774
20
56.4736375
11
22.5463774
21
56.5017375
0
LINE
8
DEFAULT_255_2_778
10
22.5463774
20
56.5017375
11
22.5463774
21
56.5249375
0
LINE
8
DEFAULT_255_2_778
10
22.5463774
20
56.5249375
11
22.5466774
21
56.5424375
0
LINE
8
DEFAULT_255_2_778
10
22.5466774
20
56.5424375
11
22.5468774
21
56.5488375
0
LINE
8
DEFAULT_255_2_778
10
22.5468774
20
56.5488375
11
22.5471774
21
56.5533375
0
LINE
8
DEFAULT_255_2_778
10
22.5471774
20
56.5533375
11
22.5473774
21
56.5559375
0
LINE
8
DEFAULT_255_2_778
10
22.5473774
20
56.5559375
11
22.5476774
21
56.5570375
0
LINE
8
DEFAULT_255_2_778
10
22.7931774
20
62.5185375
11
22.7931774
21
62.6993375
0
LINE
8
DEFAULT_255_2_778
10
25.8978774
20
62.5712375
11
25.6567774
21
62.5694375
0
LINE
8
DEFAULT_255_2_778
10
26.0613774
20
60.6818375
11
22.5476774
21
60.6212375
0
LINE
8
DEFAULT_255_2_778
10
22.3886774
20
60.4611375
11
22.3918774
21
60.4569375
0
LINE
8
DEFAULT_255_2_778
10
22.3918774
20
60.4569375
11
22.4008774
21
60.4527375
0
LINE
8
DEFAULT_255_2_778
10
22.4352774
20
60.4455375
11
22.4868774
21
60.4408375
0
LINE
8
DEFAULT_255_2_778
10
22.4868774
20
60.4408375
11
22.5479774
21
60.4389375
0
LINE
8
DEFAULT_255_2_778
10
22.5479774
20
60.4389375
11
22.5468774
21
60.5067375
0
LINE
8
DEFAULT_255_2_778
10
22.5468774
20
60.5067375
11
22.5466774
21
60.5381375
0
LINE
8
DEFAULT_255_2_778
10
22.5466774
20
60.5381375
11
22.5466774
21
60.5662375
0
LINE
8
DEFAULT_255_2_778
10
22.5466774
20
60.5662375
11
22.5466774
21
60.5895375
0
LINE
8
DEFAULT_255_2_778
10
22.5466774
20
60.5895375
11
22.5468774
21
60.6069375
0
LINE
8
DEFAULT_255_2_778
10
22.5468774
20
60.6069375
11
22.5471774
21
60.6133375
0
LINE
8
DEFAULT_255_2_778
10
22.5471774
20
60.6133375
11
22.5473774
21
60.6178375
0
LINE
8
DEFAULT_255_2_778
10
22.5473774
20
60.6178375
11
22.5476774
21
60.6204375
0
LINE
8
DEFAULT_255_2_778
10
22.5476774
20
60.6204375
11
22.5479774
21
60.6215375
0
LINE
8
DEFAULT_255_2_778
10
26.0616774
20
54.5152375
11
22.5479774
21
54.5758375
0
LINE
8
DEFAULT_255_2_778
10
22.3889774
20
54.7358375
11
22.3920774
21
54.7316375
0
LINE
8
DEFAULT_255_2_778
10
22.3920774
20
54.7316375
11
22.4010774
21
54.7274375
0
LINE
8
DEFAULT_255_2_778
10
22.4354774
20
54.7202375
11
22.4870774
21
54.7155375
0
LINE
8
DEFAULT_255_2_778
10
22.4870774
20
54.7155375
11
22.5481774
21
54.7136375
0
LINE
8
DEFAULT_255_2_778
10
22.5481774
20
54.7136375
11
22.5473774
21
54.6596375
0
LINE
8
DEFAULT_255_2_778
10
22.5473774
20
54.6596375
11
22.5471774
21
54.6358375
0
LINE
8
DEFAULT_255_2_778
10
22.5471774
20
54.6358375
11
22.5471774
21
54.6152375
0
LINE
8
DEFAULT_255_2_778
10
22.5471774
20
54.6152375
11
22.5471774
21
54.5985375
0
LINE
8
DEFAULT_255_2_778
10
22.5471774
20
54.5985375
11
22.5473774
21
54.5861375
0
LINE
8
DEFAULT_255_2_778
10
22.5473774
20
54.5861375
11
22.5476774
21
54.5784375
0
LINE
8
DEFAULT_255_2_778
10
22.5476774
20
54.5784375
11
22.5479774
21
54.5758375
0
LINE
8
DEFAULT_255_2_778
10
26.0616774
20
58.5792375
11
22.5479774
21
58.6398375
0
LINE
8
DEFAULT_255_2_778
10
22.3889774
20
58.7998375
11
22.3920774
21
58.7956375
0
LINE
8
DEFAULT_255_2_778
10
22.3920774
20
58.7956375
11
22.4010774
21
58.7914375
0
LINE
8
DEFAULT_255_2_778
10
22.4354774
20
58.7842375
11
22.4870774
21
58.7795375
0
LINE
8
DEFAULT_255_2_778
10
22.4870774
20
58.7795375
11
22.5481774
21
58.7776375
0
LINE
8
DEFAULT_255_2_778
10
22.5481774
20
58.7776375
11
22.5473774
21
58.7236375
0
LINE
8
DEFAULT_255_2_778
10
22.5473774
20
58.7236375
11
22.5471774
21
58.6998375
0
LINE
8
DEFAULT_255_2_778
10
22.5471774
20
58.6998375
11
22.5471774
21
58.6792375
0
LINE
8
DEFAULT_255_2_778
10
22.5471774
20
58.6792375
11
22.5471774
21
58.6625375
0
LINE
8
DEFAULT_255_2_778
10
22.5471774
20
58.6625375
11
22.5473774
21
58.6501375
0
LINE
8
DEFAULT_255_2_778
10
22.5473774
20
58.6501375
11
22.5476774
21
58.6424375
0
LINE
8
DEFAULT_255_2_778
10
22.5476774
20
58.6424375
11
22.5479774
21
58.6398375
0
LINE
8
DEFAULT_255_2_778
10
22.7934774
20
66.5828375
11
22.7934774
21
66.7635375
0
LINE
8
DEFAULT_255_2_778
10
25.8980774
20
66.6355375
11
25.6570774
21
66.6336375
0
LINE
8
DEFAULT_255_2_778
10
26.0616774
20
64.7461375
11
22.5479774
21
64.6855375
0
LINE
8
DEFAULT_255_2_778
10
22.3889774
20
64.5254375
11
22.3920774
21
64.5212375
0
LINE
8
DEFAULT_255_2_778
10
22.3920774
20
64.5212375
11
22.4010774
21
64.5169375
0
LINE
8
DEFAULT_255_2_778
10
22.4354774
20
64.5098375
11
22.4870774
21
64.5050375
0
LINE
8
DEFAULT_255_2_778
10
22.4870774
20
64.5050375
11
22.5481774
21
64.5032375
0
LINE
8
DEFAULT_255_2_778
10
22.5481774
20
64.5032375
11
22.5471774
21
64.5709375
0
LINE
8
DEFAULT_255_2_778
10
22.5471774
20
64.5709375
11
22.5468774
21
64.6024375
0
LINE
8
DEFAULT_255_2_778
10
22.5468774
20
64.6024375
11
22.5468774
21
64.6304375
0
LINE
8
DEFAULT_255_2_778
10
22.5468774
20
64.6304375
11
22.5468774
21
64.6537375
0
LINE
8
DEFAULT_255_2_778
10
22.5468774
20
64.6537375
11
22.5471774
21
64.6712375
0
LINE
8
DEFAULT_255_2_778
10
22.5471774
20
64.6712375
11
22.5473774
21
64.6775375
0
LINE
8
DEFAULT_255_2_778
10
22.5473774
20
64.6775375
11
22.5476774
21
64.6820375
0
LINE
8
DEFAULT_255_2_778
10
22.5476774
20
64.6820375
11
22.5479774
21
64.6847375
0
LINE
8
DEFAULT_255_2_778
10
22.5479774
20
64.6847375
11
22.5481774
21
64.6858375
0
LINE
8
DEFAULT_255_2_778
10
22.7937774
20
70.6473375
11
22.7937774
21
70.8281375
0
LINE
8
DEFAULT_255_2_778
10
25.8983774
20
70.7000375
11
25.6573774
21
70.6981375
0
LINE
8
DEFAULT_255_2_778
10
26.0618774
20
68.8106375
11
22.5481774
21
68.7500375
0
LINE
8
DEFAULT_255_2_778
10
22.3891774
20
68.5899375
11
22.3923774
21
68.5857375
0
LINE
8
DEFAULT_255_2_778
10
22.3923774
20
68.5857375
11
22.4013774
21
68.5815375
0
LINE
8
DEFAULT_255_2_778
10
22.4357774
20
68.5743375
11
22.4873774
21
68.5696375
0
LINE
8
DEFAULT_255_2_778
10
22.4873774
20
68.5696375
11
22.5484774
21
68.5677375
0
LINE
8
DEFAULT_255_2_778
10
22.5484774
20
68.5677375
11
22.5473774
21
68.6355375
0
LINE
8
DEFAULT_255_2_778
10
22.5473774
20
68.6355375
11
22.5471774
21
68.6669375
0
LINE
8
DEFAULT_255_2_778
10
22.5471774
20
68.6669375
11
22.5471774
21
68.6950375
0
LINE
8
DEFAULT_255_2_778
10
22.5471774
20
68.6950375
11
22.5471774
21
68.7183375
0
LINE
8
DEFAULT_255_2_778
10
22.5471774
20
68.7183375
11
22.5473774
21
68.7357375
0
LINE
8
DEFAULT_255_2_778
10
22.5473774
20
68.7357375
11
22.5476774
21
68.7421375
0
LINE
8
DEFAULT_255_2_778
10
22.5476774
20
68.7421375
11
22.5479774
21
68.7466375
0
LINE
8
DEFAULT_255_2_778
10
22.5479774
20
68.7466375
11
22.5481774
21
68.7492375
0
LINE
8
DEFAULT_255_2_778
10
22.5481774
20
68.7492375
11
22.5484774
21
68.7503375
0
LINE
8
DEFAULT_255_2_778
10
26.0621774
20
62.6440375
11
22.5484774
21
62.7045375
0
LINE
8
DEFAULT_255_2_778
10
22.3894774
20
62.8646375
11
22.3926774
21
62.8604375
0
LINE
8
DEFAULT_255_2_778
10
22.3926774
20
62.8604375
11
22.4016774
21
62.8562375
0
LINE
8
DEFAULT_255_2_778
10
22.4360774
20
62.8490375
11
22.4875774
21
62.8443375
0
LINE
8
DEFAULT_255_2_778
10
22.4875774
20
62.8443375
11
22.5487774
21
62.8424375
0
LINE
8
DEFAULT_255_2_778
10
22.5487774
20
62.8424375
11
22.5479774
21
62.7884375
0
LINE
8
DEFAULT_255_2_778
10
22.5479774
20
62.7884375
11
22.5476774
21
62.7646375
0
LINE
8
DEFAULT_255_2_778
10
22.5476774
20
62.7646375
11
22.5476774
21
62.7440375
0
LINE
8
DEFAULT_255_2_778
10
22.5476774
20
62.7440375
11
22.5476774
21
62.7273375
0
LINE
8
DEFAULT_255_2_778
10
22.5476774
20
62.7273375
11
22.5479774
21
62.7149375
0
LINE
8
DEFAULT_255_2_778
10
22.5479774
20
62.7149375
11
22.5481774
21
62.7072375
0
LINE
8
DEFAULT_255_2_778
10
22.5481774
20
62.7072375
11
22.5484774
21
62.7045375
0
LINE
8
DEFAULT_255_2_778
10
26.0621774
20
66.7080375
11
22.5484774
21
66.7685375
0
LINE
8
DEFAULT_255_2_778
10
22.3894774
20
66.9286375
11
22.3926774
21
66.9244375
0
LINE
8
DEFAULT_255_2_778
10
22.3926774
20
66.9244375
11
22.4016774
21
66.9202375
0
LINE
8
DEFAULT_255_2_778
10
22.4360774
20
66.9130375
11
22.4875774
21
66.9082375
0
LINE
8
DEFAULT_255_2_778
10
22.4875774
20
66.9082375
11
22.5487774
21
66.9064375
0
LINE
8
DEFAULT_255_2_778
10
22.5487774
20
66.9064375
11
22.5479774
21
66.8524375
0
LINE
8
DEFAULT_255_2_778
10
22.5479774
20
66.8524375
11
22.5476774
21
66.8286375
0
LINE
8
DEFAULT_255_2_778
10
22.5476774
20
66.8286375
11
22.5476774
21
66.8080375
0
LINE
8
DEFAULT_255_2_778
10
22.5476774
20
66.8080375
11
22.5476774
21
66.7913375
0
LINE
8
DEFAULT_255_2_778
10
22.5476774
20
66.7913375
11
22.5479774
21
66.7789375
0
LINE
8
DEFAULT_255_2_778
10
22.5479774
20
66.7789375
11
22.5481774
21
66.7712375
0
LINE
8
DEFAULT_255_2_778
10
22.5481774
20
66.7712375
11
22.5484774
21
66.7685375
0
LINE
8
DEFAULT_255_2_778
10
22.7939774
20
74.7119375
11
22.7939774
21
74.8926375
0
LINE
8
DEFAULT_255_2_778
10
25.8986774
20
74.7645375
11
25.6575774
21
74.7627375
0
LINE
8
DEFAULT_255_2_778
10
26.0621774
20
72.8751375
11
22.5484774
21
72.8145375
0
LINE
8
DEFAULT_255_2_778
10
22.3894774
20
72.6545375
11
22.3926774
21
72.6502375
0
LINE
8
DEFAULT_255_2_778
10
22.3926774
20
72.6502375
11
22.4016774
21
72.6460375
0
LINE
8
DEFAULT_255_2_778
10
22.4360774
20
72.6389375
11
22.4875774
21
72.6341375
0
LINE
8
DEFAULT_255_2_778
10
22.4875774
20
72.6341375
11
22.5487774
21
72.6322375
0
LINE
8
DEFAULT_255_2_778
10
22.5487774
20
72.6322375
11
22.5476774
21
72.7000375
0
LINE
8
DEFAULT_255_2_778
10
22.5476774
20
72.7000375
11
22.5473774
21
72.7315375
0
LINE
8
DEFAULT_255_2_778
10
22.5473774
20
72.7315375
11
22.5473774
21
72.7595375
0
LINE
8
DEFAULT_255_2_778
10
22.5473774
20
72.7595375
11
22.5473774
21
72.7828375
0
LINE
8
DEFAULT_255_2_778
10
22.5473774
20
72.7828375
11
22.5476774
21
72.8003375
0
LINE
8
DEFAULT_255_2_778
10
22.5476774
20
72.8003375
11
22.5479774
21
72.8066375
0
LINE
8
DEFAULT_255_2_778
10
22.5479774
20
72.8066375
11
22.5481774
21
72.8111375
0
LINE
8
DEFAULT_255_2_778
10
22.5481774
20
72.8111375
11
22.5484774
21
72.8138375
0
LINE
8
DEFAULT_255_2_778
10
22.5484774
20
72.8138375
11
22.5487774
21
72.8148375
0
LINE
8
DEFAULT_255_2_778
10
26.0623774
20
70.7725375
11
22.5487774
21
70.8331375
0
LINE
8
DEFAULT_255_2_778
10
22.3897774
20
70.9932375
11
22.3928774
21
70.9889375
0
LINE
8
DEFAULT_255_2_778
10
22.3928774
20
70.9889375
11
22.4018774
21
70.9847375
0
LINE
8
DEFAULT_255_2_778
10
22.4362774
20
70.9775375
11
22.4878774
21
70.9728375
0
LINE
8
DEFAULT_255_2_778
10
22.4878774
20
70.9728375
11
22.5489774
21
70.9709375
0
LINE
8
DEFAULT_255_2_778
10
22.5489774
20
70.9709375
11
22.5481774
21
70.9170375
0
LINE
8
DEFAULT_255_2_778
10
22.5481774
20
70.9170375
11
22.5479774
21
70.8931375
0
LINE
8
DEFAULT_255_2_778
10
22.5479774
20
70.8931375
11
22.5479774
21
70.8725375
0
LINE
8
DEFAULT_255_2_778
10
22.5479774
20
70.8725375
11
22.5479774
21
70.8558375
0
LINE
8
DEFAULT_255_2_778
10
22.5479774
20
70.8558375
11
22.5481774
21
70.8434375
0
LINE
8
DEFAULT_255_2_778
10
22.5481774
20
70.8434375
11
22.5484774
21
70.8357375
0
LINE
8
DEFAULT_255_2_778
10
22.5484774
20
70.8357375
11
22.5487774
21
70.8331375
0
LINE
8
DEFAULT_255_2_778
10
26.0623774
20
74.8365375
11
22.5487774
21
74.8971375
0
LINE
8
DEFAULT_255_2_778
10
22.3897774
20
75.0572375
11
22.3928774
21
75.0529375
0
LINE
8
DEFAULT_255_2_778
10
22.3928774
20
75.0529375
11
22.4018774
21
75.0487375
0
LINE
8
DEFAULT_255_2_778
10
22.4362774
20
75.0415375
11
22.4878774
21
75.0368375
0
LINE
8
DEFAULT_255_2_778
10
22.4878774
20
75.0368375
11
22.5489774
21
75.0349375
0
LINE
8
DEFAULT_255_2_778
10
22.5489774
20
75.0349375
11
22.5481774
21
74.9810375
0
LINE
8
DEFAULT_255_2_778
10
22.5481774
20
74.9810375
11
22.5479774
21
74.9571375
0
LINE
8
DEFAULT_255_2_778
10
22.5479774
20
74.9571375
11
22.5479774
21
74.9365375
0
LINE
8
DEFAULT_255_2_778
10
22.5479774
20
74.9365375
11
22.5479774
21
74.9198375
0
LINE
8
DEFAULT_255_2_778
10
22.5479774
20
74.9198375
11
22.5481774
21
74.9074375
0
LINE
8
DEFAULT_255_2_778
10
22.5481774
20
74.9074375
11
22.5484774
21
74.8997375
0
LINE
8
DEFAULT_255_2_778
10
22.5484774
20
74.8997375
11
22.5487774
21
74.8971375
0
LINE
8
DEFAULT_255_2_778
10
25.2128774
20
17.8571375
11
25.2128774
21
17.9542375
0
LINE
8
DEFAULT_255_2_778
10
25.2128774
20
15.9638375
11
25.2128774
21
16.0143375
0
LINE
8
DEFAULT_255_2_778
10
24.0073774
20
16.0352375
11
24.0073774
21
15.9432375
0
LINE
8
DEFAULT_255_2_778
10
22.7939774
20
15.9222375
11
22.7939774
21
16.0564375
0
LINE
8
DEFAULT_255_2_778
10
25.2128774
20
66.6259375
11
25.2128774
21
66.7230375
0
LINE
8
DEFAULT_255_2_778
10
25.2128774
20
64.7326375
11
25.2128774
21
64.7831375
0
LINE
8
DEFAULT_255_2_778
10
24.0073774
20
64.8040375
11
24.0073774
21
64.7119375
0
LINE
8
DEFAULT_255_2_778
10
22.7939774
20
64.6910375
11
22.7939774
21
64.8252375
0
LINE
8
DEFAULT_255_2_778
10
25.2128774
20
74.7542375
11
25.2128774
21
74.8513375
0
LINE
8
DEFAULT_255_2_778
10
25.2128774
20
72.8608375
11
25.2128774
21
72.9114375
0
LINE
8
DEFAULT_255_2_778
10
24.0073774
20
72.9323375
11
24.0073774
21
72.8402375
0
LINE
8
DEFAULT_255_2_778
10
22.7939774
20
72.8193375
11
22.7939774
21
72.9534375
0
LINE
8
DEFAULT_255_2_778
10
23.1985774
20
68.8823375
11
23.1985774
21
68.7622375
0
LINE
8
DEFAULT_255_2_778
10
23.1985774
20
70.8222375
11
23.1985774
21
70.6555375
0
LINE
8
DEFAULT_255_2_778
10
22.7939774
20
68.7553375
11
22.7939774
21
68.8905375
0
LINE
8
DEFAULT_255_2_778
10
23.1985774
20
5.8265375
11
23.1985774
21
5.6247375
0
LINE
8
DEFAULT_255_2_778
10
22.7939774
20
5.8337375
11
22.7939774
21
5.6178375
0
LINE
8
DEFAULT_255_2_778
10
22.3894774
20
16.6491375
11
22.0415774
21
16.6491375
0
LINE
8
DEFAULT_255_2_778
10
22.7839774
20
5.6175375
11
22.7834774
21
5.6146375
0
LINE
8
DEFAULT_255_2_778
10
22.7834774
20
5.6146375
11
22.7828774
21
5.6061375
0
LINE
8
DEFAULT_255_2_778
10
22.7828774
20
5.6061375
11
22.7826774
21
5.5919375
0
LINE
8
DEFAULT_255_2_778
10
22.7826774
20
5.5919375
11
22.7826774
21
5.5720375
0
LINE
8
DEFAULT_255_2_778
10
22.7826774
20
5.5720375
11
22.7826774
21
5.5469375
0
LINE
8
DEFAULT_255_2_778
10
22.7826774
20
5.5469375
11
22.7826774
21
5.5180375
0
LINE
8
DEFAULT_255_2_778
10
22.7826774
20
5.5180375
11
22.7834774
21
5.4577375
0
LINE
8
DEFAULT_255_2_778
10
22.7834774
20
5.4577375
11
22.7839774
21
5.4355375
0
LINE
8
DEFAULT_255_2_778
10
22.7839774
20
5.4355375
11
22.6310774
21
5.4358375
0
LINE
8
DEFAULT_255_2_778
10
22.6310774
20
5.4358375
11
22.5622774
21
5.4371375
0
LINE
8
DEFAULT_255_2_778
10
22.5622774
20
5.4371375
11
22.5021774
21
5.4392375
0
LINE
8
DEFAULT_255_2_778
10
22.5021774
20
5.4392375
11
22.4529774
21
5.4421375
0
LINE
8
DEFAULT_255_2_778
10
22.4529774
20
5.4421375
11
22.4164774
21
5.4455375
0
LINE
8
DEFAULT_255_2_778
10
22.4164774
20
5.4455375
11
22.3939774
21
5.4495375
0
LINE
8
DEFAULT_255_2_778
10
25.9025774
20
11.9392375
11
22.5479774
21
11.9972375
0
LINE
8
DEFAULT_255_2_778
10
22.3889774
20
12.1572375
11
22.3931774
21
12.1541375
0
LINE
8
DEFAULT_255_2_778
10
22.3931774
20
12.1541375
11
22.4058774
21
12.1506375
0
LINE
8
DEFAULT_255_2_778
10
22.4058774
20
12.1506375
11
22.4267774
21
12.1472375
0
LINE
8
DEFAULT_255_2_778
10
22.4267774
20
12.1472375
11
22.4555774
21
12.1440375
0
LINE
8
DEFAULT_255_2_778
10
22.4555774
20
12.1440375
11
22.5336774
21
12.1384375
0
LINE
8
DEFAULT_255_2_778
10
22.5336774
20
12.1384375
11
22.6339774
21
12.1339375
0
LINE
8
DEFAULT_255_2_778
10
22.6339774
20
12.1339375
11
22.7630774
21
12.1308375
0
LINE
8
DEFAULT_255_2_778
10
22.7630774
20
12.1308375
11
22.7860774
21
12.1305375
0
LINE
8
DEFAULT_255_2_778
10
22.7860774
20
12.1305375
11
22.7852774
21
12.0588375
0
LINE
8
DEFAULT_255_2_778
10
22.7852774
20
12.0588375
11
22.7852774
21
12.0305375
0
LINE
8
DEFAULT_255_2_778
10
22.7852774
20
12.0305375
11
22.7852774
21
12.0096375
0
LINE
8
DEFAULT_255_2_778
10
22.7852774
20
12.0096375
11
22.7855774
21
11.9969375
0
LINE
8
DEFAULT_255_2_778
10
22.7855774
20
11.9969375
11
22.7860774
21
11.9927375
0
LINE
8
DEFAULT_255_2_778
10
25.9023774
20
16.0029375
11
22.5476774
21
16.0609375
0
LINE
8
DEFAULT_255_2_778
10
22.3886774
20
16.2210375
11
22.3928774
21
16.2178375
0
LINE
8
DEFAULT_255_2_778
10
22.3928774
20
16.2178375
11
22.4055774
21
16.2143375
0
LINE
8
DEFAULT_255_2_778
10
22.4055774
20
16.2143375
11
22.4264774
21
16.2109375
0
LINE
8
DEFAULT_255_2_778
10
22.4264774
20
16.2109375
11
22.4553774
21
16.2077375
0
LINE
8
DEFAULT_255_2_778
10
22.4553774
20
16.2077375
11
22.5333774
21
16.2022375
0
LINE
8
DEFAULT_255_2_778
10
22.5333774
20
16.2022375
11
22.6336774
21
16.1977375
0
LINE
8
DEFAULT_255_2_778
10
22.6336774
20
16.1977375
11
22.7627774
21
16.1945375
0
LINE
8
DEFAULT_255_2_778
10
22.7627774
20
16.1945375
11
22.7857774
21
16.1942375
0
LINE
8
DEFAULT_255_2_778
10
22.7857774
20
16.1942375
11
22.7849774
21
16.1225375
0
LINE
8
DEFAULT_255_2_778
10
22.7849774
20
16.1225375
11
22.7849774
21
16.0942375
0
LINE
8
DEFAULT_255_2_778
10
22.7849774
20
16.0942375
11
22.7849774
21
16.0733375
0
LINE
8
DEFAULT_255_2_778
10
22.7849774
20
16.0733375
11
22.7852774
21
16.0606375
0
LINE
8
DEFAULT_255_2_778
10
22.7852774
20
16.0606375
11
22.7857774
21
16.0564375
0
LINE
8
DEFAULT_255_2_778
10
22.7857774
20
21.8793375
11
22.7852774
21
21.8764375
0
LINE
8
DEFAULT_255_2_778
10
22.7852774
20
21.8764375
11
22.7847774
21
21.8680375
0
LINE
8
DEFAULT_255_2_778
10
22.7847774
20
21.8680375
11
22.7844774
21
21.8537375
0
LINE
8
DEFAULT_255_2_778
10
22.7844774
20
21.8537375
11
22.7844774
21
21.8338375
0
LINE
8
DEFAULT_255_2_778
10
22.7844774
20
21.8338375
11
22.7844774
21
21.8087375
0
LINE
8
DEFAULT_255_2_778
10
22.7844774
20
21.8087375
11
22.7847774
21
21.7799375
0
LINE
8
DEFAULT_255_2_778
10
22.7847774
20
21.7799375
11
22.7855774
21
21.7195375
0
LINE
8
DEFAULT_255_2_778
10
22.7855774
20
21.7195375
11
22.7860774
21
21.6973375
0
LINE
8
DEFAULT_255_2_778
10
22.7860774
20
21.6973375
11
22.6331774
21
21.6976375
0
LINE
8
DEFAULT_255_2_778
10
22.6331774
20
21.6976375
11
22.5643774
21
21.6989375
0
LINE
8
DEFAULT_255_2_778
10
22.5643774
20
21.6989375
11
22.5042774
21
21.7010375
0
LINE
8
DEFAULT_255_2_778
10
22.5042774
20
21.7010375
11
22.4550774
21
21.7039375
0
LINE
8
DEFAULT_255_2_778
10
22.4550774
20
21.7039375
11
22.4185774
21
21.7074375
0
LINE
8
DEFAULT_255_2_778
10
22.4185774
20
21.7074375
11
22.3960774
21
21.7113375
0
LINE
8
DEFAULT_255_2_778
10
22.5473774
20
21.8756375
11
25.6565774
21
21.9294375
0
LINE
8
DEFAULT_255_2_778
10
25.6565774
20
21.9294375
11
25.6565774
21
20.0712375
0
LINE
8
DEFAULT_255_2_778
10
22.7857774
20
34.0719375
11
22.7852774
21
34.0690375
0
LINE
8
DEFAULT_255_2_778
10
22.7852774
20
34.0690375
11
22.7847774
21
34.0605375
0
LINE
8
DEFAULT_255_2_778
10
22.7847774
20
34.0605375
11
22.7844774
21
34.0462375
0
LINE
8
DEFAULT_255_2_778
10
22.7844774
20
34.0462375
11
22.7844774
21
34.0264375
0
LINE
8
DEFAULT_255_2_778
10
22.7844774
20
34.0264375
11
22.7844774
21
34.0012375
0
LINE
8
DEFAULT_255_2_778
10
22.7844774
20
34.0012375
11
22.7847774
21
33.9724375
0
LINE
8
DEFAULT_255_2_778
10
22.7847774
20
33.9724375
11
22.7855774
21
33.9121375
0
LINE
8
DEFAULT_255_2_778
10
22.7855774
20
33.9121375
11
22.7860774
21
33.8898375
0
LINE
8
DEFAULT_255_2_778
10
22.7860774
20
33.8898375
11
22.6331774
21
33.8901375
0
LINE
8
DEFAULT_255_2_778
10
22.6331774
20
33.8901375
11
22.5643774
21
33.8914375
0
LINE
8
DEFAULT_255_2_778
10
22.5643774
20
33.8914375
11
22.5042774
21
33.8935375
0
LINE
8
DEFAULT_255_2_778
10
22.5042774
20
33.8935375
11
22.4550774
21
33.8964375
0
LINE
8
DEFAULT_255_2_778
10
22.4550774
20
33.8964375
11
22.4185774
21
33.8999375
0
LINE
8
DEFAULT_255_2_778
10
22.4185774
20
33.8999375
11
22.3960774
21
33.9039375
0
LINE
8
DEFAULT_255_2_778
10
22.5473774
20
34.0682375
11
25.6565774
21
34.1219375
0
LINE
8
DEFAULT_255_2_778
10
25.6565774
20
34.1219375
11
25.6565774
21
32.2637375
0
LINE
8
DEFAULT_255_2_778
10
22.7857774
20
30.0081375
11
22.7852774
21
30.0052375
0
LINE
8
DEFAULT_255_2_778
10
22.7852774
20
30.0052375
11
22.7847774
21
29.9968375
0
LINE
8
DEFAULT_255_2_778
10
22.7847774
20
29.9968375
11
22.7844774
21
29.9825375
0
LINE
8
DEFAULT_255_2_778
10
22.7844774
20
29.9825375
11
22.7844774
21
29.9626375
0
LINE
8
DEFAULT_255_2_778
10
22.7844774
20
29.9626375
11
22.7844774
21
29.9375375
0
LINE
8
DEFAULT_255_2_778
10
22.7844774
20
29.9375375
11
22.7847774
21
29.9087375
0
LINE
8
DEFAULT_255_2_778
10
22.7847774
20
29.9087375
11
22.7855774
21
29.8483375
0
LINE
8
DEFAULT_255_2_778
10
22.7855774
20
29.8483375
11
22.7860774
21
29.8261375
0
LINE
8
DEFAULT_255_2_778
10
22.7860774
20
29.8261375
11
22.6331774
21
29.8264375
0
LINE
8
DEFAULT_255_2_778
10
22.6331774
20
29.8264375
11
22.5643774
21
29.8277375
0
LINE
8
DEFAULT_255_2_778
10
22.5643774
20
29.8277375
11
22.5042774
21
29.8298375
0
LINE
8
DEFAULT_255_2_778
10
22.5042774
20
29.8298375
11
22.4550774
21
29.8327375
0
LINE
8
DEFAULT_255_2_778
10
22.4550774
20
29.8327375
11
22.4185774
21
29.8362375
0
LINE
8
DEFAULT_255_2_778
10
22.4185774
20
29.8362375
11
22.3960774
21
29.8401375
0
LINE
8
DEFAULT_255_2_778
10
22.5473774
20
30.0044375
11
25.6565774
21
30.0581375
0
LINE
8
DEFAULT_255_2_778
10
25.6565774
20
30.0581375
11
25.6565774
21
28.2000375
0
LINE
8
DEFAULT_255_2_778
10
22.7857774
20
25.9444375
11
22.7852774
21
25.9407375
0
LINE
8
DEFAULT_255_2_778
10
22.7852774
20
25.9407375
11
22.7847774
21
25.9301375
0
LINE
8
DEFAULT_255_2_778
10
22.7847774
20
25.9301375
11
22.7844774
21
25.9129375
0
LINE
8
DEFAULT_255_2_778
10
22.7844774
20
25.9129375
11
22.7844774
21
25.8894375
0
LINE
8
DEFAULT_255_2_778
10
22.7844774
20
25.8894375
11
22.7844774
21
25.8600375
0
LINE
8
DEFAULT_255_2_778
10
22.7844774
20
25.8600375
11
22.7847774
21
25.8272375
0
LINE
8
DEFAULT_255_2_778
10
22.7847774
20
25.8272375
11
22.7857774
21
25.7621375
0
LINE
8
DEFAULT_255_2_778
10
22.7857774
20
25.7621375
11
22.6328774
21
25.7621375
0
LINE
8
DEFAULT_255_2_778
10
22.6328774
20
25.7621375
11
22.5640774
21
25.7634375
0
LINE
8
DEFAULT_255_2_778
10
22.5640774
20
25.7634375
11
22.5040774
21
25.7655375
0
LINE
8
DEFAULT_255_2_778
10
22.5040774
20
25.7655375
11
22.4547774
21
25.7684375
0
LINE
8
DEFAULT_255_2_778
10
22.4547774
20
25.7684375
11
22.4182774
21
25.7719375
0
LINE
8
DEFAULT_255_2_778
10
22.4182774
20
25.7719375
11
22.3957774
21
25.7759375
0
LINE
8
DEFAULT_255_2_778
10
22.5471774
20
25.9402375
11
25.6562774
21
25.9939375
0
LINE
8
DEFAULT_255_2_778
10
25.6562774
20
25.9939375
11
25.6562774
21
24.1357375
0
LINE
8
DEFAULT_255_2_778
10
25.9017774
20
28.1955375
11
22.5471774
21
28.2534375
0
LINE
8
DEFAULT_255_2_778
10
22.3881774
20
28.4135375
11
22.3923774
21
28.4103375
0
LINE
8
DEFAULT_255_2_778
10
22.3923774
20
28.4103375
11
22.4050774
21
28.4069375
0
LINE
8
DEFAULT_255_2_778
10
22.4050774
20
28.4069375
11
22.4259774
21
28.4034375
0
LINE
8
DEFAULT_255_2_778
10
22.4259774
20
28.4034375
11
22.4547774
21
28.4003375
0
LINE
8
DEFAULT_255_2_778
10
22.4547774
20
28.4003375
11
22.5328774
21
28.3947375
0
LINE
8
DEFAULT_255_2_778
10
22.5328774
20
28.3947375
11
22.6331774
21
28.3902375
0
LINE
8
DEFAULT_255_2_778
10
22.6331774
20
28.3902375
11
22.7622774
21
28.3870375
0
LINE
8
DEFAULT_255_2_778
10
22.7622774
20
28.3870375
11
22.7852774
21
28.3868375
0
LINE
8
DEFAULT_255_2_778
10
22.7852774
20
28.3868375
11
22.7844774
21
28.3153375
0
LINE
8
DEFAULT_255_2_778
10
22.7844774
20
28.3153375
11
22.7844774
21
28.2870375
0
LINE
8
DEFAULT_255_2_778
10
22.7844774
20
28.2870375
11
22.7844774
21
28.2661375
0
LINE
8
DEFAULT_255_2_778
10
22.7844774
20
28.2661375
11
22.7847774
21
28.2534375
0
LINE
8
DEFAULT_255_2_778
10
22.7847774
20
28.2534375
11
22.7852774
21
28.2492375
0
LINE
8
DEFAULT_255_2_778
10
25.9015774
20
20.0672375
11
22.5468774
21
20.1252375
0
LINE
8
DEFAULT_255_2_778
10
22.3878774
20
20.2852375
11
22.3920774
21
20.2821375
0
LINE
8
DEFAULT_255_2_778
10
22.3920774
20
20.2821375
11
22.4047774
21
20.2786375
0
LINE
8
DEFAULT_255_2_778
10
22.4047774
20
20.2786375
11
22.4256774
21
20.2752375
0
LINE
8
DEFAULT_255_2_778
10
22.4256774
20
20.2752375
11
22.4545774
21
20.2720375
0
LINE
8
DEFAULT_255_2_778
10
22.4545774
20
20.2720375
11
22.5325774
21
20.2664375
0
LINE
8
DEFAULT_255_2_778
10
22.5325774
20
20.2664375
11
22.6328774
21
20.2619375
0
LINE
8
DEFAULT_255_2_778
10
22.6328774
20
20.2619375
11
22.7619774
21
20.2588375
0
LINE
8
DEFAULT_255_2_778
10
22.7619774
20
20.2588375
11
22.7849774
21
20.2585375
0
LINE
8
DEFAULT_255_2_778
10
22.7849774
20
20.2585375
11
22.7842774
21
20.1871375
0
LINE
8
DEFAULT_255_2_778
10
22.7842774
20
20.1871375
11
22.7842774
21
20.1588375
0
LINE
8
DEFAULT_255_2_778
10
22.7842774
20
20.1588375
11
22.7842774
21
20.1379375
0
LINE
8
DEFAULT_255_2_778
10
22.7842774
20
20.1379375
11
22.7844774
21
20.1252375
0
LINE
8
DEFAULT_255_2_778
10
22.7844774
20
20.1252375
11
22.7849774
21
20.1209375
0
LINE
8
DEFAULT_255_2_778
10
25.9012774
20
24.1312375
11
22.5466774
21
24.1892375
0
LINE
8
DEFAULT_255_2_778
10
22.3875774
20
24.3492375
11
22.3918774
21
24.3461375
0
LINE
8
DEFAULT_255_2_778
10
22.3918774
20
24.3461375
11
22.4045774
21
24.3426375
0
LINE
8
DEFAULT_255_2_778
10
22.4045774
20
24.3426375
11
22.4254774
21
24.3392375
0
LINE
8
DEFAULT_255_2_778
10
22.4254774
20
24.3392375
11
22.4542774
21
24.3360375
0
LINE
8
DEFAULT_255_2_778
10
22.4542774
20
24.3360375
11
22.5323774
21
24.3304375
0
LINE
8
DEFAULT_255_2_778
10
22.5323774
20
24.3304375
11
22.6325774
21
24.3259375
0
LINE
8
DEFAULT_255_2_778
10
22.6325774
20
24.3259375
11
22.7617774
21
24.3228375
0
LINE
8
DEFAULT_255_2_778
10
22.7617774
20
24.3228375
11
22.7847774
21
24.3225375
0
LINE
8
DEFAULT_255_2_778
10
22.7847774
20
24.3225375
11
22.7839774
21
24.2508375
0
LINE
8
DEFAULT_255_2_778
10
22.7839774
20
24.2508375
11
22.7839774
21
24.2225375
0
LINE
8
DEFAULT_255_2_778
10
22.7839774
20
24.2225375
11
22.7839774
21
24.2016375
0
LINE
8
DEFAULT_255_2_778
10
22.7839774
20
24.2016375
11
22.7842774
21
24.1889375
0
LINE
8
DEFAULT_255_2_778
10
22.7842774
20
24.1889375
11
22.7847774
21
24.1847375
0
LINE
8
DEFAULT_255_2_778
10
22.7847774
20
38.1359375
11
22.7842774
21
38.1330375
0
LINE
8
DEFAULT_255_2_778
10
22.7842774
20
38.1330375
11
22.7836774
21
38.1245375
0
LINE
8
DEFAULT_255_2_778
10
22.7836774
20
38.1245375
11
22.7834774
21
38.1102375
0
LINE
8
DEFAULT_255_2_778
10
22.7834774
20
38.1102375
11
22.7834774
21
38.0904375
0
LINE
8
DEFAULT_255_2_778
10
22.7834774
20
38.0904375
11
22.7834774
21
38.0652375
0
LINE
8
DEFAULT_255_2_778
10
22.7834774
20
38.0652375
11
22.7836774
21
38.0364375
0
LINE
8
DEFAULT_255_2_778
10
22.7836774
20
38.0364375
11
22.7844774
21
37.9761375
0
LINE
8
DEFAULT_255_2_778
10
22.7844774
20
37.9761375
11
22.7849774
21
37.9538375
0
LINE
8
DEFAULT_255_2_778
10
22.7849774
20
37.9538375
11
22.6320774
21
37.9541375
0
LINE
8
DEFAULT_255_2_778
10
22.6320774
20
37.9541375
11
22.5632774
21
37.9554375
0
LINE
8
DEFAULT_255_2_778
10
22.5632774
20
37.9554375
11
22.5032774
21
37.9575375
0
LINE
8
DEFAULT_255_2_778
10
22.5032774
20
37.9575375
11
22.4540774
21
37.9605375
0
LINE
8
DEFAULT_255_2_778
10
22.4540774
20
37.9605375
11
22.4174774
21
37.9639375
0
LINE
8
DEFAULT_255_2_778
10
22.4174774
20
37.9639375
11
22.3949774
21
37.9679375
0
LINE
8
DEFAULT_255_2_778
10
22.5463774
20
38.1322375
11
25.6554774
21
38.1859375
0
LINE
8
DEFAULT_255_2_778
10
25.6554774
20
38.1859375
11
25.6554774
21
36.3277375
0
LINE
8
DEFAULT_255_2_778
10
22.7847774
20
46.2644375
11
22.7842774
21
46.2615375
0
LINE
8
DEFAULT_255_2_778
10
22.7842774
20
46.2615375
11
22.7836774
21
46.2530375
0
LINE
8
DEFAULT_255_2_778
10
22.7836774
20
46.2530375
11
22.7834774
21
46.2387375
0
LINE
8
DEFAULT_255_2_778
10
22.7834774
20
46.2387375
11
22.7834774
21
46.2189375
0
LINE
8
DEFAULT_255_2_778
10
22.7834774
20
46.2189375
11
22.7834774
21
46.1938375
0
LINE
8
DEFAULT_255_2_778
10
22.7834774
20
46.1938375
11
22.7836774
21
46.1649375
0
LINE
8
DEFAULT_255_2_778
10
22.7836774
20
46.1649375
11
22.7844774
21
46.1046375
0
LINE
8
DEFAULT_255_2_778
10
22.7844774
20
46.1046375
11
22.7849774
21
46.0824375
0
LINE
8
DEFAULT_255_2_778
10
22.7849774
20
46.0824375
11
22.6320774
21
46.0826375
0
LINE
8
DEFAULT_255_2_778
10
22.6320774
20
46.0826375
11
22.5632774
21
46.0840375
0
LINE
8
DEFAULT_255_2_778
10
22.5632774
20
46.0840375
11
22.5032774
21
46.0861375
0
LINE
8
DEFAULT_255_2_778
10
22.5032774
20
46.0861375
11
22.4540774
21
46.0890375
0
LINE
8
DEFAULT_255_2_778
10
22.4540774
20
46.0890375
11
22.4174774
21
46.0924375
0
LINE
8
DEFAULT_255_2_778
10
22.4174774
20
46.0924375
11
22.3949774
21
46.0964375
0
LINE
8
DEFAULT_255_2_778
10
22.5463774
20
46.2607375
11
25.6554774
21
46.3144375
0
LINE
8
DEFAULT_255_2_778
10
25.6554774
20
46.3144375
11
25.6554774
21
44.4562375
0
LINE
8
DEFAULT_255_2_778
10
22.7847774
20
42.2007375
11
22.7842774
21
42.1978375
0
LINE
8
DEFAULT_255_2_778
10
22.7842774
20
42.1978375
11
22.7836774
21
42.1893375
0
LINE
8
DEFAULT_255_2_778
10
22.7836774
20
42.1893375
11
22.7834774
21
42.1750375
0
LINE
8
DEFAULT_255_2_778
10
22.7834774
20
42.1750375
11
22.7834774
21
42.1552375
0
LINE
8
DEFAULT_255_2_778
10
22.7834774
20
42.1552375
11
22.7834774
21
42.1300375
0
LINE
8
DEFAULT_255_2_778
10
22.7834774
20
42.1300375
11
22.7836774
21
42.1012375
0
LINE
8
DEFAULT_255_2_778
10
22.7836774
20
42.1012375
11
22.7844774
21
42.0409375
0
LINE
8
DEFAULT_255_2_778
10
22.7844774
20
42.0409375
11
22.7849774
21
42.0186375
0
LINE
8
DEFAULT_255_2_778
10
22.7849774
20
42.0186375
11
22.6320774
21
42.0186375
0
LINE
8
DEFAULT_255_2_778
10
22.6320774
20
42.0186375
11
22.5632774
21
42.0200375
0
LINE
8
DEFAULT_255_2_778
10
22.5632774
20
42.0200375
11
22.5032774
21
42.0221375
0
LINE
8
DEFAULT_255_2_778
10
22.5032774
20
42.0221375
11
22.4540774
21
42.0250375
0
LINE
8
DEFAULT_255_2_778
10
22.4540774
20
42.0250375
11
22.4174774
21
42.0284375
0
LINE
8
DEFAULT_255_2_778
10
22.4174774
20
42.0284375
11
22.3949774
21
42.0324375
0
LINE
8
DEFAULT_255_2_778
10
22.5463774
20
42.1967375
11
25.6554774
21
42.2504375
0
LINE
8
DEFAULT_255_2_778
10
25.6554774
20
42.2504375
11
25.6554774
21
40.3922375
0
LINE
8
DEFAULT_255_2_778
10
26.0600774
20
76.9677375
11
26.0600774
21
5.6749375
0
LINE
8
DEFAULT_255_2_778
10
22.7826774
20
54.3866375
11
22.7820774
21
54.3837375
0
LINE
8
DEFAULT_255_2_778
10
22.7820774
20
54.3837375
11
22.7815774
21
54.3752375
0
LINE
8
DEFAULT_255_2_778
10
22.7815774
20
54.3752375
11
22.7812774
21
54.3609375
0
LINE
8
DEFAULT_255_2_778
10
22.7812774
20
54.3609375
11
22.7812774
21
54.3411375
0
LINE
8
DEFAULT_255_2_778
10
22.7812774
20
54.3411375
11
22.7812774
21
54.3159375
0
LINE
8
DEFAULT_255_2_778
10
22.7812774
20
54.3159375
11
22.7815774
21
54.2871375
0
LINE
8
DEFAULT_255_2_778
10
22.7815774
20
54.2871375
11
22.7823774
21
54.2268375
0
LINE
8
DEFAULT_255_2_778
10
22.7823774
20
54.2268375
11
22.7828774
21
54.2045375
0
LINE
8
DEFAULT_255_2_778
10
22.7828774
20
54.2045375
11
22.6299774
21
54.2048375
0
LINE
8
DEFAULT_255_2_778
10
22.6299774
20
54.2048375
11
22.5611774
21
54.2061375
0
LINE
8
DEFAULT_255_2_778
10
22.5611774
20
54.2061375
11
22.5010774
21
54.2082375
0
LINE
8
DEFAULT_255_2_778
10
22.5010774
20
54.2082375
11
22.4518774
21
54.2112375
0
LINE
8
DEFAULT_255_2_778
10
22.4518774
20
54.2112375
11
22.4153774
21
54.2146375
0
LINE
8
DEFAULT_255_2_778
10
22.4153774
20
54.2146375
11
22.3928774
21
54.2186375
0
LINE
8
DEFAULT_255_2_778
10
22.5442774
20
54.3829375
11
25.6533774
21
54.4366375
0
LINE
8
DEFAULT_255_2_778
10
25.6533774
20
54.4366375
11
25.6533774
21
52.5784375
0
LINE
8
DEFAULT_255_2_778
10
22.7826774
20
50.3228375
11
22.7820774
21
50.3199375
0
LINE
8
DEFAULT_255_2_778
10
22.7820774
20
50.3199375
11
22.7815774
21
50.3115375
0
LINE
8
DEFAULT_255_2_778
10
22.7815774
20
50.3115375
11
22.7812774
21
50.2972375
0
LINE
8
DEFAULT_255_2_778
10
22.7812774
20
50.2972375
11
22.7812774
21
50.2773375
0
LINE
8
DEFAULT_255_2_778
10
22.7812774
20
50.2773375
11
22.7812774
21
50.2522375
0
LINE
8
DEFAULT_255_2_778
10
22.7812774
20
50.2522375
11
22.7815774
21
50.2234375
0
LINE
8
DEFAULT_255_2_778
10
22.7815774
20
50.2234375
11
22.7823774
21
50.1630375
0
LINE
8
DEFAULT_255_2_778
10
22.7823774
20
50.1630375
11
22.7828774
21
50.1408375
0
LINE
8
DEFAULT_255_2_778
10
22.7828774
20
50.1408375
11
22.6299774
21
50.1411375
0
LINE
8
DEFAULT_255_2_778
10
22.6299774
20
50.1411375
11
22.5611774
21
50.1424375
0
LINE
8
DEFAULT_255_2_778
10
22.5611774
20
50.1424375
11
22.5010774
21
50.1445375
0
LINE
8
DEFAULT_255_2_778
10
22.5010774
20
50.1445375
11
22.4518774
21
50.1474375
0
LINE
8
DEFAULT_255_2_778
10
22.4518774
20
50.1474375
11
22.4153774
21
50.1509375
0
LINE
8
DEFAULT_255_2_778
10
22.4153774
20
50.1509375
11
22.3928774
21
50.1548375
0
LINE
8
DEFAULT_255_2_778
10
22.5442774
20
50.3191375
11
25.6533774
21
50.3728375
0
LINE
8
DEFAULT_255_2_778
10
25.6533774
20
50.3728375
11
25.6533774
21
48.5147375
0
LINE
8
DEFAULT_255_2_778
10
25.8988774
20
48.5104375
11
22.5442774
21
48.5684375
0
LINE
8
DEFAULT_255_2_778
10
22.3852774
20
48.7285375
11
22.3894774
21
48.7253375
0
LINE
8
DEFAULT_255_2_778
10
22.3894774
20
48.7253375
11
22.4021774
21
48.7218375
0
LINE
8
DEFAULT_255_2_778
10
22.4021774
20
48.7218375
11
22.4230774
21
48.7184375
0
LINE
8
DEFAULT_255_2_778
10
22.4230774
20
48.7184375
11
22.4518774
21
48.7152375
0
LINE
8
DEFAULT_255_2_778
10
22.4518774
20
48.7152375
11
22.5299774
21
48.7097375
0
LINE
8
DEFAULT_255_2_778
10
22.5299774
20
48.7097375
11
22.6302774
21
48.7052375
0
LINE
8
DEFAULT_255_2_778
10
22.6302774
20
48.7052375
11
22.7593774
21
48.7020375
0
LINE
8
DEFAULT_255_2_778
10
22.7593774
20
48.7020375
11
22.7823774
21
48.7017375
0
LINE
8
DEFAULT_255_2_778
10
22.7823774
20
48.7017375
11
22.7815774
21
48.6303375
0
LINE
8
DEFAULT_255_2_778
10
22.7815774
20
48.6303375
11
22.7815774
21
48.6020375
0
LINE
8
DEFAULT_255_2_778
10
22.7815774
20
48.6020375
11
22.7815774
21
48.5811375
0
LINE
8
DEFAULT_255_2_778
10
22.7815774
20
48.5811375
11
22.7818774
21
48.5684375
0
LINE
8
DEFAULT_255_2_778
10
22.7818774
20
48.5684375
11
22.7823774
21
48.5642375
0
LINE
8
DEFAULT_255_2_778
10
25.8986774
20
44.4462375
11
22.5439774
21
44.5041375
0
LINE
8
DEFAULT_255_2_778
10
22.3849774
20
44.6642375
11
22.3891774
21
44.6610375
0
LINE
8
DEFAULT_255_2_778
10
22.3891774
20
44.6610375
11
22.4018774
21
44.6576375
0
LINE
8
DEFAULT_255_2_778
10
22.4018774
20
44.6576375
11
22.4227774
21
44.6541375
0
LINE
8
DEFAULT_255_2_778
10
22.4227774
20
44.6541375
11
22.4516774
21
44.6510375
0
LINE
8
DEFAULT_255_2_778
10
22.4516774
20
44.6510375
11
22.5296774
21
44.6454375
0
LINE
8
DEFAULT_255_2_778
10
22.5296774
20
44.6454375
11
22.6299774
21
44.6409375
0
LINE
8
DEFAULT_255_2_778
10
22.6299774
20
44.6409375
11
22.7590774
21
44.6377375
0
LINE
8
DEFAULT_255_2_778
10
22.7590774
20
44.6377375
11
22.7820774
21
44.6375375
0
LINE
8
DEFAULT_255_2_778
10
22.7820774
20
44.6375375
11
22.7812774
21
44.5660375
0
LINE
8
DEFAULT_255_2_778
10
22.7812774
20
44.5660375
11
22.7812774
21
44.5377375
0
LINE
8
DEFAULT_255_2_778
10
22.7812774
20
44.5377375
11
22.7812774
21
44.5168375
0
LINE
8
DEFAULT_255_2_778
10
22.7812774
20
44.5168375
11
22.7815774
21
44.5041375
0
LINE
8
DEFAULT_255_2_778
10
22.7815774
20
44.5041375
11
22.7820774
21
44.4999375
0
LINE
8
DEFAULT_255_2_778
10
25.8983774
20
36.3179375
11
22.5436774
21
36.3759375
0
LINE
8
DEFAULT_255_2_778
10
22.3846774
20
36.5359375
11
22.3889774
21
36.5328375
0
LINE
8
DEFAULT_255_2_778
10
22.3889774
20
36.5328375
11
22.4016774
21
36.5293375
0
LINE
8
DEFAULT_255_2_778
10
22.4016774
20
36.5293375
11
22.4225774
21
36.5259375
0
LINE
8
DEFAULT_255_2_778
10
22.4225774
20
36.5259375
11
22.4513774
21
36.5227375
0
LINE
8
DEFAULT_255_2_778
10
22.4513774
20
36.5227375
11
22.5294774
21
36.5171375
0
LINE
8
DEFAULT_255_2_778
10
22.5294774
20
36.5171375
11
22.6296774
21
36.5126375
0
LINE
8
DEFAULT_255_2_778
10
22.6296774
20
36.5126375
11
22.7588774
21
36.5095375
0
LINE
8
DEFAULT_255_2_778
10
22.7588774
20
36.5095375
11
22.7818774
21
36.5092375
0
LINE
8
DEFAULT_255_2_778
10
22.7818774
20
36.5092375
11
22.7810774
21
36.4378375
0
LINE
8
DEFAULT_255_2_778
10
22.7810774
20
36.4378375
11
22.7810774
21
36.4095375
0
LINE
8
DEFAULT_255_2_778
10
22.7810774
20
36.4095375
11
22.7810774
21
36.3886375
0
LINE
8
DEFAULT_255_2_778
10
22.7810774
20
36.3886375
11
22.7812774
21
36.3759375
0
LINE
8
DEFAULT_255_2_778
10
22.7812774
20
36.3759375
11
22.7818774
21
36.3716375
0
LINE
8
DEFAULT_255_2_778
10
25.8980774
20
40.3819375
11
22.5434774
21
40.4399375
0
LINE
8
DEFAULT_255_2_778
10
22.3844774
20
40.5999375
11
22.3886774
21
40.5968375
0
LINE
8
DEFAULT_255_2_778
10
22.3886774
20
40.5968375
11
22.4013774
21
40.5933375
0
LINE
8
DEFAULT_255_2_778
10
22.4013774
20
40.5933375
11
22.4222774
21
40.5899375
0
LINE
8
DEFAULT_255_2_778
10
22.4222774
20
40.5899375
11
22.4511774
21
40.5867375
0
LINE
8
DEFAULT_255_2_778
10
22.4511774
20
40.5867375
11
22.5291774
21
40.5812375
0
LINE
8
DEFAULT_255_2_778
10
22.5291774
20
40.5812375
11
22.6294774
21
40.5767375
0
LINE
8
DEFAULT_255_2_778
10
22.6294774
20
40.5767375
11
22.7585774
21
40.5735375
0
LINE
8
DEFAULT_255_2_778
10
22.7585774
20
40.5735375
11
22.7815774
21
40.5732375
0
LINE
8
DEFAULT_255_2_778
10
22.7815774
20
40.5732375
11
22.7807774
21
40.5018375
0
LINE
8
DEFAULT_255_2_778
10
22.7807774
20
40.5018375
11
22.7807774
21
40.4735375
0
LINE
8
DEFAULT_255_2_778
10
22.7807774
20
40.4735375
11
22.7807774
21
40.4526375
0
LINE
8
DEFAULT_255_2_778
10
22.7807774
20
40.4526375
11
22.7810774
21
40.4399375
0
LINE
8
DEFAULT_255_2_778
10
22.7810774
20
40.4399375
11
22.7815774
21
40.4356375
0
LINE
8
DEFAULT_255_2_778
10
22.3841774
20
32.4717375
11
22.3883774
21
32.4685375
0
LINE
8
DEFAULT_255_2_778
10
22.3883774
20
32.4685375
11
22.4010774
21
32.4651375
0
LINE
8
DEFAULT_255_2_778
10
22.4010774
20
32.4651375
11
22.4219774
21
32.4616375
0
LINE
8
DEFAULT_255_2_778
10
22.4219774
20
32.4616375
11
22.4508774
21
32.4584375
0
LINE
8
DEFAULT_255_2_778
10
22.4508774
20
32.4584375
11
22.5288774
21
32.4529375
0
LINE
8
DEFAULT_255_2_778
10
22.5288774
20
32.4529375
11
22.6291774
21
32.4484375
0
LINE
8
DEFAULT_255_2_778
10
22.6291774
20
32.4484375
11
22.7582774
21
32.4452375
0
LINE
8
DEFAULT_255_2_778
10
22.7582774
20
32.4452375
11
22.7812774
21
32.4449375
0
LINE
8
DEFAULT_255_2_778
10
22.7812774
20
32.4449375
11
22.7805774
21
32.3735375
0
LINE
8
DEFAULT_255_2_778
10
22.7805774
20
32.3735375
11
22.7805774
21
32.3452375
0
LINE
8
DEFAULT_255_2_778
10
22.7805774
20
32.3452375
11
22.7805774
21
32.3243375
0
LINE
8
DEFAULT_255_2_778
10
22.7805774
20
32.3243375
11
22.7807774
21
32.3116375
0
LINE
8
DEFAULT_255_2_778
10
22.7807774
20
32.3116375
11
22.7812774
21
32.3074375
0
LINE
8
DEFAULT_255_2_778
10
22.7812774
20
66.5788375
11
22.7807774
21
66.5759375
0
LINE
8
DEFAULT_255_2_778
10
22.7807774
20
66.5759375
11
22.7802774
21
66.5675375
0
LINE
8
DEFAULT_255_2_778
10
22.7802774
20
66.5675375
11
22.7799774
21
66.5532375
0
LINE
8
DEFAULT_255_2_778
10
22.7799774
20
66.5532375
11
22.7799774
21
66.5333375
0
LINE
8
DEFAULT_255_2_778
10
22.7799774
20
66.5333375
11
22.7799774
21
66.5082375
0
LINE
8
DEFAULT_255_2_778
10
22.7799774
20
66.5082375
11
22.7802774
21
66.4794375
0
LINE
8
DEFAULT_255_2_778
10
22.7802774
20
66.4794375
11
22.7810774
21
66.4190375
0
LINE
8
DEFAULT_255_2_778
10
22.7810774
20
66.4190375
11
22.7815774
21
66.3968375
0
LINE
8
DEFAULT_255_2_778
10
22.7815774
20
66.3968375
11
22.6286774
21
66.3971375
0
LINE
8
DEFAULT_255_2_778
10
22.6286774
20
66.3971375
11
22.5598774
21
66.3984375
0
LINE
8
DEFAULT_255_2_778
10
22.5598774
20
66.3984375
11
22.4997774
21
66.4005375
0
LINE
8
DEFAULT_255_2_778
10
22.4997774
20
66.4005375
11
22.4505774
21
66.4034375
0
LINE
8
DEFAULT_255_2_778
10
22.4505774
20
66.4034375
11
22.4140774
21
66.4069375
0
LINE
8
DEFAULT_255_2_778
10
22.4140774
20
66.4069375
11
22.3915774
21
66.4108375
0
LINE
8
DEFAULT_255_2_778
10
22.5429774
20
66.5751375
11
25.6520774
21
66.6288375
0
LINE
8
DEFAULT_255_2_778
10
25.6520774
20
66.6288375
11
25.6520774
21
64.7707375
0
LINE
8
DEFAULT_255_2_778
10
22.7812774
20
62.5151375
11
22.7807774
21
62.5122375
0
LINE
8
DEFAULT_255_2_778
10
22.7807774
20
62.5122375
11
22.7802774
21
62.5037375
0
LINE
8
DEFAULT_255_2_778
10
22.7802774
20
62.5037375
11
22.7799774
21
62.4894375
0
LINE
8
DEFAULT_255_2_778
10
22.7799774
20
62.4894375
11
22.7799774
21
62.4696375
0
LINE
8
DEFAULT_255_2_778
10
22.7799774
20
62.4696375
11
22.7799774
21
62.4445375
0
LINE
8
DEFAULT_255_2_778
10
22.7799774
20
62.4445375
11
22.7802774
21
62.4156375
0
LINE
8
DEFAULT_255_2_778
10
22.7802774
20
62.4156375
11
22.7810774
21
62.3553375
0
LINE
8
DEFAULT_255_2_778
10
22.7810774
20
62.3553375
11
22.7815774
21
62.3331375
0
LINE
8
DEFAULT_255_2_778
10
22.7815774
20
62.3331375
11
22.6286774
21
62.3331375
0
LINE
8
DEFAULT_255_2_778
10
22.6286774
20
62.3331375
11
22.5598774
21
62.3344375
0
LINE
8
DEFAULT_255_2_778
10
22.5598774
20
62.3344375
11
22.4997774
21
62.3365375
0
LINE
8
DEFAULT_255_2_778
10
22.4997774
20
62.3365375
11
22.4505774
21
62.3394375
0
LINE
8
DEFAULT_255_2_778
10
22.4505774
20
62.3394375
11
22.4140774
21
62.3429375
0
LINE
8
DEFAULT_255_2_778
10
22.4140774
20
62.3429375
11
22.3915774
21
62.3468375
0
LINE
8
DEFAULT_255_2_778
10
22.5429774
20
62.5111375
11
25.6520774
21
62.5648375
0
LINE
8
DEFAULT_255_2_778
10
25.6520774
20
62.5648375
11
25.6520774
21
60.7067375
0
LINE
8
DEFAULT_255_2_778
10
22.7812774
20
58.4511375
11
22.7807774
21
58.4474375
0
LINE
8
DEFAULT_255_2_778
10
22.7807774
20
58.4474375
11
22.7802774
21
58.4368375
0
LINE
8
DEFAULT_255_2_778
10
22.7802774
20
58.4368375
11
22.7799774
21
58.4196375
0
LINE
8
DEFAULT_255_2_778
10
22.7799774
20
58.4196375
11
22.7799774
21
58.3961375
0
LINE
8
DEFAULT_255_2_778
10
22.7799774
20
58.3961375
11
22.7799774
21
58.3667375
0
LINE
8
DEFAULT_255_2_778
10
22.7799774
20
58.3667375
11
22.7802774
21
58.3339375
0
LINE
8
DEFAULT_255_2_778
10
22.7802774
20
58.3339375
11
22.7812774
21
58.2688375
0
LINE
8
DEFAULT_255_2_778
10
22.7812774
20
58.2688375
11
22.6283774
21
58.2691375
0
LINE
8
DEFAULT_255_2_778
10
22.6283774
20
58.2691375
11
22.5595774
21
58.2704375
0
LINE
8
DEFAULT_255_2_778
10
22.5595774
20
58.2704375
11
22.4995774
21
58.2725375
0
LINE
8
DEFAULT_255_2_778
10
22.4995774
20
58.2725375
11
22.4502774
21
58.2754375
0
LINE
8
DEFAULT_255_2_778
10
22.4502774
20
58.2754375
11
22.4137774
21
58.2789375
0
LINE
8
DEFAULT_255_2_778
10
22.4137774
20
58.2789375
11
22.3913774
21
58.2828375
0
LINE
8
DEFAULT_255_2_778
10
22.5426774
20
58.4471375
11
25.6517774
21
58.5008375
0
LINE
8
DEFAULT_255_2_778
10
25.6517774
20
58.5008375
11
25.6517774
21
56.6427375
0
LINE
8
DEFAULT_255_2_778
10
25.8972774
20
52.5745375
11
22.5426774
21
52.6324375
0
LINE
8
DEFAULT_255_2_778
10
22.3836774
20
52.7925375
11
22.3878774
21
52.7893375
0
LINE
8
DEFAULT_255_2_778
10
22.3878774
20
52.7893375
11
22.4005774
21
52.7858375
0
LINE
8
DEFAULT_255_2_778
10
22.4005774
20
52.7858375
11
22.4214774
21
52.7824375
0
LINE
8
DEFAULT_255_2_778
10
22.4214774
20
52.7824375
11
22.4502774
21
52.7792375
0
LINE
8
DEFAULT_255_2_778
10
22.4502774
20
52.7792375
11
22.5283774
21
52.7737375
0
LINE
8
DEFAULT_255_2_778
10
22.5283774
20
52.7737375
11
22.6286774
21
52.7692375
0
LINE
8
DEFAULT_255_2_778
10
22.6286774
20
52.7692375
11
22.7577774
21
52.7660375
0
LINE
8
DEFAULT_255_2_778
10
22.7577774
20
52.7660375
11
22.7807774
21
52.7657375
0
LINE
8
DEFAULT_255_2_778
10
22.7807774
20
52.7657375
11
22.7799774
21
52.6943375
0
LINE
8
DEFAULT_255_2_778
10
22.7799774
20
52.6943375
11
22.7799774
21
52.6660375
0
LINE
8
DEFAULT_255_2_778
10
22.7799774
20
52.6660375
11
22.7799774
21
52.6451375
0
LINE
8
DEFAULT_255_2_778
10
22.7799774
20
52.6451375
11
22.7802774
21
52.6324375
0
LINE
8
DEFAULT_255_2_778
10
22.7802774
20
52.6324375
11
22.7807774
21
52.6282375
0
LINE
8
DEFAULT_255_2_778
10
25.8970774
20
56.6384375
11
22.5423774
21
56.6964375
0
LINE
8
DEFAULT_255_2_778
10
22.3833774
20
56.8565375
11
22.3875774
21
56.8533375
0
LINE
8
DEFAULT_255_2_778
10
22.3875774
20
56.8533375
11
22.4002774
21
56.8499375
0
LINE
8
DEFAULT_255_2_778
10
22.4002774
20
56.8499375
11
22.4211774
21
56.8464375
0
LINE
8
DEFAULT_255_2_778
10
22.4211774
20
56.8464375
11
22.4500774
21
56.8432375
0
LINE
8
DEFAULT_255_2_778
10
22.4500774
20
56.8432375
11
22.5280774
21
56.8377375
0
LINE
8
DEFAULT_255_2_778
10
22.5280774
20
56.8377375
11
22.6283774
21
56.8332375
0
LINE
8
DEFAULT_255_2_778
10
22.6283774
20
56.8332375
11
22.7574774
21
56.8300375
0
LINE
8
DEFAULT_255_2_778
10
22.7574774
20
56.8300375
11
22.7805774
21
56.8297375
0
LINE
8
DEFAULT_255_2_778
10
22.7805774
20
56.8297375
11
22.7796774
21
56.7580375
0
LINE
8
DEFAULT_255_2_778
10
22.7796774
20
56.7580375
11
22.7796774
21
56.7297375
0
LINE
8
DEFAULT_255_2_778
10
22.7796774
20
56.7297375
11
22.7796774
21
56.7088375
0
LINE
8
DEFAULT_255_2_778
10
22.7796774
20
56.7088375
11
22.7799774
21
56.6961375
0
LINE
8
DEFAULT_255_2_778
10
22.7799774
20
56.6961375
11
22.7805774
21
56.6919375
0
LINE
8
DEFAULT_255_2_778
10
25.8967774
20
60.7022375
11
22.5421774
21
60.7601375
0
LINE
8
DEFAULT_255_2_778
10
22.3830774
20
60.9202375
11
22.3873774
21
60.9170375
0
LINE
8
DEFAULT_255_2_778
10
22.3873774
20
60.9170375
11
22.4000774
21
60.9136375
0
LINE
8
DEFAULT_255_2_778
10
22.4000774
20
60.9136375
11
22.4209774
21
60.9102375
0
LINE
8
DEFAULT_255_2_778
10
22.4209774
20
60.9102375
11
22.4497774
21
60.9070375
0
LINE
8
DEFAULT_255_2_778
10
22.4497774
20
60.9070375
11
22.5278774
21
60.9014375
0
LINE
8
DEFAULT_255_2_778
10
22.5278774
20
60.9014375
11
22.6280774
21
60.8969375
0
LINE
8
DEFAULT_255_2_778
10
22.6280774
20
60.8969375
11
22.7572774
21
60.8937375
0
LINE
8
DEFAULT_255_2_778
10
22.7572774
20
60.8937375
11
22.7802774
21
60.8935375
0
LINE
8
DEFAULT_255_2_778
10
22.7802774
20
60.8935375
11
22.7794774
21
60.8220375
0
LINE
8
DEFAULT_255_2_778
10
22.7794774
20
60.8220375
11
22.7794774
21
60.7937375
0
LINE
8
DEFAULT_255_2_778
10
22.7794774
20
60.7937375
11
22.7794774
21
60.7728375
0
LINE
8
DEFAULT_255_2_778
10
22.7794774
20
60.7728375
11
22.7796774
21
60.7601375
0
LINE
8
DEFAULT_255_2_778
10
22.7796774
20
60.7601375
11
22.7802774
21
60.7559375
0
LINE
8
DEFAULT_255_2_778
10
25.8964774
20
64.7662375
11
22.5418774
21
64.8241375
0
LINE
8
DEFAULT_255_2_778
10
22.3828774
20
64.9842375
11
22.3870774
21
64.9810375
0
LINE
8
DEFAULT_255_2_778
10
22.3870774
20
64.9810375
11
22.3997774
21
64.9776375
0
LINE
8
DEFAULT_255_2_778
10
22.3997774
20
64.9776375
11
22.4206774
21
64.9741375
0
LINE
8
DEFAULT_255_2_778
10
22.4206774
20
64.9741375
11
22.4495774
21
64.9710375
0
LINE
8
DEFAULT_255_2_778
10
22.4495774
20
64.9710375
11
22.5275774
21
64.9654375
0
LINE
8
DEFAULT_255_2_778
10
22.5275774
20
64.9654375
11
22.6278774
21
64.9609375
0
LINE
8
DEFAULT_255_2_778
10
22.6278774
20
64.9609375
11
22.7569774
21
64.9577375
0
LINE
8
DEFAULT_255_2_778
10
22.7569774
20
64.9577375
11
22.7799774
21
64.9575375
0
LINE
8
DEFAULT_255_2_778
10
22.7799774
20
64.9575375
11
22.7791774
21
64.8858375
0
LINE
8
DEFAULT_255_2_778
10
22.7791774
20
64.8858375
11
22.7791774
21
64.8575375
0
LINE
8
DEFAULT_255_2_778
10
22.7791774
20
64.8575375
11
22.7791774
21
64.8366375
0
LINE
8
DEFAULT_255_2_778
10
22.7791774
20
64.8366375
11
22.7794774
21
64.8239375
0
LINE
8
DEFAULT_255_2_778
10
22.7794774
20
64.8239375
11
22.7799774
21
64.8196375
0
LINE
8
DEFAULT_255_2_778
10
22.7799774
20
74.7068375
11
22.7794774
21
74.7039375
0
LINE
8
DEFAULT_255_2_778
10
22.7794774
20
74.7039375
11
22.7789774
21
74.6955375
0
LINE
8
DEFAULT_255_2_778
10
22.7789774
20
74.6955375
11
22.7786774
21
74.6812375
0
LINE
8
DEFAULT_255_2_778
10
22.7786774
20
74.6812375
11
22.7786774
21
74.6613375
0
LINE
8
DEFAULT_255_2_778
10
22.7786774
20
74.6613375
11
22.7786774
21
74.6362375
0
LINE
8
DEFAULT_255_2_778
10
22.7786774
20
74.6362375
11
22.7789774
21
74.6074375
0
LINE
8
DEFAULT_255_2_778
10
22.7789774
20
74.6074375
11
22.7796774
21
74.5470375
0
LINE
8
DEFAULT_255_2_778
10
22.7796774
20
74.5470375
11
22.7802774
21
74.5248375
0
LINE
8
DEFAULT_255_2_778
10
22.7802774
20
74.5248375
11
22.6273774
21
74.5251375
0
LINE
8
DEFAULT_255_2_778
10
22.6273774
20
74.5251375
11
22.5585774
21
74.5264375
0
LINE
8
DEFAULT_255_2_778
10
22.5585774
20
74.5264375
11
22.4984774
21
74.5285375
0
LINE
8
DEFAULT_255_2_778
10
22.4984774
20
74.5285375
11
22.4492774
21
74.5314375
0
LINE
8
DEFAULT_255_2_778
10
22.4492774
20
74.5314375
11
22.4127774
21
74.5349375
0
LINE
8
DEFAULT_255_2_778
10
22.4127774
20
74.5349375
11
22.3902774
21
74.5388375
0
LINE
8
DEFAULT_255_2_778
10
22.5415774
20
74.7031375
11
25.6506774
21
74.7568375
0
LINE
8
DEFAULT_255_2_778
10
25.6506774
20
74.7568375
11
25.6506774
21
72.8987375
0
LINE
8
DEFAULT_255_2_778
10
22.7799774
20
70.6431375
11
22.7794774
21
70.6394375
0
LINE
8
DEFAULT_255_2_778
10
22.7794774
20
70.6394375
11
22.7789774
21
70.6288375
0
LINE
8
DEFAULT_255_2_778
10
22.7789774
20
70.6288375
11
22.7786774
21
70.6116375
0
LINE
8
DEFAULT_255_2_778
10
22.7786774
20
70.6116375
11
22.7786774
21
70.5881375
0
LINE
8
DEFAULT_255_2_778
10
22.7786774
20
70.5881375
11
22.7786774
21
70.5587375
0
LINE
8
DEFAULT_255_2_778
10
22.7786774
20
70.5587375
11
22.7789774
21
70.5259375
0
LINE
8
DEFAULT_255_2_778
10
22.7789774
20
70.5259375
11
22.7799774
21
70.4608375
0
LINE
8
DEFAULT_255_2_778
10
22.7799774
20
70.4608375
11
22.6270774
21
70.4611375
0
LINE
8
DEFAULT_255_2_778
10
22.6270774
20
70.4611375
11
22.5582774
21
70.4624375
0
LINE
8
DEFAULT_255_2_778
10
22.5582774
20
70.4624375
11
22.4981774
21
70.4645375
0
LINE
8
DEFAULT_255_2_778
10
22.4981774
20
70.4645375
11
22.4489774
21
70.4674375
0
LINE
8
DEFAULT_255_2_778
10
22.4489774
20
70.4674375
11
22.4124774
21
70.4709375
0
LINE
8
DEFAULT_255_2_778
10
22.4124774
20
70.4709375
11
22.3899774
21
70.4748375
0
LINE
8
DEFAULT_255_2_778
10
22.5413774
20
70.6391375
11
25.6504774
21
70.6929375
0
LINE
8
DEFAULT_255_2_778
10
25.6504774
20
70.6929375
11
25.6504774
21
68.8347375
0
LINE
8
DEFAULT_255_2_778
10
25.8959774
20
68.8305375
11
22.5413774
21
68.8884375
0
LINE
8
DEFAULT_255_2_778
10
22.3823774
20
69.0485375
11
22.3865774
21
69.0453375
0
LINE
8
DEFAULT_255_2_778
10
22.3865774
20
69.0453375
11
22.3992774
21
69.0418375
0
LINE
8
DEFAULT_255_2_778
10
22.3992774
20
69.0418375
11
22.4201774
21
69.0384375
0
LINE
8
DEFAULT_255_2_778
10
22.4201774
20
69.0384375
11
22.4489774
21
69.0352375
0
LINE
8
DEFAULT_255_2_778
10
22.4489774
20
69.0352375
11
22.5270774
21
69.0297375
0
LINE
8
DEFAULT_255_2_778
10
22.5270774
20
69.0297375
11
22.6273774
21
69.0252375
0
LINE
8
DEFAULT_255_2_778
10
22.6273774
20
69.0252375
11
22.7564774
21
69.0220375
0
LINE
8
DEFAULT_255_2_778
10
22.7564774
20
69.0220375
11
22.7794774
21
69.0217375
0
LINE
8
DEFAULT_255_2_778
10
22.7794774
20
69.0217375
11
22.7786774
21
68.9503375
0
LINE
8
DEFAULT_255_2_778
10
22.7786774
20
68.9503375
11
22.7786774
21
68.9220375
0
LINE
8
DEFAULT_255_2_778
10
22.7786774
20
68.9220375
11
22.7786774
21
68.9011375
0
LINE
8
DEFAULT_255_2_778
10
22.7786774
20
68.9011375
11
22.7789774
21
68.8884375
0
LINE
8
DEFAULT_255_2_778
10
22.7789774
20
68.8884375
11
22.7794774
21
68.8842375
0
LINE
8
DEFAULT_255_2_778
10
25.8957774
20
72.8944375
11
22.5410774
21
72.9524375
0
LINE
8
DEFAULT_255_2_778
10
22.3897774
20
73.1082375
11
22.4121774
21
73.1037375
0
LINE
8
DEFAULT_255_2_778
10
22.4489774
20
73.0995375
11
22.4984774
21
73.0955375
0
LINE
8
DEFAULT_255_2_778
10
22.4984774
20
73.0955375
11
22.5272774
21
73.0937375
0
LINE
8
DEFAULT_255_2_778
10
22.5272774
20
73.0937375
11
22.6273774
21
73.0892375
0
LINE
8
DEFAULT_255_2_778
10
22.6273774
20
73.0892375
11
22.7796774
21
73.0857375
0
LINE
8
DEFAULT_255_2_778
10
22.7796774
20
73.0857375
11
22.7791774
21
73.0331375
0
LINE
8
DEFAULT_255_2_778
10
22.7791774
20
73.0331375
11
22.7789774
21
73.0085375
0
LINE
8
DEFAULT_255_2_778
10
22.7789774
20
73.0085375
11
22.7789774
21
72.9871375
0
LINE
8
DEFAULT_255_2_778
10
22.7789774
20
72.9871375
11
22.7789774
21
72.9701375
0
LINE
8
DEFAULT_255_2_778
10
22.7789774
20
72.9701375
11
22.7791774
21
72.9579375
0
LINE
8
DEFAULT_255_2_778
10
22.7791774
20
72.9579375
11
22.7794774
21
72.9505375
0
LINE
8
DEFAULT_255_2_778
10
22.7794774
20
72.9505375
11
22.7796774
21
72.9479375
0
LINE
8
DEFAULT_255_2_778
10
22.3817774
20
4.8232375
11
22.0346774
21
4.8172375
0
LINE
8
DEFAULT_255_2_778
10
22.3825774
20
5.7863375
11
22.7871774
21
5.7794375
0
LINE
8
DEFAULT_255_2_778
10
22.7871774
20
5.7794375
11
23.0326774
21
5.7837375
0
LINE
8
DEFAULT_255_2_778
10
22.0349774
20
7.5339375
11
22.3865774
21
7.5522375
0
LINE
8
DEFAULT_255_2_778
10
22.3830774
20
10.0075375
11
22.0349774
21
10.0014375
0
LINE
8
DEFAULT_255_2_778
10
22.3828774
20
10.4144375
11
22.0349774
21
10.4083375
0
LINE
8
DEFAULT_255_2_778
10
22.7802774
20
9.6818375
11
22.7796774
21
9.6781375
0
LINE
8
DEFAULT_255_2_778
10
22.7796774
20
9.6781375
11
22.7791774
21
9.6675375
0
LINE
8
DEFAULT_255_2_778
10
22.7791774
20
9.6675375
11
22.7789774
21
9.6503375
0
LINE
8
DEFAULT_255_2_778
10
22.7789774
20
9.6503375
11
22.7789774
21
9.6268375
0
LINE
8
DEFAULT_255_2_778
10
22.7789774
20
9.6268375
11
22.7789774
21
9.5974375
0
LINE
8
DEFAULT_255_2_778
10
22.7789774
20
9.5974375
11
22.7791774
21
9.5646375
0
LINE
8
DEFAULT_255_2_778
10
22.7791774
20
9.5646375
11
22.7802774
21
9.4995375
0
LINE
8
DEFAULT_255_2_778
10
22.7802774
20
9.4995375
11
22.6273774
21
9.4998375
0
LINE
8
DEFAULT_255_2_778
10
22.6273774
20
9.4998375
11
22.5585774
21
9.5011375
0
LINE
8
DEFAULT_255_2_778
10
22.5585774
20
9.5011375
11
22.4984774
21
9.5032375
0
LINE
8
DEFAULT_255_2_778
10
22.4984774
20
9.5032375
11
22.4492774
21
9.5061375
0
LINE
8
DEFAULT_255_2_778
10
22.4492774
20
9.5061375
11
22.4127774
21
9.5095375
0
LINE
8
DEFAULT_255_2_778
10
22.4127774
20
9.5095375
11
22.3902774
21
9.5135375
0
LINE
8
DEFAULT_255_2_778
10
22.5415774
20
9.6778375
11
25.6506774
21
9.7315375
0
LINE
8
DEFAULT_255_2_778
10
25.6506774
20
9.7315375
11
25.6506774
21
7.8734375
0
LINE
8
DEFAULT_255_2_778
10
23.0326774
20
68.8794375
11
23.0326774
21
68.7537375
0
LINE
8
DEFAULT_255_2_778
10
23.0326774
20
70.8191375
11
23.0326774
21
70.6471375
0
LINE
8
DEFAULT_255_2_778
10
25.6506774
20
36.4595375
11
22.7799774
21
36.5090375
0
LINE
8
DEFAULT_255_2_778
10
22.7799774
20
36.5090375
11
22.7799774
21
37.9480375
0
LINE
8
DEFAULT_255_2_778
10
22.7799774
20
37.9480375
11
25.6506774
21
37.9975375
0
LINE
8
DEFAULT_255_2_778
10
25.6506774
20
42.0615375
11
22.7799774
21
42.0120375
0
LINE
8
DEFAULT_255_2_778
10
22.7799774
20
42.0120375
11
22.7799774
21
40.5729375
0
LINE
8
DEFAULT_255_2_778
10
22.7799774
20
40.5729375
11
25.6506774
21
40.5235375
0
LINE
8
DEFAULT_255_2_778
10
25.6506774
20
32.3952375
11
22.7799774
21
32.4447375
0
LINE
8
DEFAULT_255_2_778
10
22.7799774
20
32.4447375
11
22.7799774
21
33.8838375
0
LINE
8
DEFAULT_255_2_778
10
22.7799774
20
33.8838375
11
25.6506774
21
33.9332375
0
LINE
8
DEFAULT_255_2_778
10
25.6506774
20
28.3309375
11
22.7799774
21
28.3804375
0
LINE
8
DEFAULT_255_2_778
10
22.7799774
20
28.3804375
11
22.7799774
21
29.8195375
0
LINE
8
DEFAULT_255_2_778
10
22.7799774
20
29.8195375
11
25.6506774
21
29.8690375
0
LINE
8
DEFAULT_255_2_778
10
25.6506774
20
24.2667375
11
22.7799774
21
24.3162375
0
LINE
8
DEFAULT_255_2_778
10
22.7799774
20
24.3162375
11
22.7799774
21
25.7552375
0
LINE
8
DEFAULT_255_2_778
10
22.7799774
20
25.7552375
11
25.6506774
21
25.8047375
0
LINE
8
DEFAULT_255_2_778
10
25.6506774
20
20.2024375
11
22.7799774
21
20.2519375
0
LINE
8
DEFAULT_255_2_778
10
22.7799774
20
20.2519375
11
22.7799774
21
21.6910375
0
LINE
8
DEFAULT_255_2_778
10
22.7799774
20
21.6910375
11
25.6506774
21
21.7404375
0
LINE
8
DEFAULT_255_2_778
10
25.6506774
20
16.1382375
11
22.7799774
21
16.1876375
0
LINE
8
DEFAULT_255_2_778
10
22.7799774
20
16.1876375
11
22.7799774
21
17.6267375
0
LINE
8
DEFAULT_255_2_778
10
22.7799774
20
17.6267375
11
25.6506774
21
17.6762375
0
LINE
8
DEFAULT_255_2_778
10
25.6506774
20
12.0739375
11
22.7799774
21
12.1234375
0
LINE
8
DEFAULT_255_2_778
10
22.7799774
20
12.1234375
11
22.7799774
21
13.5624375
0
LINE
8
DEFAULT_255_2_778
10
22.7799774
20
13.5624375
11
25.6506774
21
13.6119375
0
LINE
8
DEFAULT_255_2_778
10
25.6506774
20
8.0096375
11
22.7799774
21
8.0591375
0
LINE
8
DEFAULT_255_2_778
10
22.7799774
20
8.0591375
11
22.7799774
21
9.4982375
0
LINE
8
DEFAULT_255_2_778
10
22.7799774
20
9.4982375
11
25.6506774
21
9.5476375
0
LINE
8
DEFAULT_255_2_778
10
26.0552774
20
38.3907375
11
22.5415774
21
38.4513375
0
LINE
8
DEFAULT_255_2_778
10
22.5415774
20
38.4513375
11
22.5415774
21
40.1131375
0
LINE
8
DEFAULT_255_2_778
10
22.5415774
20
40.1131375
11
26.0552774
21
40.1737375
0
LINE
8
DEFAULT_255_2_778
10
26.0552774
20
34.3267375
11
22.5415774
21
34.3873375
0
LINE
8
DEFAULT_255_2_778
10
22.5415774
20
34.3873375
11
22.5415774
21
36.0491375
0
LINE
8
DEFAULT_255_2_778
10
22.5415774
20
36.0491375
11
26.0552774
21
36.1097375
0
LINE
8
DEFAULT_255_2_778
10
26.0552774
20
30.2627375
11
22.5415774
21
30.3233375
0
LINE
8
DEFAULT_255_2_778
10
22.5415774
20
30.3233375
11
22.5415774
21
31.9851375
0
LINE
8
DEFAULT_255_2_778
10
22.5415774
20
31.9851375
11
26.0552774
21
32.0457375
0
LINE
8
DEFAULT_255_2_778
10
26.0552774
20
26.1987375
11
22.5415774
21
26.2593375
0
LINE
8
DEFAULT_255_2_778
10
22.5415774
20
26.2593375
11
22.5415774
21
27.9211375
0
LINE
8
DEFAULT_255_2_778
10
22.5415774
20
27.9211375
11
26.0552774
21
27.9817375
0
LINE
8
DEFAULT_255_2_778
10
26.0552774
20
22.1347375
11
22.5415774
21
22.1953375
0
LINE
8
DEFAULT_255_2_778
10
22.5415774
20
22.1953375
11
22.5415774
21
23.8571375
0
LINE
8
DEFAULT_255_2_778
10
22.5415774
20
23.8571375
11
26.0552774
21
23.9177375
0
LINE
8
DEFAULT_255_2_778
10
26.0552774
20
18.0707375
11
22.5415774
21
18.1313375
0
LINE
8
DEFAULT_255_2_778
10
22.5415774
20
18.1313375
11
22.5415774
21
19.7931375
0
LINE
8
DEFAULT_255_2_778
10
22.5415774
20
19.7931375
11
26.0552774
21
19.8537375
0
LINE
8
DEFAULT_255_2_778
10
26.0552774
20
14.0067375
11
22.5415774
21
14.0673375
0
LINE
8
DEFAULT_255_2_778
10
22.5415774
20
14.0673375
11
22.5415774
21
15.7291375
0
LINE
8
DEFAULT_255_2_778
10
22.5415774
20
15.7291375
11
26.0552774
21
15.7897375
0
LINE
8
DEFAULT_255_2_778
10
26.0552774
20
9.9427375
11
22.5415774
21
10.0033375
0
LINE
8
DEFAULT_255_2_778
10
22.5415774
20
10.0033375
11
22.5415774
21
11.6664375
0
LINE
8
DEFAULT_255_2_778
10
22.5415774
20
11.6664375
11
26.0552774
21
11.7270375
0
LINE
8
DEFAULT_255_2_778
10
26.0552774
20
5.9094375
11
22.5415774
21
5.9699375
0
LINE
8
DEFAULT_255_2_778
10
22.5415774
20
5.9699375
11
22.5415774
21
7.6022375
0
LINE
8
DEFAULT_255_2_778
10
22.5415774
20
7.6022375
11
26.0552774
21
7.6627375
0
LINE
8
DEFAULT_255_2_778
10
21.6303774
20
12.8663375
11
21.6303774
21
4.4102375
0
LINE
8
DEFAULT_255_2_778
10
26.0552774
20
44.2393375
11
22.5415774
21
44.1787375
0
LINE
8
DEFAULT_255_2_778
10
22.5415774
20
44.1787375
11
22.5415774
21
42.5168375
0
LINE
8
DEFAULT_255_2_778
10
22.5415774
20
42.5168375
11
26.0552774
21
42.4563375
0
LINE
8
DEFAULT_255_2_778
10
26.0552774
20
48.3033375
11
22.5415774
21
48.2427375
0
LINE
8
DEFAULT_255_2_778
10
22.5415774
20
48.2427375
11
22.5415774
21
46.5808375
0
LINE
8
DEFAULT_255_2_778
10
22.5415774
20
46.5808375
11
26.0552774
21
46.5203375
0
LINE
8
DEFAULT_255_2_778
10
25.6506774
20
46.1255375
11
22.7799774
21
46.0760375
0
LINE
8
DEFAULT_255_2_778
10
22.7799774
20
46.0760375
11
22.7799774
21
44.6370375
0
LINE
8
DEFAULT_255_2_778
10
22.7799774
20
44.6370375
11
25.6506774
21
44.5875375
0
LINE
8
DEFAULT_255_2_778
10
25.6506774
20
50.1898375
11
22.7799774
21
50.1403375
0
LINE
8
DEFAULT_255_2_778
10
22.7799774
20
50.1403375
11
22.7799774
21
48.7012375
0
LINE
8
DEFAULT_255_2_778
10
22.7799774
20
48.7012375
11
25.6506774
21
48.6517375
0
LINE
8
DEFAULT_255_2_778
10
26.0552774
20
52.3675375
11
22.5415774
21
52.3070375
0
LINE
8
DEFAULT_255_2_778
10
22.5415774
20
52.3070375
11
22.5415774
21
50.6451375
0
LINE
8
DEFAULT_255_2_778
10
22.5415774
20
50.6451375
11
26.0552774
21
50.5845375
0
LINE
8
DEFAULT_255_2_778
10
26.0552774
20
56.4315375
11
22.5415774
21
56.3710375
0
LINE
8
DEFAULT_255_2_778
10
22.5415774
20
56.3710375
11
22.5415774
21
54.7091375
0
LINE
8
DEFAULT_255_2_778
10
22.5415774
20
54.7091375
11
26.0552774
21
54.6485375
0
LINE
8
DEFAULT_255_2_778
10
22.0349774
20
56.4432375
11
22.3836774
21
56.4371375
0
LINE
8
DEFAULT_255_2_778
10
25.6509774
20
54.2538375
11
22.7802774
21
54.2043375
0
LINE
8
DEFAULT_255_2_778
10
22.7802774
20
54.2043375
11
22.7802774
21
52.7652375
0
LINE
8
DEFAULT_255_2_778
10
22.7802774
20
52.7652375
11
25.6509774
21
52.7157375
0
LINE
8
DEFAULT_255_2_778
10
25.6509774
20
58.3180375
11
22.7802774
21
58.2685375
0
LINE
8
DEFAULT_255_2_778
10
22.7802774
20
58.2685375
11
22.7802774
21
56.8295375
0
LINE
8
DEFAULT_255_2_778
10
22.7802774
20
56.8295375
11
25.6509774
21
56.7800375
0
LINE
8
DEFAULT_255_2_778
10
22.3865774
20
56.6419375
11
22.0349774
21
56.6358375
0
LINE
8
DEFAULT_255_2_778
10
22.3793774
20
57.0419375
11
22.0349774
21
57.0361375
0
LINE
8
DEFAULT_255_2_778
10
26.0552774
20
60.4961375
11
22.5415774
21
60.4355375
0
LINE
8
DEFAULT_255_2_778
10
22.5415774
20
60.4355375
11
22.5415774
21
58.7736375
0
LINE
8
DEFAULT_255_2_778
10
22.5415774
20
58.7736375
11
26.0552774
21
58.7130375
0
LINE
8
DEFAULT_255_2_778
10
26.0552774
20
64.5601375
11
22.5415774
21
64.4995375
0
LINE
8
DEFAULT_255_2_778
10
22.5415774
20
64.4995375
11
22.5415774
21
62.8376375
0
LINE
8
DEFAULT_255_2_778
10
22.5415774
20
62.8376375
11
26.0552774
21
62.7770375
0
LINE
8
DEFAULT_255_2_778
10
25.6506774
20
62.3823375
11
22.7799774
21
62.3328375
0
LINE
8
DEFAULT_255_2_778
10
22.7799774
20
62.3328375
11
22.7799774
21
60.8937375
0
LINE
8
DEFAULT_255_2_778
10
22.7799774
20
60.8937375
11
25.6506774
21
60.8443375
0
LINE
8
DEFAULT_255_2_778
10
25.6506774
20
66.4466375
11
22.7799774
21
66.3971375
0
LINE
8
DEFAULT_255_2_778
10
22.7799774
20
66.3971375
11
22.7799774
21
64.9580375
0
LINE
8
DEFAULT_255_2_778
10
22.7799774
20
64.9580375
11
25.6506774
21
64.9085375
0
LINE
8
DEFAULT_255_2_778
10
22.3825774
20
69.4424375
11
22.0346774
21
69.4363375
0
LINE
8
DEFAULT_255_2_778
10
22.0346774
20
69.8364375
11
22.3825774
21
69.8425375
0
LINE
8
DEFAULT_255_2_778
10
22.0346774
20
70.2364375
11
22.3865774
21
70.2425375
0
LINE
8
DEFAULT_255_2_778
10
25.6504774
20
70.5111375
11
22.7796774
21
70.4616375
0
LINE
8
DEFAULT_255_2_778
10
22.7796774
20
70.4616375
11
22.7796774
21
69.0225375
0
LINE
8
DEFAULT_255_2_778
10
22.7796774
20
69.0225375
11
25.6504774
21
68.9731375
0
LINE
8
DEFAULT_255_2_778
10
25.6504774
20
74.5753375
11
22.7796774
21
74.5259375
0
LINE
8
DEFAULT_255_2_778
10
22.7796774
20
74.5259375
11
22.7796774
21
73.0868375
0
LINE
8
DEFAULT_255_2_778
10
22.7796774
20
73.0868375
11
25.6504774
21
73.0373375
0
LINE
8
DEFAULT_255_2_778
10
26.0549774
20
72.6891375
11
22.5413774
21
72.6285375
0
LINE
8
DEFAULT_255_2_778
10
22.5413774
20
72.6285375
11
22.5413774
21
70.9667375
0
LINE
8
DEFAULT_255_2_778
10
22.5413774
20
70.9667375
11
26.0549774
21
70.9061375
0
LINE
8
DEFAULT_255_2_778
10
26.0549774
20
74.9701375
11
22.5413774
21
75.0307375
0
LINE
8
DEFAULT_255_2_778
10
22.5413774
20
75.0307375
11
22.5413774
21
76.6640375
0
LINE
8
DEFAULT_255_2_778
10
22.5413774
20
76.6640375
11
26.0549774
21
76.7246375
0
LINE
8
DEFAULT_255_2_778
10
22.0346774
20
77.1889375
11
22.3849774
21
77.1839375
0
LINE
8
DEFAULT_255_2_778
10
22.3841774
20
76.7968375
11
22.0349774
21
76.8015375
0
LINE
8
DEFAULT_255_2_778
10
20.951708
20
76.2071056
11
20.979208
21
76.0618056
0
LINE
8
DEFAULT_255_2_778
10
20.979208
20
76.0618056
11
20.987908
21
75.8581056
0
LINE
8
DEFAULT_255_2_778
10
20.987908
20
75.8581056
11
20.979208
21
75.6528056
0
LINE
8
DEFAULT_255_2_778
10
20.979208
20
75.6528056
11
20.951708
21
75.5093056
0
LINE
8
DEFAULT_255_2_778
10
20.951708
20
75.5093056
11
20.902208
21
75.4226056
0
LINE
8
DEFAULT_255_2_778
10
20.902208
20
75.4226056
11
20.829708
21
75.3958056
0
LINE
8
DEFAULT_255_2_778
10
20.829708
20
75.3958056
11
20.757208
21
75.4226056
0
LINE
8
DEFAULT_255_2_778
10
20.757208
20
75.4226056
11
20.707708
21
75.5093056
0
LINE
8
DEFAULT_255_2_778
10
20.707708
20
75.5093056
11
20.679208
21
75.6528056
0
LINE
8
DEFAULT_255_2_778
10
20.679208
20
75.6528056
11
20.671508
21
75.8581056
0
LINE
8
DEFAULT_255_2_778
10
20.671508
20
75.8581056
11
20.680208
21
76.0618056
0
LINE
8
DEFAULT_255_2_778
10
20.680208
20
76.0618056
11
20.707708
21
76.2071056
0
LINE
8
DEFAULT_255_2_778
10
20.707708
20
76.2071056
11
20.757208
21
76.2922056
0
LINE
8
DEFAULT_255_2_778
10
20.757208
20
76.2922056
11
20.830008
21
76.3224056
0
LINE
8
DEFAULT_255_2_778
10
20.830008
20
76.3224056
11
20.902208
21
76.2922056
0
LINE
8
DEFAULT_255_2_778
10
20.902208
20
76.2922056
11
20.951708
21
76.2071056
0
LINE
8
DEFAULT_255_2_778
10
20.583108
20
75.5961056
11
20.633708
21
75.4091056
0
LINE
8
DEFAULT_255_2_778
10
20.633708
20
75.4091056
11
20.715908
21
75.2956056
0
LINE
8
DEFAULT_255_2_778
10
20.715908
20
75.2956056
11
20.830008
21
75.2588056
0
LINE
8
DEFAULT_255_2_778
10
20.830008
20
75.2588056
11
20.942908
21
75.2956056
0
LINE
8
DEFAULT_255_2_778
10
20.942908
20
75.2956056
11
21.026308
21
75.4091056
0
LINE
8
DEFAULT_255_2_778
10
21.026308
20
75.4091056
11
21.076808
21
75.5961056
0
LINE
8
DEFAULT_255_2_778
10
21.076808
20
75.5961056
11
21.094308
21
75.8583056
0
LINE
8
DEFAULT_255_2_778
10
21.094308
20
75.8583056
11
21.076808
21
76.1187056
0
LINE
8
DEFAULT_255_2_778
10
21.076808
20
76.1187056
11
21.026308
21
76.3057056
0
LINE
8
DEFAULT_255_2_778
10
21.026308
20
76.3057056
11
20.942908
21
76.4193056
0
LINE
8
DEFAULT_255_2_778
10
20.942908
20
76.4193056
11
20.890308
21
76.4491056
0
LINE
8
DEFAULT_255_2_778
10
20.890308
20
76.4491056
11
20.830008
21
76.4592056
0
LINE
8
DEFAULT_255_2_778
10
20.830008
20
76.4592056
11
20.715908
21
76.4208056
0
LINE
8
DEFAULT_255_2_778
10
20.715908
20
76.4208056
11
20.633708
21
76.3057056
0
LINE
8
DEFAULT_255_2_778
10
20.633708
20
76.3057056
11
20.583108
21
76.1189056
0
LINE
8
DEFAULT_255_2_778
10
20.583108
20
76.1189056
11
20.566708
21
75.8586056
0
LINE
8
DEFAULT_255_2_778
10
20.566708
20
75.8586056
11
20.583108
21
75.5967056
0
ARC
8
DEFAULT_255_2_778
10
19.9223215
20
68.6060674
40
1.312342
50
317.7993482
51
323.8831877
0
ARC
8
DEFAULT_255_2_778
10
20.5791574
20
68.1249342
40
0.4981451
50
324.0564734
51
331.013217
0
ARC
8
DEFAULT_255_2_778
10
20.7853639
20
68.0111686
40
0.2626382
50
330.9226885
51
359.795068
0
ARC
8
DEFAULT_255_2_778
10
20.848787
20
68.0178573
40
0.1993595
50
357.8071498
51
43.1215664
0
ARC
8
DEFAULT_255_2_778
10
20.8595423
20
68.0220004
40
0.1887268
50
44.4355379
51
92.6244936
0
ARC
8
DEFAULT_255_2_778
10
20.8372611
20
67.9869012
40
0.2240436
50
86.5097756
51
133.1972807
0
ARC
8
DEFAULT_255_2_778
10
20.8532718
20
67.9956828
40
0.2292842
50
137.6204531
51
183.4389429
0
ARC
8
DEFAULT_255_2_778
10
20.8088762
20
67.9950129
40
0.328936
50
133.8494679
51
182.2795894
0
ARC
8
DEFAULT_255_2_778
10
20.8277669
20
67.9597543
40
0.3676088
50
89.6473067
51
132.1655066
0
ARC
8
DEFAULT_255_2_778
10
20.8507654
20
67.7512103
40
0.5765188
50
89.9865712
51
92.0611947
0
ARC
8
DEFAULT_255_2_778
10
20.8642946
20
67.9307576
40
0.3971974
50
61.451868
51
91.9324774
0
ARC
8
DEFAULT_255_2_778
10
20.907936
20
68.0288929
40
0.2902642
50
48.3338361
51
59.7613001
0
ARC
8
DEFAULT_255_2_778
10
20.9145917
20
68.0389303
40
0.2783464
50
357.6319068
51
47.9837637
0
ARC
8
DEFAULT_255_2_778
10
20.8187205
20
68.0401296
40
0.3741956
50
330.9335411
51
358.0549684
0
ARC
8
DEFAULT_255_2_778
10
20.3555418
20
68.2795899
40
0.8955138
50
319.3729477
51
331.9394611
0
ARC
8
DEFAULT_255_2_778
10
19.8715294
20
68.6702323
40
1.5173366
50
316.8872392
51
320.0780631
0
ARC
8
DEFAULT_255_2_778
10
20.6920277
20
64.0649072
40
0.2392758
50
267.6701188
51
309.0282347
0
ARC
8
DEFAULT_255_2_778
10
20.7246667
20
64.0104111
40
0.1766159
50
311.9365952
51
2.6020506
0
ARC
8
DEFAULT_255_2_778
10
20.6895422
20
64.0314013
40
0.2119556
50
356.491189
51
35.6386171
0
ARC
8
DEFAULT_255_2_778
10
20.7267098
20
64.0335363
40
0.1816011
50
41.9365403
51
91.2314679
0
ARC
8
DEFAULT_255_2_778
10
20.7029621
20
63.8465439
40
0.3690854
50
86.91785
51
90.0406083
0
ARC
8
DEFAULT_255_2_778
10
20.692314
20
64.0074831
40
0.2084051
50
87.1433107
51
131.7648786
0
ARC
8
DEFAULT_255_2_778
10
20.6802177
20
64.0311902
40
0.1827906
50
133.8868785
51
182.4961607
0
ARC
8
DEFAULT_255_2_778
10
20.6383424
20
64.0293856
40
0.2847085
50
130.8551917
51
181.2390322
0
ARC
8
DEFAULT_255_2_778
10
20.6888464
20
63.971725
40
0.3613585
50
87.8504149
51
130.9314409
0
ARC
8
DEFAULT_255_2_778
10
20.7155637
20
63.9332776
40
0.3997684
50
62.408551
51
91.8869207
0
ARC
8
DEFAULT_255_2_778
10
20.7615729
20
64.039233
40
0.2846741
50
47.4441397
51
60.738193
0
ARC
8
DEFAULT_255_2_778
10
20.7455507
20
64.033519
40
0.2998242
50
357.4510629
51
45.9270581
0
ARC
8
DEFAULT_255_2_778
10
20.5541104
20
64.0155161
40
0.4909901
50
0.001526
51
0.5448467
0
ARC
8
DEFAULT_255_2_778
10
20.8008188
20
64.0190572
40
0.2443072
50
323.4975182
51
359.172574
0
ARC
8
DEFAULT_255_2_778
10
20.7611542
20
64.0401944
40
0.28884
50
291.4330933
51
324.8076401
0
ARC
8
DEFAULT_255_2_778
10
20.7908955
20
63.5024503
40
0.2793605
50
37.9447012
51
74.2552825
0
ARC
8
DEFAULT_255_2_778
10
20.7954872
20
63.5169814
40
0.266944
50
358.2070245
51
36.0907989
0
ARC
8
DEFAULT_255_2_778
10
20.758891
20
63.4945169
40
0.3037375
50
312.0938379
51
2.6630349
0
ARC
8
DEFAULT_255_2_778
10
20.720668
20
63.5540783
40
0.3737365
50
268.0841483
51
310.3208218
0
ARC
8
DEFAULT_255_2_778
10
20.7032077
20
63.7513273
40
0.5707981
50
269.9992795
51
270.498455
0
ARC
8
DEFAULT_255_2_778
10
20.6887031
20
63.5783778
40
0.3981127
50
235.994461
51
272.086907
0
ARC
8
DEFAULT_255_2_778
10
20.6591544
20
63.5190686
40
0.3325338
50
229.5474522
51
234.4996382
0
ARC
8
DEFAULT_255_2_778
10
20.6254025
20
63.4816714
40
0.2821813
50
177.9573733
51
229.8356356
0
ARC
8
DEFAULT_255_2_778
10
20.670404
20
63.4838774
40
0.1824725
50
177.5337936
51
227.2752078
0
ARC
8
DEFAULT_255_2_778
10
20.6917869
20
63.5205374
40
0.2240991
50
229.6190185
51
272.9193943
0
ARC
8
DEFAULT_255_2_778
10
20.7165485
20
63.5234924
40
0.2271557
50
266.6312732
51
307.1917852
0
ARC
8
DEFAULT_255_2_778
10
20.7486075
20
63.4677868
40
0.163603
50
310.0417407
51
314.2658156
0
ARC
8
DEFAULT_255_2_778
10
20.7119615
20
63.4917917
40
0.2065895
50
316.8979864
51
3.784987
0
ARC
8
DEFAULT_255_2_778
10
20.7310123
20
63.517111
40
0.1874525
50
356.4270765
51
47.6874843
0
ARC
8
DEFAULT_255_2_778
10
20.7032108
20
63.4588233
40
0.2499695
50
51.9729291
51
89.2544132
0
ARC
8
DEFAULT_255_2_778
10
20.6758205
20
63.2396526
40
0.4701187
50
86.2627262
51
89.2346104
0
ARC
8
DEFAULT_255_2_778
10
20.9050412
20
55.2512063
40
0.3699742
50
89.0461062
51
119.6525579
0
ARC
8
DEFAULT_255_2_778
10
20.9257978
20
55.3070023
40
0.3144659
50
42.5931939
51
92.6605883
0
ARC
8
DEFAULT_255_2_778
10
20.8711635
20
55.2758884
40
0.3760073
50
1.4468594
51
40.4486373
0
ARC
8
DEFAULT_255_2_778
10
20.6395272
20
55.2463941
40
0.6087733
50
359.9562477
51
3.671976
0
ARC
8
DEFAULT_255_2_778
10
20.8280684
20
55.2323679
40
0.4204508
50
331.5425481
51
1.8483504
0
ARC
8
DEFAULT_255_2_778
10
20.9263416
20
55.1889934
40
0.3135042
50
316.4339227
51
329.9534116
0
ARC
8
DEFAULT_255_2_778
10
20.9150778
20
55.2098791
40
0.3361408
50
270.0282172
51
315.1775173
0
ARC
8
DEFAULT_255_2_778
10
20.889425
20
55.4206746
40
0.5475454
50
269.9765063
51
272.702662
0
ARC
8
DEFAULT_255_2_778
10
20.8738595
20
55.2338408
40
0.3610377
50
230.4566241
51
272.4353007
0
ARC
8
DEFAULT_255_2_778
10
20.8636864
20
55.1994942
40
0.3283742
50
182.786727
51
228.0092378
0
ARC
8
DEFAULT_255_2_778
10
20.8968075
20
55.2015735
40
0.22553
50
184.5890505
51
226.4080294
0
ARC
8
DEFAULT_255_2_778
10
20.8788376
20
55.206101
40
0.2170194
50
230.6722879
51
272.7369651
0
ARC
8
DEFAULT_255_2_778
10
20.8988813
20
55.1843016
40
0.1952126
50
267.1574819
51
319.3098393
0
ARC
8
DEFAULT_255_2_778
10
20.8337489
20
55.2227905
40
0.2700192
50
322.1289126
51
0.6361678
0
ARC
8
DEFAULT_255_2_778
10
20.6303326
20
55.2439708
40
0.4737678
50
357.8005602
51
0.0191589
0
ARC
8
DEFAULT_255_2_778
10
20.845638
20
55.2565433
40
0.2587604
50
357.2501715
51
40.5683101
0
ARC
8
DEFAULT_255_2_778
10
20.8862271
20
55.2811578
40
0.2120594
50
42.6490282
51
92.4125639
0
ARC
8
DEFAULT_255_2_778
10
20.8645859
20
55.2479703
40
0.2453885
50
87.0299349
51
122.0071324
0
ARC
8
DEFAULT_255_2_778
10
20.8266759
20
55.3239642
40
0.1610592
50
124.9011452
51
127.1549587
0
ARC
8
DEFAULT_255_2_778
10
21.0483678
20
51.7415265
40
0.4038555
50
89.0731607
51
123.2677723
0
ARC
8
DEFAULT_255_2_778
10
21.0135669
20
51.8108668
40
0.3269113
50
124.8346858
51
133.8478722
0
ARC
8
DEFAULT_255_2_778
10
21.0638145
20
51.7717995
40
0.3900026
50
135.1957578
51
173.4785595
0
ARC
8
DEFAULT_255_2_778
10
21.2933765
20
51.721939
40
0.6241833
50
171.3240854
51
174.8627792
0
ARC
8
DEFAULT_255_2_778
10
20.9012868
20
51.5703247
40
0.3094641
50
87.2377396
51
137.8921262
0
ARC
8
DEFAULT_255_2_778
10
20.9279605
20
51.584225
40
0.2954383
50
40.5337583
51
92.2812817
0
ARC
8
DEFAULT_255_2_778
10
20.8499506
20
51.528612
40
0.3909613
50
358.7197384
51
39.2980749
0
ARC
8
DEFAULT_255_2_778
10
20.6483292
20
51.509758
40
0.5925713
50
359.9972118
51
0.9784277
0
ARC
8
DEFAULT_255_2_778
10
20.8193443
20
51.4957499
40
0.4217879
50
329.4416534
51
1.8993031
0
ARC
8
DEFAULT_255_2_778
10
20.8996091
20
51.4587723
40
0.3339913
50
317.3598065
51
327.9033557
0
ARC
8
DEFAULT_255_2_778
10
20.9045793
20
51.458026
40
0.3298416
50
267.3797978
51
316.8703372
0
ARC
8
DEFAULT_255_2_778
10
20.8807581
20
51.4539677
40
0.3255559
50
218.3371885
51
271.538795
0
ARC
8
DEFAULT_255_2_778
10
20.9941012
20
51.542002
40
0.4690676
50
181.2515961
51
218.1840659
0
ARC
8
DEFAULT_255_2_778
10
21.2346548
20
51.5702764
40
0.7105543
50
179.9715567
51
183.1076084
0
ARC
8
DEFAULT_255_2_778
10
21.5664142
20
51.6381349
40
1.0423911
50
166.8363204
51
180.6983937
0
ARC
8
DEFAULT_255_2_778
10
21.0989409
20
51.7517092
40
0.561352
50
141.8162037
51
167.2579256
0
ARC
8
DEFAULT_255_2_778
10
21.0070235
20
51.8054587
40
0.4561076
50
95.822494
51
139.985216
0
ARC
8
DEFAULT_255_2_778
10
21.0635978
20
51.5140838
40
0.7521933
50
90.6472709
51
97.8584859
0
ARC
8
DEFAULT_255_2_778
10
20.8914364
20
51.5296588
40
0.2311713
50
89.835412
51
125.8949387
0
ARC
8
DEFAULT_255_2_778
10
20.883209
20
51.52788
40
0.227919
50
123.9569101
51
159.7332334
0
ARC
8
DEFAULT_255_2_778
10
21.0624861
20
51.5413631
40
0.393306
50
178.0816463
51
207.0266305
0
ARC
8
DEFAULT_255_2_778
10
20.9529181
20
51.4950628
40
0.2747973
50
208.8083738
51
216.598077
0
ARC
8
DEFAULT_255_2_778
10
20.8902535
20
51.4361576
40
0.189629
50
213.5961369
51
269.8631106
0
ARC
8
DEFAULT_255_2_778
10
20.8976128
20
51.4300004
40
0.1836375
50
267.5617906
51
322.1926856
0
ARC
8
DEFAULT_255_2_778
10
20.806191
20
51.4892434
40
0.2923301
50
324.00318
51
2.6833611
0
ARC
8
DEFAULT_255_2_778
10
20.8061461
20
51.5167905
40
0.2923832
50
357.2826917
51
36.262067
0
ARC
8
DEFAULT_255_2_778
10
20.8976017
20
51.5790793
40
0.1818393
50
37.4813899
51
91.7967065
0
ARC
8
DEFAULT_255_2_778
10
21.0147125
20
43.6093929
40
0.2592178
50
325.8369466
51
0.8700756
0
ARC
8
DEFAULT_255_2_778
10
20.9796445
20
43.6362762
40
0.3033416
50
295.0329775
51
325.3549194
0
ARC
8
DEFAULT_255_2_778
10
20.9857005
20
43.0606637
40
0.3246801
50
35.9614701
51
67.8719088
0
ARC
8
DEFAULT_255_2_778
10
21.0255767
20
43.0905697
40
0.2748429
50
359.3244347
51
35.7969134
0
ARC
8
DEFAULT_255_2_778
10
21.0091484
20
43.0748454
40
0.2915195
50
311.2081684
51
2.4543275
0
ARC
8
DEFAULT_255_2_778
10
20.9623641
20
43.1443528
40
0.3747825
50
269.6597454
51
309.5883013
0
ARC
8
DEFAULT_255_2_778
10
20.9399182
20
43.3571619
40
0.5879328
50
269.9885252
51
271.9709073
0
ARC
8
DEFAULT_255_2_778
10
20.9259668
20
43.1788372
40
0.4098416
50
239.9114955
51
271.9343186
0
ARC
8
DEFAULT_255_2_778
10
20.8867398
20
43.0934287
40
0.3164003
50
228.6723696
51
238.3037257
0
ARC
8
DEFAULT_255_2_778
10
20.8719716
20
43.0750251
40
0.2928298
50
177.5918361
51
228.4643887
0
ARC
8
DEFAULT_255_2_778
10
20.861736
20
43.0904485
40
0.2823527
50
145.2646866
51
180.6329937
0
ARC
8
DEFAULT_255_2_778
10
20.886591
20
43.0720137
40
0.3132839
50
112.1247818
51
145.0840793
0
ARC
8
DEFAULT_255_2_778
10
20.8961128
20
43.6309988
40
0.2974836
50
214.0043855
51
244.6189342
0
ARC
8
DEFAULT_255_2_778
10
20.8674972
20
43.6092895
40
0.2616279
50
179.1152763
51
213.5678211
0
ARC
8
DEFAULT_255_2_778
10
20.8935338
20
43.6270143
40
0.2879587
50
132.8494516
51
182.7239744
0
ARC
8
DEFAULT_255_2_778
10
20.9222502
20
43.576987
40
0.3444094
50
88.0529664
51
130.6914206
0
ARC
8
DEFAULT_255_2_778
10
20.9398077
20
43.3820104
40
0.5392189
50
90.000773
51
90.6222588
0
ARC
8
DEFAULT_255_2_778
10
20.9551879
20
43.5720065
40
0.3495616
50
50.5624097
51
92.5229272
0
ARC
8
DEFAULT_255_2_778
10
20.9753035
20
43.6089791
40
0.3083314
50
48.0042464
51
49.0848003
0
ARC
8
DEFAULT_255_2_778
10
20.9870302
20
43.6268925
40
0.2871907
50
357.2930464
51
47.3518038
0
ARC
8
DEFAULT_255_2_778
10
20.9515598
20
43.0981366
40
0.2050856
50
357.8462252
51
45.1880341
0
ARC
8
DEFAULT_255_2_778
10
20.9475314
20
43.0878711
40
0.2152518
50
46.3532242
51
92.4311987
0
ARC
8
DEFAULT_255_2_778
10
20.9286016
20
43.0915595
40
0.2115967
50
87.3457262
51
133.7422278
0
ARC
8
DEFAULT_255_2_778
10
20.9310137
20
43.099557
40
0.207614
50
135.7495741
51
182.5198514
0
ARC
8
DEFAULT_255_2_778
10
20.9218068
20
43.0797328
40
0.1984947
50
176.9109729
51
224.6932818
0
ARC
8
DEFAULT_255_2_778
10
20.9267475
20
43.1061439
40
0.2211122
50
228.6611518
51
273.4362344
0
ARC
8
DEFAULT_255_2_778
10
20.952827
20
43.1051449
40
0.2200898
50
266.6589815
51
311.5478289
0
ARC
8
DEFAULT_255_2_778
10
20.9594263
20
43.0801258
40
0.197333
50
314.9338016
51
2.9348005
0
ARC
8
DEFAULT_255_2_778
10
20.932185
20
43.6172144
40
0.1872779
50
87.608252
51
133.8684592
0
ARC
8
DEFAULT_255_2_778
10
20.939031
20
43.6209271
40
0.1894944
50
136.1392923
51
183.0243766
0
ARC
8
DEFAULT_255_2_778
10
20.9387842
20
43.6028668
40
0.1891556
50
177.5571524
51
223.5549381
0
ARC
8
DEFAULT_255_2_778
10
20.9311706
20
43.6045096
40
0.184882
50
225.5501166
51
272.6754214
0
ARC
8
DEFAULT_255_2_778
10
20.9485901
20
43.604091
40
0.1844713
50
267.2689435
51
314.5055185
0
ARC
8
DEFAULT_255_2_778
10
20.9411605
20
43.6026017
40
0.1887238
50
316.4314888
51
2.5290275
0
ARC
8
DEFAULT_255_2_778
10
20.9406169
20
43.6181332
40
0.1892208
50
357.8181153
51
44.3174877
0
ARC
8
DEFAULT_255_2_778
10
20.9456881
20
43.6204158
40
0.1840076
50
44.9121587
51
91.8335887
0
ARC
8
DEFAULT_255_2_778
10
20.8805049
20
39.8386578
40
0.3507855
50
297.0444209
51
319.6905498
0
ARC
8
DEFAULT_255_2_778
10
20.9056886
20
39.79011
40
0.2960959
50
269.4217847
51
296.9755064
0
ARC
8
DEFAULT_255_2_778
10
20.8956409
20
39.7981997
40
0.3042524
50
237.4182944
51
271.3295474
0
ARC
8
DEFAULT_255_2_778
10
20.9038059
20
39.7997877
40
0.3100459
50
203.4653415
51
236.3048392
0
ARC
8
DEFAULT_255_2_778
10
21.0334657
20
39.8620256
40
0.4537986
50
179.3051091
51
204.1548717
0
ARC
8
DEFAULT_255_2_778
10
21.0439211
20
39.8747544
40
0.4642768
50
155.100319
51
180.8916841
0
ARC
8
DEFAULT_255_2_778
10
20.9079175
20
39.9399591
40
0.3134678
50
121.1855312
51
155.444317
0
ARC
8
DEFAULT_255_2_778
10
20.9228738
20
39.9025196
40
0.353303
50
88.6819668
51
120.1165087
0
ARC
8
DEFAULT_255_2_778
10
20.9438142
20
39.9383677
40
0.3176201
50
37.4106131
51
92.3121053
0
ARC
8
DEFAULT_255_2_778
10
20.8174824
20
39.8507466
40
0.4712518
50
5.9873512
51
36.5410414
0
ARC
8
DEFAULT_255_2_778
10
20.4860267
20
39.7950392
40
0.8069791
50
359.7933896
51
7.4664362
0
ARC
8
DEFAULT_255_2_778
10
20.1188551
20
39.7381218
40
1.174212
50
349.0896542
51
0.6103121
0
ARC
8
DEFAULT_255_2_778
10
20.7100968
20
39.6180061
40
0.5709546
50
327.5884224
51
349.6956415
0
ARC
8
DEFAULT_255_2_778
10
20.8679531
20
39.5278744
40
0.3894721
50
319.0918186
51
326.3349838
0
ARC
8
DEFAULT_255_2_778
10
20.8301935
20
39.5730693
40
0.4477044
50
278.2835928
51
317.884957
0
ARC
8
DEFAULT_255_2_778
10
20.7595954
20
39.8944453
40
0.7762564
50
270.5834882
51
280.0228313
0
ARC
8
DEFAULT_255_2_778
10
20.7742399
20
39.7196363
40
0.4812267
50
269.4833282
51
293.2873428
0
ARC
8
DEFAULT_255_2_778
10
20.8386754
20
39.5532768
40
0.3030173
50
294.5321585
51
312.6565364
0
ARC
8
DEFAULT_255_2_778
10
20.8138133
20
39.5620833
40
0.3265727
50
314.8180099
51
350.6981972
0
ARC
8
DEFAULT_255_2_778
10
20.5013543
20
39.6368211
40
0.647421
50
348.6400945
51
357.8054167
0
ARC
8
DEFAULT_255_2_778
10
20.9263802
20
39.8358147
40
0.2240858
50
269.9029073
51
306.4773959
0
ARC
8
DEFAULT_255_2_778
10
20.9107745
20
39.8688985
40
0.2600634
50
304.9085367
51
336.2428608
0
ARC
8
DEFAULT_255_2_778
10
20.7341145
20
39.8342187
40
0.4148957
50
358.1782608
51
26.4174947
0
ARC
8
DEFAULT_255_2_778
10
20.8477317
20
39.8809991
40
0.2924579
50
28.1131418
51
35.0677674
0
ARC
8
DEFAULT_255_2_778
10
20.9303833
20
39.9532782
40
0.1836532
50
31.42407
51
89.7138642
0
ARC
8
DEFAULT_255_2_778
10
20.925628
20
39.9510339
40
0.1859818
50
88.2522051
51
142.2367472
0
ARC
8
DEFAULT_255_2_778
10
21.0134803
20
39.890282
40
0.2926946
50
143.3669939
51
182.2667395
0
ARC
8
DEFAULT_255_2_778
10
21.2022158
20
39.8750087
40
0.4812155
50
179.5598408
51
179.9975562
0
ARC
8
DEFAULT_255_2_778
10
21.0283451
20
39.8624456
40
0.3076021
50
177.6554506
51
215.041636
0
ARC
8
DEFAULT_255_2_778
10
20.9206816
20
39.7881655
40
0.1768075
50
215.3662166
51
271.6266333
0
LINE
8
DEFAULT_255_2_778
10
21.0474005
20
72.4023292
11
21.0474005
21
71.2754292
0
LINE
8
DEFAULT_255_2_778
10
21.0474005
20
71.2754292
11
20.9027005
21
71.2754292
0
LINE
8
DEFAULT_255_2_778
10
20.9027005
20
71.2754292
11
20.9027005
21
72.2250292
0
LINE
8
DEFAULT_255_2_778
10
20.9027005
20
72.2250292
11
20.6122005
21
72.1195292
0
LINE
8
DEFAULT_255_2_778
10
20.6122005
20
72.1195292
11
20.6122005
21
72.2488292
0
LINE
8
DEFAULT_255_2_778
10
20.6122005
20
72.2488292
11
21.0250005
21
72.4020292
0
LINE
8
DEFAULT_255_2_778
10
21.0250005
20
72.4020292
11
21.0474005
21
72.4020292
0
LINE
8
DEFAULT_255_2_778
10
21.0474005
20
72.4020292
11
21.0474005
21
72.4023292
0
LINE
8
DEFAULT_255_2_778
10
21.2451005
20
67.3072292
11
21.2451005
21
67.1908292
0
LINE
8
DEFAULT_255_2_778
10
21.2451005
20
67.1908292
11
20.5021005
21
67.1908292
0
LINE
8
DEFAULT_255_2_778
10
20.5021005
20
67.1908292
11
20.5021005
21
67.2932292
0
LINE
8
DEFAULT_255_2_778
10
20.5021005
20
67.2932292
11
20.8945005
21
67.7245292
0
LINE
8
DEFAULT_255_2_778
10
20.6244005
20
67.9819292
11
20.4802005
21
67.9819292
0
LINE
8
DEFAULT_255_2_778
10
20.9792005
20
67.6332292
11
20.6754005
21
67.3075292
0
LINE
8
DEFAULT_255_2_778
10
20.6754005
20
67.3075292
11
21.2448005
21
67.3075292
0
LINE
8
DEFAULT_255_2_778
10
21.2448005
20
67.3075292
11
21.2451005
21
67.3072292
0
LINE
8
DEFAULT_255_2_778
10
20.5741005
20
63.7094292
11
20.5741005
21
63.8258292
0
LINE
8
DEFAULT_255_2_778
10
20.5741005
20
63.8258292
11
20.6823005
21
63.8258292
0
LINE
8
DEFAULT_255_2_778
10
20.4976005
20
64.0232292
11
20.3537005
21
64.0232292
0
LINE
8
DEFAULT_255_2_778
10
20.3434005
20
63.4917292
11
20.4881005
21
63.4917292
0
LINE
8
DEFAULT_255_2_778
10
20.6821005
20
63.7097292
11
20.5738005
21
63.7097292
0
LINE
8
DEFAULT_255_2_778
10
20.5738005
20
63.7097292
11
20.5741005
21
63.7094292
0
LINE
8
DEFAULT_255_2_778
10
21.1067005
20
59.8872292
11
21.1067005
21
59.1424292
0
LINE
8
DEFAULT_255_2_778
10
21.1067005
20
59.1424292
11
21.2641005
21
59.1424292
0
LINE
8
DEFAULT_255_2_778
10
21.2641005
20
59.1424292
11
21.2641005
21
59.0260292
0
LINE
8
DEFAULT_255_2_778
10
21.2641005
20
59.0260292
11
21.1067005
21
59.0260292
0
LINE
8
DEFAULT_255_2_778
10
21.1067005
20
59.0260292
11
21.1067005
21
58.7657292
0
LINE
8
DEFAULT_255_2_778
10
21.1067005
20
58.7657292
11
20.9620005
21
58.7657292
0
LINE
8
DEFAULT_255_2_778
10
20.9620005
20
58.7657292
11
20.9620005
21
59.0260292
0
LINE
8
DEFAULT_255_2_778
10
20.9620005
20
59.0260292
11
20.4458005
21
59.0260292
0
LINE
8
DEFAULT_255_2_778
10
20.4458005
20
59.0260292
11
20.4458005
21
59.1099292
0
LINE
8
DEFAULT_255_2_778
10
20.4458005
20
59.1099292
11
20.9535005
21
59.8870292
0
LINE
8
DEFAULT_255_2_778
10
20.9535005
20
59.8870292
11
21.1070005
21
59.8870292
0
LINE
8
DEFAULT_255_2_778
10
21.1070005
20
59.8870292
11
21.1067005
21
59.8872292
0
LINE
8
DEFAULT_255_2_778
10
20.9448005
20
59.6616292
11
20.6090005
21
59.1424292
0
LINE
8
DEFAULT_255_2_778
10
20.6090005
20
59.1424292
11
20.9617005
21
59.1424292
0
LINE
8
DEFAULT_255_2_778
10
20.9617005
20
59.1424292
11
20.9617005
21
59.6922292
0
LINE
8
DEFAULT_255_2_778
10
20.9617005
20
59.6922292
11
20.9445005
21
59.6613292
0
LINE
8
DEFAULT_255_2_778
10
20.9445005
20
59.6613292
11
20.9448005
21
59.6616292
0
LINE
8
DEFAULT_255_2_778
10
20.6916005
20
55.4219292
11
20.5762005
21
55.4512292
0
LINE
8
DEFAULT_255_2_778
10
20.5762005
20
55.4512292
11
20.6339005
21
56.0103292
0
LINE
8
DEFAULT_255_2_778
10
20.6339005
20
56.0103292
11
21.2149005
21
56.0103292
0
LINE
8
DEFAULT_255_2_778
10
21.2149005
20
56.0103292
11
21.2149005
21
55.8785292
0
LINE
8
DEFAULT_255_2_778
10
21.2149005
20
55.8785292
11
20.7561005
21
55.8785292
0
LINE
8
DEFAULT_255_2_778
10
20.7561005
20
55.8785292
11
20.7220005
21
55.5727292
0
LINE
8
DEFAULT_255_2_778
10
20.5357005
20
55.1835292
11
20.6720005
21
55.1835292
0
LINE
8
DEFAULT_255_2_778
10
20.7294005
20
55.4523292
11
20.6913005
21
55.4216292
0
LINE
8
DEFAULT_255_2_778
10
20.6913005
20
55.4216292
11
20.6916005
21
55.4219292
0
LINE
8
DEFAULT_255_2_778
10
21.0556005
20
52.2662292
11
21.0813005
21
52.2662292
0
LINE
8
DEFAULT_255_2_778
10
21.0813005
20
52.2662292
11
21.0813005
21
52.1453292
0
LINE
8
DEFAULT_255_2_778
10
21.0813005
20
52.1453292
11
21.0549005
21
52.1453292
0
LINE
8
DEFAULT_255_2_778
10
20.5241005
20
51.5706292
11
20.5241005
21
51.6254292
0
LINE
8
DEFAULT_255_2_778
10
21.0551005
20
52.2662292
11
21.0556005
21
52.2662292
0
LINE
8
DEFAULT_255_2_778
10
20.6694005
20
51.6068292
11
20.6694005
21
51.5545292
0
LINE
8
DEFAULT_255_2_778
10
20.8919005
20
51.7608292
11
20.8921005
21
51.7608292
0
LINE
8
DEFAULT_255_2_778
10
21.2480005
20
48.2562292
11
21.2480005
21
48.1760292
0
LINE
8
DEFAULT_255_2_778
10
21.2480005
20
48.1760292
11
20.7784005
21
47.1349292
0
LINE
8
DEFAULT_255_2_778
10
20.7784005
20
47.1349292
11
20.6273005
21
47.1349292
0
LINE
8
DEFAULT_255_2_778
10
20.6273005
20
47.1349292
11
21.0953005
21
48.1392292
0
LINE
8
DEFAULT_255_2_778
10
21.0953005
20
48.1392292
11
20.4818005
21
48.1392292
0
LINE
8
DEFAULT_255_2_778
10
20.4818005
20
48.1392292
11
20.4818005
21
48.2562292
0
LINE
8
DEFAULT_255_2_778
10
20.4818005
20
48.2562292
11
21.2480005
21
48.2562292
0
LINE
8
DEFAULT_255_2_778
10
21.2480005
20
48.2562292
11
21.2480005
21
48.2562292
0
LINE
8
DEFAULT_255_2_778
10
21.2739005
20
43.6133292
11
21.2739005
21
43.6133292
0
LINE
8
DEFAULT_255_2_778
10
21.1565005
20
43.0902292
11
21.1565005
21
43.0904292
0
LINE
8
DEFAULT_255_2_778
10
20.9398005
20
43.8043292
11
20.9400005
21
43.8043292
0
LINE
8
DEFAULT_255_2_778
10
21.2930005
20
39.7921292
11
21.2930005
21
39.7506292
0
LINE
8
DEFAULT_255_2_778
10
20.7675005
20
39.1182292
11
20.7395005
21
39.1182292
0
LINE
8
DEFAULT_255_2_778
10
20.7395005
20
39.1182292
11
20.7395005
21
39.2384292
0
LINE
8
DEFAULT_255_2_778
10
20.7395005
20
39.2384292
11
20.7699005
21
39.2384292
0
LINE
8
DEFAULT_255_2_778
10
21.1483005
20
39.6120292
11
21.1480005
21
39.6117292
0
LINE
8
DEFAULT_255_2_778
10
21.1488005
20
39.7641292
11
21.1488005
21
39.8210292
0
LINE
8
DEFAULT_255_2_778
10
20.9257005
20
39.6114292
11
20.9260005
21
39.6117292
0
LINE
8
DEFAULT_255_2_778
10
20.7056532
20
31.7249861
11
20.7056532
21
30.7057861
0
LINE
8
DEFAULT_255_2_778
10
20.7056532
20
30.7057861
11
20.5746532
21
30.7057861
0
LINE
8
DEFAULT_255_2_778
10
20.5746532
20
30.7057861
11
20.5746532
21
31.5648861
0
LINE
8
DEFAULT_255_2_778
10
20.5746532
20
31.5648861
11
20.3119532
21
31.4693861
0
LINE
8
DEFAULT_255_2_778
10
20.3119532
20
31.4693861
11
20.3119532
21
31.5863861
0
LINE
8
DEFAULT_255_2_778
10
20.3119532
20
31.5863861
11
20.6852532
21
31.7249861
0
LINE
8
DEFAULT_255_2_778
10
20.6852532
20
31.7249861
11
20.7056532
21
31.7249861
0
LINE
8
DEFAULT_255_2_778
10
20.7056532
20
31.7249861
11
20.7056532
21
31.7249861
0
LINE
8
DEFAULT_255_2_778
10
21.5157532
20
31.7249861
11
21.5157532
21
30.7057861
0
LINE
8
DEFAULT_255_2_778
10
21.5157532
20
30.7057861
11
21.3847532
21
30.7057861
0
LINE
8
DEFAULT_255_2_778
10
21.3847532
20
30.7057861
11
21.3847532
21
31.5648861
0
LINE
8
DEFAULT_255_2_778
10
21.3847532
20
31.5648861
11
21.1220532
21
31.4693861
0
LINE
8
DEFAULT_255_2_778
10
21.1220532
20
31.4693861
11
21.1220532
21
31.5863861
0
LINE
8
DEFAULT_255_2_778
10
21.1220532
20
31.5863861
11
21.4953532
21
31.7249861
0
LINE
8
DEFAULT_255_2_778
10
21.4953532
20
31.7249861
11
21.5157532
21
31.7249861
0
LINE
8
DEFAULT_255_2_778
10
21.5157532
20
31.7249861
11
21.5157532
21
31.7249861
0
ARC
8
DEFAULT_255_2_778
10
21.2162728
20
10.8001341
40
0.3673186
50
88.8013792
51
126.0627296
0
ARC
8
DEFAULT_255_2_778
10
21.1865193
20
10.8557288
40
0.3049857
50
127.6926723
51
133.7138979
0
ARC
8
DEFAULT_255_2_778
10
21.2343253
20
10.8202719
40
0.3637896
50
135.2971609
51
174.2609173
0
ARC
8
DEFAULT_255_2_778
10
21.4522368
20
10.7747806
40
0.5856286
50
171.9638418
51
174.867315
0
ARC
8
DEFAULT_255_2_778
10
21.0815291
20
10.6354405
40
0.2862661
50
87.2313959
51
137.9508189
0
ARC
8
DEFAULT_255_2_778
10
21.1062814
20
10.6473527
40
0.2742374
50
40.6146047
51
92.2831219
0
ARC
8
DEFAULT_255_2_778
10
21.0321092
20
10.595184
40
0.3646054
50
357.8231142
51
39.250115
0
ARC
8
DEFAULT_255_2_778
10
20.8606972
20
10.5790194
40
0.5357592
50
359.994967
51
0.2475903
0
ARC
8
DEFAULT_255_2_778
10
21.0114264
20
10.564835
40
0.3852895
50
327.3687116
51
2.1028243
0
ARC
8
DEFAULT_255_2_778
10
21.0798932
20
10.5315011
40
0.3097814
50
317.4640146
51
325.7321968
0
ARC
8
DEFAULT_255_2_778
10
21.0849282
20
10.5316506
40
0.3061926
50
267.4033931
51
316.8064287
0
ARC
8
DEFAULT_255_2_778
10
21.0629614
20
10.5270355
40
0.3013719
50
218.2707328
51
271.539197
0
ARC
8
DEFAULT_255_2_778
10
21.1703153
20
10.6105705
40
0.4373953
50
180.3927727
51
218.1515379
0
ARC
8
DEFAULT_255_2_778
10
21.3968858
20
10.6351775
40
0.6645293
50
179.9831982
51
182.3808273
0
ARC
8
DEFAULT_255_2_778
10
21.6859391
20
10.6984614
40
0.9536657
50
166.2558108
51
180.7563661
0
ARC
8
DEFAULT_255_2_778
10
21.2601151
20
10.805231
40
0.5146737
50
141.6918728
51
166.5387943
0
ARC
8
DEFAULT_255_2_778
10
21.1818407
20
10.8497113
40
0.4258977
50
95.0872559
51
139.8594927
0
ARC
8
DEFAULT_255_2_778
10
21.23364
20
10.573035
40
0.7065957
50
90.7365756
51
97.282136
0
ARC
8
DEFAULT_255_2_778
10
21.0726099
20
10.5969605
40
0.2143125
50
89.8538836
51
125.8955504
0
ARC
8
DEFAULT_255_2_778
10
21.0670906
20
10.5937309
40
0.2137875
50
124.1895362
51
159.5653699
0
ARC
8
DEFAULT_255_2_778
10
21.2221354
20
10.6067151
40
0.3556261
50
177.8635909
51
209.1484369
0
ARC
8
DEFAULT_255_2_778
10
21.129138
20
10.5647392
40
0.2541072
50
211.0961543
51
216.64544
0
ARC
8
DEFAULT_255_2_778
10
21.0717067
20
10.5102053
40
0.1757341
50
213.5542694
51
269.7879916
0
ARC
8
DEFAULT_255_2_778
10
21.0782865
20
10.5047409
40
0.170422
50
267.5685309
51
322.1507491
0
ARC
8
DEFAULT_255_2_778
10
20.9947375
20
10.5593406
40
0.2700193
50
323.880599
51
2.7025662
0
ARC
8
DEFAULT_255_2_778
10
20.9948399
20
10.5849365
40
0.2699233
50
357.2683391
51
36.4153835
0
ARC
8
DEFAULT_255_2_778
10
21.0782723
20
10.6425228
40
0.1686272
50
37.4982221
51
91.7385198
0
ARC
8
DEFAULT_255_2_778
10
21.239134
20
14.7697042
40
0.2974089
50
89.0516352
51
119.7274348
0
ARC
8
DEFAULT_255_2_778
10
21.2558881
20
14.8140942
40
0.2532547
50
42.6172592
51
92.677732
0
ARC
8
DEFAULT_255_2_778
10
21.206493
20
14.7855336
40
0.3091924
50
358.9790666
51
40.3136817
0
ARC
8
DEFAULT_255_2_778
10
21.006606
20
14.7650569
40
0.5092504
50
359.9904951
51
1.6842541
0
ARC
8
DEFAULT_255_2_778
10
21.1944061
20
14.7510086
40
0.3217535
50
325.5833545
51
2.4873583
0
ARC
8
DEFAULT_255_2_778
10
21.2573748
20
14.7183308
40
0.2514859
50
316.453808
51
323.6161804
0
ARC
8
DEFAULT_255_2_778
10
21.2441262
20
14.7417199
40
0.2773127
50
267.3794514
51
314.8367797
0
ARC
8
DEFAULT_255_2_778
10
21.2266658
20
14.925587
40
0.4609146
50
269.9988421
51
270.5943731
0
ARC
8
DEFAULT_255_2_778
10
21.2142184
20
14.755156
40
0.2907498
50
230.4176423
51
272.4518277
0
ARC
8
DEFAULT_255_2_778
10
21.2062232
20
14.7279161
40
0.264898
50
182.8657285
51
227.9955306
0
ARC
8
DEFAULT_255_2_778
10
21.2320197
20
14.7290933
40
0.1811382
50
184.5663034
51
226.4668809
0
ARC
8
DEFAULT_255_2_778
10
21.2183033
20
14.7332327
40
0.1751596
50
230.6559995
51
272.7334245
0
ARC
8
DEFAULT_255_2_778
10
21.2343656
20
14.7155305
40
0.1574469
50
267.1934867
51
319.2581322
0
ARC
8
DEFAULT_255_2_778
10
21.172923
20
14.750328
40
0.2271258
50
322.7253592
51
3.3682514
0
ARC
8
DEFAULT_255_2_778
10
21.1919359
20
14.7736318
40
0.2079592
50
357.2549832
51
40.6748267
0
ARC
8
DEFAULT_255_2_778
10
21.2239702
20
14.7935229
40
0.1707977
50
42.6185253
51
92.3870437
0
ARC
8
DEFAULT_255_2_778
10
21.2058735
20
14.7707609
40
0.193723
50
86.749917
51
123.9958879
0
ARC
8
DEFAULT_255_2_778
10
21.3312288
20
23.7526123
40
0.205219
50
267.6059611
51
309.0643868
0
ARC
8
DEFAULT_255_2_778
10
21.358732
20
23.7063634
40
0.1521769
50
311.9991285
51
2.5644821
0
ARC
8
DEFAULT_255_2_778
10
21.3393114
20
23.7263614
40
0.1719516
50
355.6009837
51
41.5322133
0
ARC
8
DEFAULT_255_2_778
10
21.3536667
20
23.7091606
40
0.174057
50
48.9244321
51
94.1109012
0
ARC
8
DEFAULT_255_2_778
10
21.3399053
20
23.5662891
40
0.3164833
50
89.7675857
51
90.0088294
0
ARC
8
DEFAULT_255_2_778
10
21.3308978
20
23.7043951
40
0.1786021
50
87.1248241
51
131.9280129
0
ARC
8
DEFAULT_255_2_778
10
21.3210775
20
23.7239896
40
0.1575685
50
134.0327078
51
182.4796737
0
ARC
8
DEFAULT_255_2_778
10
21.2851482
20
23.7222749
40
0.2453448
50
130.9168336
51
181.19168
0
ARC
8
DEFAULT_255_2_778
10
21.3281564
20
23.6731799
40
0.3106129
50
87.8412915
51
130.9803301
0
ARC
8
DEFAULT_255_2_778
10
21.353425
20
23.6543277
40
0.3295241
50
58.1298296
51
92.3598829
0
ARC
8
DEFAULT_255_2_778
10
21.3915844
20
23.7319934
40
0.2435706
50
47.4303497
51
56.1062977
0
ARC
8
DEFAULT_255_2_778
10
21.3752084
20
23.725062
40
0.259858
50
356.781449
51
45.8048666
0
ARC
8
DEFAULT_255_2_778
10
21.4247224
20
23.7136522
40
0.2099581
50
323.4347956
51
359.1322078
0
ARC
8
DEFAULT_255_2_778
10
21.390181
20
23.7318307
40
0.2486025
50
291.4659004
51
324.8124595
0
ARC
8
DEFAULT_255_2_778
10
21.4158941
20
23.2686486
40
0.2408349
50
38.0456039
51
74.2771725
0
ARC
8
DEFAULT_255_2_778
10
21.4200783
20
23.2819301
40
0.2294899
50
358.2126659
51
36.0776537
0
ARC
8
DEFAULT_255_2_778
10
21.3878482
20
23.2626859
40
0.2618873
50
312.197983
51
2.6452186
0
ARC
8
DEFAULT_255_2_778
10
21.3548551
20
23.3155998
40
0.3234393
50
267.483971
51
310.2313218
0
ARC
8
DEFAULT_255_2_778
10
21.3259778
20
23.3238305
40
0.3316831
50
231.0252481
51
272.5364589
0
ARC
8
DEFAULT_255_2_778
10
21.2740608
20
23.2515011
40
0.2428522
50
178.000981
51
229.81434
0
ARC
8
DEFAULT_255_2_778
10
21.3128074
20
23.253272
40
0.1569939
50
177.5539215
51
227.2583047
0
ARC
8
DEFAULT_255_2_778
10
21.3311498
20
23.28431
40
0.1923877
50
229.5205678
51
272.9218407
0
ARC
8
DEFAULT_255_2_778
10
21.3538207
20
23.2807521
40
0.1890179
50
266.0975505
51
311.1724906
0
ARC
8
DEFAULT_255_2_778
10
21.3489984
20
23.2597599
40
0.1772521
50
316.8221227
51
3.8211512
0
ARC
8
DEFAULT_255_2_778
10
21.3648581
20
23.2816622
40
0.1613143
50
356.4139572
51
47.5404154
0
ARC
8
DEFAULT_255_2_778
10
21.3390301
20
23.2262786
40
0.2203733
50
52.3124453
51
90.921508
0
ARC
8
DEFAULT_255_2_778
10
21.3175145
20
23.0267521
40
0.4202556
50
87.5491108
51
89.2580483
0
ARC
8
DEFAULT_255_2_778
10
20.5987489
20
28.0083163
40
1.0264016
50
317.6046199
51
324.6306998
0
ARC
8
DEFAULT_255_2_778
10
21.1222524
20
27.6328102
40
0.3821705
50
325.1067031
51
331.2640099
0
ARC
8
DEFAULT_255_2_778
10
21.2665314
20
27.5557659
40
0.2186269
50
330.7897046
51
359.7658243
0
ARC
8
DEFAULT_255_2_778
10
21.3180807
20
27.5610366
40
0.1671895
50
357.887056
51
43.0998207
0
ARC
8
DEFAULT_255_2_778
10
21.327415
20
27.564434
40
0.1581005
50
44.512328
51
92.5951564
0
ARC
8
DEFAULT_255_2_778
10
21.3090318
20
27.5349451
40
0.1877631
50
86.572745
51
133.1759769
0
ARC
8
DEFAULT_255_2_778
10
21.3226212
20
27.5425543
40
0.1921081
50
137.689166
51
183.4265073
0
ARC
8
DEFAULT_255_2_778
10
21.285198
20
27.5419503
40
0.2749568
50
133.8092569
51
182.2673364
0
ARC
8
DEFAULT_255_2_778
10
21.3046462
20
27.506272
40
0.3143481
50
87.3001123
51
131.8652072
0
ARC
8
DEFAULT_255_2_778
10
21.3202808
20
27.5160537
40
0.3042185
50
89.9480814
51
90.155825
0
ARC
8
DEFAULT_255_2_778
10
21.3340866
20
27.5016704
40
0.3188891
50
57.1885314
51
92.4317244
0
ARC
8
DEFAULT_255_2_778
10
21.3700522
20
27.5731789
40
0.239452
50
48.2315195
51
55.1491633
0
ARC
8
DEFAULT_255_2_778
10
21.3739213
20
27.5788628
40
0.2326371
50
357.6126665
51
48.0097458
0
ARC
8
DEFAULT_255_2_778
10
21.28167
20
27.5821557
40
0.3249459
50
329.050986
51
357.7101154
0
ARC
8
DEFAULT_255_2_778
10
20.8309973
20
27.8314455
40
0.8398501
50
317.6615917
51
330.2771938
0
ARC
8
DEFAULT_255_2_778
10
20.4326315
20
28.1682757
40
1.3613089
50
316.9831381
51
318.4749634
0
ARC
8
DEFAULT_255_2_778
10
20.8391964
20
35.5209564
40
0.8611467
50
347.8747105
51
0.8128116
0
ARC
8
DEFAULT_255_2_778
10
21.3053326
20
35.4180377
40
0.3838012
50
326.0636552
51
348.2793757
0
ARC
8
DEFAULT_255_2_778
10
21.4104452
20
35.3620433
40
0.2656151
50
268.7323339
51
323.4256346
0
ARC
8
DEFAULT_255_2_778
10
21.3847199
20
35.564387
40
0.4683148
50
269.9800058
51
272.4291546
0
ARC
8
DEFAULT_255_2_778
10
21.3706231
20
35.3988869
40
0.303135
50
234.6436312
51
272.6344904
0
ARC
8
DEFAULT_255_2_778
10
21.343311
20
35.344481
40
0.2431333
50
216.0578449
51
232.4732662
0
ARC
8
DEFAULT_255_2_778
10
21.4835064
20
35.4323512
40
0.4083525
50
188.6454518
51
214.4464568
0
ARC
8
DEFAULT_255_2_778
10
21.9307935
20
35.5199751
40
0.8639463
50
180.265454
51
189.9316269
0
ARC
8
DEFAULT_255_2_778
10
21.9075486
20
35.696354
40
0.840779
50
167.7361307
51
180.8233415
0
ARC
8
DEFAULT_255_2_778
10
21.4533863
20
35.7977516
40
0.3754515
50
145.6918565
51
168.1349127
0
ARC
8
DEFAULT_255_2_778
10
21.3554771
20
35.8493412
40
0.2657961
50
89.4042818
51
142.980808
0
ARC
8
DEFAULT_255_2_778
10
21.3830051
20
35.6433079
40
0.4724646
50
89.9695124
51
93.0045639
0
ARC
8
DEFAULT_255_2_778
10
21.3967252
20
35.7999495
40
0.3161099
50
57.7289787
51
92.4419832
0
ARC
8
DEFAULT_255_2_778
10
21.4323169
20
35.8729501
40
0.2355498
50
36.5035878
51
55.5677659
0
ARC
8
DEFAULT_255_2_778
10
21.301952
20
35.7913793
40
0.3890486
50
9.0024543
51
34.7386479
0
ARC
8
DEFAULT_255_2_778
10
20.8230153
20
35.6958908
40
0.8772412
50
0.0314546
51
10.2676669
0
ARC
8
DEFAULT_255_2_778
10
20.8802325
20
35.7174529
40
0.6926241
50
359.0254332
51
11.7431649
0
ARC
8
DEFAULT_255_2_778
10
21.2990456
20
35.8047397
40
0.2648121
50
11.6953648
51
30.4825125
0
ARC
8
DEFAULT_255_2_778
10
21.3939432
20
35.855315
40
0.1574412
50
32.1401061
51
94.0015322
0
ARC
8
DEFAULT_255_2_778
10
21.3720112
20
35.8580853
40
0.1546749
50
85.9421781
51
148.3392381
0
ARC
8
DEFAULT_255_2_778
10
21.5306448
20
35.7784378
40
0.3318661
50
151.0113076
51
174.545788
0
ARC
8
DEFAULT_255_2_778
10
21.9855361
20
35.7108233
40
0.7914905
50
172.8030398
51
179.6996512
0
ARC
8
DEFAULT_255_2_778
10
21.8737043
20
35.501098
40
0.6797533
50
178.9906377
51
192.3963009
0
ARC
8
DEFAULT_255_2_778
10
21.4797657
20
35.4153705
40
0.276597
50
192.5700648
51
210.3833686
0
ARC
8
DEFAULT_255_2_778
10
21.3760191
20
35.3552346
40
0.1566842
50
210.6014821
51
273.0502206
0
ARC
8
DEFAULT_255_2_778
10
21.3936112
20
35.3530235
40
0.1545285
50
266.5664998
51
327.928497
0
ARC
8
DEFAULT_255_2_778
10
21.2495767
20
35.4289097
40
0.3171089
50
330.1286744
51
353.6433848
0
ARC
8
DEFAULT_255_2_778
10
20.781261
20
35.5041913
40
0.791214
50
351.9798855
51
359.6075885
0
LINE
8
DEFAULT_255_2_778
10
20.6413565
20
7.3833724
11
20.6413565
21
6.3570724
0
LINE
8
DEFAULT_255_2_778
10
20.6413565
20
6.3570724
11
20.5093565
21
6.3570724
0
LINE
8
DEFAULT_255_2_778
10
20.5093565
20
6.3570724
11
20.5093565
21
7.2219724
0
LINE
8
DEFAULT_255_2_778
10
20.5093565
20
7.2219724
11
20.2447565
21
7.1258724
0
LINE
8
DEFAULT_255_2_778
10
20.2447565
20
7.1258724
11
20.2447565
21
7.2438724
0
LINE
8
DEFAULT_255_2_778
10
20.2447565
20
7.2438724
11
20.6207565
21
7.3833724
0
LINE
8
DEFAULT_255_2_778
10
20.6207565
20
7.3833724
11
20.6413565
21
7.3833724
0
LINE
8
DEFAULT_255_2_778
10
20.6413565
20
7.3833724
11
20.6413565
21
7.3833724
0
LINE
8
DEFAULT_255_2_778
10
21.4488565
20
7.3812724
11
21.4488565
21
7.3081724
0
LINE
8
DEFAULT_255_2_778
10
21.4488565
20
7.3081724
11
21.0213565
21
6.3572724
0
LINE
8
DEFAULT_255_2_778
10
21.0213565
20
6.3572724
11
20.8837565
21
6.3572724
0
LINE
8
DEFAULT_255_2_778
10
20.8837565
20
6.3572724
11
21.3097565
21
7.2743724
0
LINE
8
DEFAULT_255_2_778
10
21.3097565
20
7.2743724
11
20.7509565
21
7.2743724
0
LINE
8
DEFAULT_255_2_778
10
20.7509565
20
7.2743724
11
20.7509565
21
7.3812724
0
LINE
8
DEFAULT_255_2_778
10
20.7509565
20
7.3812724
11
21.4488565
21
7.3812724
0
LINE
8
DEFAULT_255_2_778
10
21.4488565
20
7.3812724
11
21.4488565
21
7.3812724
0
LINE
8
DEFAULT_255_2_778
10
20.5815565
20
11.2835724
11
20.5815565
21
10.2395724
0
LINE
8
DEFAULT_255_2_778
10
20.5815565
20
10.2395724
11
20.4474565
21
10.2395724
0
LINE
8
DEFAULT_255_2_778
10
20.4474565
20
10.2395724
11
20.4474565
21
11.1195724
0
LINE
8
DEFAULT_255_2_778
10
20.4474565
20
11.1195724
11
20.1783565
21
11.0216724
0
LINE
8
DEFAULT_255_2_778
10
20.1783565
20
11.0216724
11
20.1783565
21
11.1414724
0
LINE
8
DEFAULT_255_2_778
10
20.1783565
20
11.1414724
11
20.5606565
21
11.2835724
0
LINE
8
DEFAULT_255_2_778
10
20.5606565
20
11.2835724
11
20.5815565
21
11.2835724
0
LINE
8
DEFAULT_255_2_778
10
20.5815565
20
11.2835724
11
20.5815565
21
11.2835724
0
LINE
8
DEFAULT_255_2_778
10
21.2247565
20
11.2793724
11
21.2485565
21
11.2793724
0
LINE
8
DEFAULT_255_2_778
10
21.2485565
20
11.2793724
11
21.2485565
21
11.1673724
0
LINE
8
DEFAULT_255_2_778
10
21.2485565
20
11.1673724
11
21.2239565
21
11.1673724
0
LINE
8
DEFAULT_255_2_778
10
20.7323565
20
10.6353724
11
20.7323565
21
10.6858724
0
LINE
8
DEFAULT_255_2_778
10
21.2245565
20
11.2795724
11
21.2247565
21
11.2793724
0
LINE
8
DEFAULT_255_2_778
10
20.8667565
20
10.6683724
11
20.8667565
21
10.6199724
0
LINE
8
DEFAULT_255_2_778
10
21.0731565
20
10.8110724
11
21.0731565
21
10.8112724
0
LINE
8
DEFAULT_255_2_778
10
20.7964565
20
15.3845724
11
20.7964565
21
14.4768724
0
LINE
8
DEFAULT_255_2_778
10
20.7964565
20
14.4768724
11
20.6797565
21
14.4768724
0
LINE
8
DEFAULT_255_2_778
10
20.6797565
20
14.4768724
11
20.6797565
21
15.2419724
0
LINE
8
DEFAULT_255_2_778
10
20.6797565
20
15.2419724
11
20.4455565
21
15.1570724
0
LINE
8
DEFAULT_255_2_778
10
20.4455565
20
15.1570724
11
20.4455565
21
15.2612724
0
LINE
8
DEFAULT_255_2_778
10
20.4455565
20
15.2612724
11
20.7781565
21
15.3848724
0
LINE
8
DEFAULT_255_2_778
10
20.7781565
20
15.3848724
11
20.7964565
21
15.3848724
0
LINE
8
DEFAULT_255_2_778
10
20.7964565
20
15.3848724
11
20.7964565
21
15.3845724
0
LINE
8
DEFAULT_255_2_778
10
21.0670565
20
14.9062724
11
20.9742565
21
14.9297724
0
LINE
8
DEFAULT_255_2_778
10
20.9742565
20
14.9297724
11
21.0207565
21
15.3803724
0
LINE
8
DEFAULT_255_2_778
10
21.0207565
20
15.3803724
11
21.4888565
21
15.3803724
0
LINE
8
DEFAULT_255_2_778
10
21.4888565
20
15.3803724
11
21.4888565
21
15.2742724
0
LINE
8
DEFAULT_255_2_778
10
21.4888565
20
15.2742724
11
21.1192565
21
15.2742724
0
LINE
8
DEFAULT_255_2_778
10
21.1192565
20
15.2742724
11
21.0916565
21
15.0279724
0
LINE
8
DEFAULT_255_2_778
10
20.9416565
20
14.7146724
11
21.0514565
21
14.7146724
0
LINE
8
DEFAULT_255_2_778
10
21.0975565
20
14.9313724
11
21.0668565
21
14.9064724
0
LINE
8
DEFAULT_255_2_778
10
21.0668565
20
14.9064724
11
21.0670565
21
14.9062724
0
LINE
8
DEFAULT_255_2_778
10
20.6961565
20
19.2895724
11
20.6961565
21
18.2950724
0
LINE
8
DEFAULT_255_2_778
10
20.6961565
20
18.2950724
11
20.5683565
21
18.2950724
0
LINE
8
DEFAULT_255_2_778
10
20.5683565
20
18.2950724
11
20.5683565
21
19.1332724
0
LINE
8
DEFAULT_255_2_778
10
20.5683565
20
19.1332724
11
20.3119565
21
19.0400724
0
LINE
8
DEFAULT_255_2_778
10
20.3119565
20
19.0400724
11
20.3119565
21
19.1543724
0
LINE
8
DEFAULT_255_2_778
10
20.3119565
20
19.1543724
11
20.6763565
21
19.2895724
0
LINE
8
DEFAULT_255_2_778
10
20.6763565
20
19.2895724
11
20.6961565
21
19.2895724
0
LINE
8
DEFAULT_255_2_778
10
20.6961565
20
19.2895724
11
20.6961565
21
19.2895724
0
LINE
8
DEFAULT_255_2_778
10
21.4716565
20
19.2848724
11
21.4716565
21
18.6275724
0
LINE
8
DEFAULT_255_2_778
10
21.4716565
20
18.6275724
11
21.6105565
21
18.6275724
0
LINE
8
DEFAULT_255_2_778
10
21.6105565
20
18.6275724
11
21.6105565
21
18.5249724
0
LINE
8
DEFAULT_255_2_778
10
21.6105565
20
18.5249724
11
21.4716565
21
18.5249724
0
LINE
8
DEFAULT_255_2_778
10
21.4716565
20
18.5249724
11
21.4716565
21
18.2952724
0
LINE
8
DEFAULT_255_2_778
10
21.4716565
20
18.2952724
11
21.3438565
21
18.2952724
0
LINE
8
DEFAULT_255_2_778
10
21.3438565
20
18.2952724
11
21.3438565
21
18.5249724
0
LINE
8
DEFAULT_255_2_778
10
21.3438565
20
18.5249724
11
20.8882565
21
18.5249724
0
LINE
8
DEFAULT_255_2_778
10
20.8882565
20
18.5249724
11
20.8882565
21
18.5990724
0
LINE
8
DEFAULT_255_2_778
10
20.8882565
20
18.5990724
11
21.3364565
21
19.2848724
0
LINE
8
DEFAULT_255_2_778
10
21.3364565
20
19.2848724
11
21.4718565
21
19.2848724
0
LINE
8
DEFAULT_255_2_778
10
21.4718565
20
19.2848724
11
21.4716565
21
19.2848724
0
LINE
8
DEFAULT_255_2_778
10
21.3287565
20
19.0855724
11
21.0324565
21
18.6275724
0
LINE
8
DEFAULT_255_2_778
10
21.0324565
20
18.6275724
11
21.3438565
21
18.6275724
0
LINE
8
DEFAULT_255_2_778
10
21.3438565
20
18.6275724
11
21.3438565
21
19.1128724
0
LINE
8
DEFAULT_255_2_778
10
21.3438565
20
19.1128724
11
21.3287565
21
19.0855724
0
LINE
8
DEFAULT_255_2_778
10
21.3287565
20
19.0855724
11
21.3287565
21
19.0855724
0
LINE
8
DEFAULT_255_2_778
10
20.6863565
20
23.9748724
11
20.6863565
21
23.0056724
0
LINE
8
DEFAULT_255_2_778
10
20.6863565
20
23.0056724
11
20.5617565
21
23.0056724
0
LINE
8
DEFAULT_255_2_778
10
20.5617565
20
23.0056724
11
20.5617565
21
23.8224724
0
LINE
8
DEFAULT_255_2_778
10
20.5617565
20
23.8224724
11
20.3119565
21
23.7316724
0
LINE
8
DEFAULT_255_2_778
10
20.3119565
20
23.7316724
11
20.3119565
21
23.8430724
0
LINE
8
DEFAULT_255_2_778
10
20.3119565
20
23.8430724
11
20.6670565
21
23.9748724
0
LINE
8
DEFAULT_255_2_778
10
20.6670565
20
23.9748724
11
20.6863565
21
23.9748724
0
LINE
8
DEFAULT_255_2_778
10
20.6863565
20
23.9748724
11
20.6863565
21
23.9748724
0
LINE
8
DEFAULT_255_2_778
10
21.2295565
20
23.4475724
11
21.2295565
21
23.5475724
0
LINE
8
DEFAULT_255_2_778
10
21.2295565
20
23.5475724
11
21.3226565
21
23.5475724
0
LINE
8
DEFAULT_255_2_778
10
21.1636565
20
23.7171724
11
21.0398565
21
23.7171724
0
LINE
8
DEFAULT_255_2_778
10
21.0313565
20
23.2599724
11
21.1559565
21
23.2599724
0
LINE
8
DEFAULT_255_2_778
10
21.3229565
20
23.4469724
11
21.2298565
21
23.4469724
0
LINE
8
DEFAULT_255_2_778
10
21.2298565
20
23.4469724
11
21.2295565
21
23.4475724
0
LINE
8
DEFAULT_255_2_778
10
20.6757565
20
27.8115724
11
20.6757565
21
26.8696724
0
LINE
8
DEFAULT_255_2_778
10
20.6757565
20
26.8696724
11
20.5545565
21
26.8696724
0
LINE
8
DEFAULT_255_2_778
10
20.5545565
20
26.8696724
11
20.5545565
21
27.6633724
0
LINE
8
DEFAULT_255_2_778
10
20.5545565
20
27.6633724
11
20.3116565
21
27.5752724
0
LINE
8
DEFAULT_255_2_778
10
20.3116565
20
27.5752724
11
20.3116565
21
27.6834724
0
LINE
8
DEFAULT_255_2_778
10
20.3116565
20
27.6834724
11
20.6567565
21
27.8115724
0
LINE
8
DEFAULT_255_2_778
10
20.6567565
20
27.8115724
11
20.6754565
21
27.8115724
0
LINE
8
DEFAULT_255_2_778
10
20.6754565
20
27.8115724
11
20.6757565
21
27.8115724
0
LINE
8
DEFAULT_255_2_778
10
21.6496565
20
26.9669724
11
21.6496565
21
26.8698724
0
LINE
8
DEFAULT_255_2_778
10
21.6496565
20
26.8698724
11
21.0287565
21
26.8698724
0
LINE
8
DEFAULT_255_2_778
10
21.0287565
20
26.8698724
11
21.0287565
21
26.9556724
0
LINE
8
DEFAULT_255_2_778
10
21.0287565
20
26.9556724
11
21.3567565
21
27.3162724
0
LINE
8
DEFAULT_255_2_778
10
21.1308565
20
27.5310724
11
21.0104565
21
27.5310724
0
LINE
8
DEFAULT_255_2_778
10
21.4279565
20
27.2395724
11
21.1742565
21
26.9672724
0
LINE
8
DEFAULT_255_2_778
10
21.1742565
20
26.9672724
11
21.6499565
21
26.9672724
0
LINE
8
DEFAULT_255_2_778
10
21.6499565
20
26.9672724
11
21.6496565
21
26.9669724
0
LINE
8
DEFAULT_255_2_778
10
20.6971565
20
36.1070724
11
20.6971565
21
35.1098724
0
LINE
8
DEFAULT_255_2_778
10
20.6971565
20
35.1098724
11
20.5688565
21
35.1098724
0
LINE
8
DEFAULT_255_2_778
10
20.5688565
20
35.1098724
11
20.5688565
21
35.9503724
0
LINE
8
DEFAULT_255_2_778
10
20.5688565
20
35.9503724
11
20.3116565
21
35.8569724
0
LINE
8
DEFAULT_255_2_778
10
20.3116565
20
35.8569724
11
20.3116565
21
35.9715724
0
LINE
8
DEFAULT_255_2_778
10
20.3116565
20
35.9715724
11
20.6770565
21
36.1072724
0
LINE
8
DEFAULT_255_2_778
10
20.6770565
20
36.1072724
11
20.6971565
21
36.1072724
0
LINE
8
DEFAULT_255_2_778
10
20.6971565
20
36.1072724
11
20.6971565
21
36.1070724
0
LINE
8
DEFAULT_255_2_778
10
21.7002565
20
35.6966724
11
21.7002565
21
35.5331724
0
LINE
8
DEFAULT_255_2_778
10
21.0668565
20
35.5159724
11
21.0668565
21
35.6842724
0
LINE
8
DEFAULT_255_2_778
10
21.7002565
20
35.6963724
11
21.7002565
21
35.6966724
0
LINE
8
DEFAULT_255_2_778
10
21.5727565
20
35.4990724
11
21.5727565
21
35.7056724
0
LINE
8
DEFAULT_255_2_778
10
21.1940565
20
35.7149724
11
21.1940565
21
35.5130724
0
LINE
8
DEFAULT_255_2_778
10
21.5724565
20
35.4987724
11
21.5727565
21
35.4990724
0
ARC
8
DEFAULT_255_2_778
10
27.6441813
20
46.5221063
40
0.3071372
50
267.4849122
51
269.3288862
0
ARC
8
DEFAULT_255_2_778
10
27.6449013
20
46.5310237
40
0.3160778
50
245.7702191
51
267.4254664
0
ARC
8
DEFAULT_255_2_778
10
27.6481119
20
46.534464
40
0.3205362
50
222.578284
51
245.4992538
0
ARC
8
DEFAULT_255_2_778
10
27.660392
20
46.5449566
40
0.3366785
50
200.7653371
51
222.4791764
0
ARC
8
DEFAULT_255_2_778
10
27.6768248
20
46.5503403
40
0.3539536
50
183.5773766
51
200.6371102
0
ARC
8
DEFAULT_255_2_778
10
27.6701158
20
46.5499241
40
0.3472319
50
180.005613
51
183.5779141
0
ARC
8
DEFAULT_255_2_778
10
27.6444548
20
50.5831717
40
0.3045025
50
267.0244366
51
269.3280756
0
ARC
8
DEFAULT_255_2_778
10
27.6456169
20
50.5964434
40
0.317817
50
245.8291211
51
266.9394041
0
ARC
8
DEFAULT_255_2_778
10
27.6488152
20
50.5987454
40
0.3212326
50
222.5807715
51
245.4768004
0
ARC
8
DEFAULT_255_2_778
10
27.6600722
20
50.608256
40
0.3359572
50
200.7389239
51
222.4760663
0
ARC
8
DEFAULT_255_2_778
10
27.6746166
20
50.6138328
40
0.3515339
50
183.0554807
51
200.7495338
0
ARC
8
DEFAULT_255_2_778
10
27.6709892
20
50.6137144
40
0.3479053
50
180.0039989
51
183.0678603
0
ARC
8
DEFAULT_255_2_778
10
27.920057
20
48.1805444
40
0.7296961
50
259.6200357
51
269.9886559
0
ARC
8
DEFAULT_255_2_778
10
27.9199122
20
48.1768147
40
0.7259663
50
270.0000202
51
270.6133738
0
ARC
8
DEFAULT_255_2_778
10
29.1003231
20
46.7247402
40
0.1614673
50
0.5144943
51
89.1622724
0
ARC
8
DEFAULT_255_2_778
10
29.100236
20
47.9039258
40
0.1615543
50
270.8681887
51
359.4908319
0
ARC
8
DEFAULT_255_2_778
10
27.9206134
20
52.2517339
40
0.7366718
50
259.6754148
51
270.0447383
0
ARC
8
DEFAULT_255_2_778
10
27.9211886
20
52.2684409
40
0.7533787
50
270.0000044
51
270.4939844
0
ARC
8
DEFAULT_255_2_778
10
29.1002359
20
50.7889544
40
0.1615543
50
0.5091756
51
89.131793
0
ARC
8
DEFAULT_255_2_778
10
29.100236
20
51.9682258
40
0.1615543
50
270.8681887
51
359.4908319
0
ARC
8
DEFAULT_255_2_778
10
27.7596561
20
52.0786537
40
0.4365722
50
162.2856601
51
179.9952155
0
ARC
8
DEFAULT_255_2_778
10
27.7170459
20
52.092823
40
0.3916714
50
142.530834
51
162.3635417
0
ARC
8
DEFAULT_255_2_778
10
27.6665163
20
52.1321449
40
0.3276464
50
118.7177269
51
142.6130596
0
ARC
8
DEFAULT_255_2_778
10
27.6465047
20
52.1649541
40
0.2892629
50
93.2968811
51
118.3640648
0
ARC
8
DEFAULT_255_2_778
10
27.643814
20
52.1897416
40
0.2643647
50
90.6350742
51
93.0236534
0
ARC
8
DEFAULT_255_2_778
10
29.1864919
20
48.6381851
40
0.2261609
50
277.365114
51
286.2778637
0
ARC
8
DEFAULT_255_2_778
10
29.1369967
20
48.429483
40
0.1249872
50
358.4900192
51
0.0032751
0
ARC
8
DEFAULT_255_2_778
10
29.1300172
20
48.4300206
40
0.1319788
50
335.2613698
51
358.3365646
0
ARC
8
DEFAULT_255_2_778
10
29.1133678
20
48.4388557
40
0.1508013
50
312.6218062
51
334.8598098
0
ARC
8
DEFAULT_255_2_778
10
29.1000859
20
48.4602305
40
0.1755866
50
276.4006279
51
311.087736
0
ARC
8
DEFAULT_255_2_778
10
29.0994613
20
48.4573964
40
0.1728424
50
271.1677654
51
276.7110985
0
ARC
8
DEFAULT_255_2_778
10
29.100731
20
50.2539005
40
0.1748041
50
83.7833469
51
89.2615604
0
ARC
8
DEFAULT_255_2_778
10
29.1018626
20
50.2535595
40
0.1750244
50
49.52067
51
84.1636958
0
ARC
8
DEFAULT_255_2_778
10
29.1237897
20
50.2816118
40
0.1394607
50
25.2902936
51
48.8911683
0
ARC
8
DEFAULT_255_2_778
10
29.1348581
20
50.2870567
40
0.1271273
50
0.2854745
51
25.2026103
0
ARC
8
DEFAULT_255_2_778
10
29.1871636
20
50.4961892
40
0.2258815
50
277.2025059
51
286.1211261
0
ARC
8
DEFAULT_255_2_778
10
29.1864919
20
52.7021851
40
0.2261609
50
277.365114
51
286.2778637
0
ARC
8
DEFAULT_255_2_778
10
29.1369967
20
52.493483
40
0.1249872
50
358.4900192
51
0.0032751
0
ARC
8
DEFAULT_255_2_778
10
29.1300172
20
52.4940206
40
0.1319788
50
335.2613698
51
358.3365646
0
ARC
8
DEFAULT_255_2_778
10
29.1133653
20
52.5028576
40
0.1508044
50
312.6220354
51
334.8595886
0
ARC
8
DEFAULT_255_2_778
10
29.1001612
20
52.523932
40
0.1753122
50
276.3859146
51
311.1332965
0
ARC
8
DEFAULT_255_2_778
10
29.09993
20
52.5191339
40
0.1705712
50
271.0258456
51
276.6423466
0
ARC
8
DEFAULT_255_2_778
10
29.1905839
20
46.4165887
40
0.210004
50
276.8644823
51
286.4589272
0
ARC
8
DEFAULT_255_2_778
10
29.1350571
20
46.2228187
40
0.1272297
50
0.3924236
51
25.2993981
0
ARC
8
DEFAULT_255_2_778
10
29.1267359
20
46.2196875
40
0.1360928
50
24.9941161
51
49.1877625
0
ARC
8
DEFAULT_255_2_778
10
29.1017285
20
46.1887169
40
0.1758825
50
49.6160746
51
83.2702886
0
ARC
8
DEFAULT_255_2_778
10
29.1009993
20
46.1912383
40
0.1734669
50
82.933512
51
89.2454
0
ARC
8
DEFAULT_255_2_778
10
27.4109895
20
46.7655612
40
0.2099759
50
276.8638497
51
286.4595765
0
ARC
8
DEFAULT_255_2_778
10
27.4103722
20
48.230417
40
0.2102052
50
277.0258351
51
286.6166396
0
ARC
8
DEFAULT_255_2_778
10
27.7020117
20
48.0160637
40
0.3783289
50
179.9879741
51
180.1322958
0
ARC
8
DEFAULT_255_2_778
10
27.7571314
20
48.0159501
40
0.4334487
50
162.2642932
51
179.9744912
0
ARC
8
DEFAULT_255_2_778
10
27.7177215
20
48.0289712
40
0.3919454
50
142.4967419
51
162.3223131
0
ARC
8
DEFAULT_255_2_778
10
27.6663828
20
48.0694991
40
0.326545
50
118.6768619
51
142.6539892
0
ARC
8
DEFAULT_255_2_778
10
27.6468804
20
48.1022865
40
0.288424
50
93.2469316
51
118.4034027
0
ARC
8
DEFAULT_255_2_778
10
27.6443112
20
48.1263201
40
0.2642862
50
90.6346495
51
92.9859602
0
ARC
8
DEFAULT_255_2_778
10
27.6433009
20
50.5837375
40
0.1404604
50
240.6634351
51
269.2179882
0
ARC
8
DEFAULT_255_2_778
10
27.655971
20
50.6031471
40
0.1635957
50
215.7397424
51
240.1255764
0
ARC
8
DEFAULT_255_2_778
10
27.6838154
20
50.6251642
40
0.1990632
50
196.331075
51
216.2022017
0
ARC
8
DEFAULT_255_2_778
10
27.716512
20
50.6371704
40
0.2338281
50
179.9951694
51
196.9015212
0
ARC
8
DEFAULT_255_2_778
10
27.6452897
20
18.0752609
40
0.3074919
50
267.0468705
51
269.3280959
0
ARC
8
DEFAULT_255_2_778
10
27.6458939
20
18.0833542
40
0.3156057
50
245.753015
51
267.0130281
0
ARC
8
DEFAULT_255_2_778
10
27.6486334
20
18.0867814
40
0.3198574
50
222.5726215
51
245.5576984
0
ARC
8
DEFAULT_255_2_778
10
27.6613272
20
18.0974255
40
0.3364072
50
200.7225456
51
222.4450244
0
ARC
8
DEFAULT_255_2_778
10
27.6745965
20
18.1024516
40
0.3505966
50
183.498905
51
200.7234792
0
ARC
8
DEFAULT_255_2_778
10
27.674731
20
18.1027144
40
0.350747
50
180.0039598
51
183.5404115
0
ARC
8
DEFAULT_255_2_778
10
27.7724264
20
23.6549177
40
0.2894452
50
179.9910024
51
180.2430091
0
ARC
8
DEFAULT_255_2_778
10
27.802908
20
23.6547093
40
0.3199268
50
166.9976156
51
179.9545254
0
ARC
8
DEFAULT_255_2_778
10
27.7474497
20
23.6704968
40
0.2623545
50
151.2739573
51
167.6320741
0
ARC
8
DEFAULT_255_2_778
10
27.6842758
20
23.7092744
40
0.1883533
50
128.7879238
51
152.3820115
0
ARC
8
DEFAULT_255_2_778
10
27.6470319
20
23.7545745
40
0.1297138
50
92.230343
51
128.4996096
0
ARC
8
DEFAULT_255_2_778
10
27.9207122
20
23.7946163
40
0.7259678
50
270.00002
51
270.6133735
0
ARC
8
DEFAULT_255_2_778
10
27.9209275
20
23.8002211
40
0.7315727
50
259.6333842
51
269.9831622
0
ARC
8
DEFAULT_255_2_778
10
29.1010879
20
23.5210734
40
0.161401
50
270.8505575
51
359.5444604
0
ARC
8
DEFAULT_255_2_778
10
29.1010879
20
22.3427069
40
0.161401
50
0.4555396
51
89.1494425
0
ARC
8
DEFAULT_255_2_778
10
27.9221259
20
19.7474742
40
0.7431113
50
270.0000158
51
270.4902219
0
ARC
8
DEFAULT_255_2_778
10
27.9223393
20
19.7524834
40
0.7481206
50
259.7552736
51
269.9836703
0
ARC
8
DEFAULT_255_2_778
10
29.1010879
20
19.4568734
40
0.161401
50
270.8505575
51
359.5444604
0
ARC
8
DEFAULT_255_2_778
10
29.1010879
20
18.2784069
40
0.161401
50
0.4555396
51
89.1494425
0
ARC
8
DEFAULT_255_2_778
10
27.7131322
20
19.568576
40
0.3891493
50
179.9881434
51
180.130434
0
ARC
8
DEFAULT_255_2_778
10
27.7554675
20
19.5688562
40
0.4314847
50
162.2235626
51
180.0265095
0
ARC
8
DEFAULT_255_2_778
10
27.7173348
20
19.5819905
40
0.3911638
50
142.5047662
51
162.3502851
0
ARC
8
DEFAULT_255_2_778
10
27.6667553
20
19.621621
40
0.3269116
50
118.6562118
51
142.6196515
0
ARC
8
DEFAULT_255_2_778
10
27.6474714
20
19.6545858
40
0.2887391
50
93.3012346
51
118.4352564
0
ARC
8
DEFAULT_255_2_778
10
27.6445805
20
19.6812672
40
0.2619389
50
90.633611
51
93.0060079
0
ARC
8
DEFAULT_255_2_778
10
27.6452548
20
22.1367717
40
0.3045025
50
267.0244366
51
269.3280756
0
ARC
8
DEFAULT_255_2_778
10
27.6464169
20
22.1500434
40
0.317817
50
245.8291211
51
266.9394041
0
ARC
8
DEFAULT_255_2_778
10
27.6480796
20
22.1502295
40
0.3186707
50
222.4874762
51
245.5700958
0
ARC
8
DEFAULT_255_2_778
10
27.6599418
20
22.1612833
40
0.3348842
50
200.7036597
51
222.5112962
0
ARC
8
DEFAULT_255_2_778
10
27.6747545
20
22.1669819
40
0.350755
50
182.9885304
51
200.718989
0
ARC
8
DEFAULT_255_2_778
10
27.6755498
20
22.1673031
40
0.351566
50
180.0021079
51
183.034034
0
ARC
8
DEFAULT_255_2_778
10
27.410397
20
22.3866836
40
0.2143743
50
276.9626124
51
286.361013
0
ARC
8
DEFAULT_255_2_778
10
27.4097526
20
23.8516119
40
0.2146798
50
277.125937
51
286.5163786
0
ARC
8
DEFAULT_255_2_778
10
29.191087
20
17.9693679
40
0.2099829
50
276.8643183
51
286.4597227
0
ARC
8
DEFAULT_255_2_778
10
29.1355569
20
17.7756186
40
0.12723
50
0.3924628
51
25.2993848
0
ARC
8
DEFAULT_255_2_778
10
29.1272358
20
17.7724874
40
0.1360931
50
24.9941264
51
49.1877319
0
ARC
8
DEFAULT_255_2_778
10
29.1022407
20
17.7415924
40
0.175817
50
49.6031639
51
83.7053996
0
ARC
8
DEFAULT_255_2_778
10
29.1015257
20
17.7439539
40
0.1735508
50
83.3852852
51
89.2544788
0
ARC
8
DEFAULT_255_2_778
10
29.1880065
20
24.2525262
40
0.2236564
50
277.3151089
51
286.3278678
0
ARC
8
DEFAULT_255_2_778
10
29.1403468
20
24.046298
40
0.1227371
50
358.4553176
51
359.9963225
0
ARC
8
DEFAULT_255_2_778
10
29.1308165
20
24.0471217
40
0.1322874
50
335.1792762
51
358.2099452
0
ARC
8
DEFAULT_255_2_778
10
29.116913
20
24.0537888
40
0.1477053
50
312.3856881
51
335.0959486
0
ARC
8
DEFAULT_255_2_778
10
29.1013802
20
24.0761869
40
0.1747577
50
276.3272417
51
311.1967577
0
ARC
8
DEFAULT_255_2_778
10
29.1010296
20
24.071943
40
0.1705802
50
271.025935
51
276.6013925
0
ARC
8
DEFAULT_255_2_778
10
29.1403468
20
19.982298
40
0.1227371
50
358.4553176
51
359.9963225
0
ARC
8
DEFAULT_255_2_778
10
29.1308165
20
19.9831217
40
0.1322874
50
335.1792762
51
358.2099452
0
ARC
8
DEFAULT_255_2_778
10
29.116915
20
19.9897871
40
0.1477028
50
312.3855864
51
335.0962455
0
ARC
8
DEFAULT_255_2_778
10
29.101067
20
20.0126335
40
0.1753001
50
276.41061
51
311.1776748
0
ARC
8
DEFAULT_255_2_778
10
29.1005811
20
20.0090359
40
0.1717816
50
271.1683722
51
276.7056124
0
ARC
8
DEFAULT_255_2_778
10
29.1877919
20
20.1909851
40
0.2261609
50
277.365114
51
286.2778637
0
ARC
8
DEFAULT_255_2_778
10
29.102031
20
21.8067005
40
0.1748041
50
83.7833469
51
89.2615604
0
ARC
8
DEFAULT_255_2_778
10
29.1031626
20
21.8063595
40
0.1750244
50
49.52067
51
84.1636958
0
ARC
8
DEFAULT_255_2_778
10
29.1250959
20
21.8344163
40
0.1394532
50
25.289728
51
48.8918881
0
ARC
8
DEFAULT_255_2_778
10
29.1361597
20
21.8398569
40
0.1271258
50
0.2853761
51
25.20282
0
ARC
8
DEFAULT_255_2_778
10
29.1907936
20
22.0377059
40
0.2143967
50
276.9628043
51
286.3602178
0
ARC
8
DEFAULT_255_2_778
10
27.411175
20
18.3182015
40
0.2101895
50
277.0256001
51
286.6171208
0
ARC
8
DEFAULT_255_2_778
10
27.4117872
20
19.7828755
40
0.2099904
50
276.8640152
51
286.4590828
0
ARC
8
DEFAULT_255_2_778
10
27.8103035
20
19.5902391
40
0.3268197
50
167.138034
51
180.0436409
0
ARC
8
DEFAULT_255_2_778
10
27.7472952
20
19.6068618
40
0.2617013
50
151.2367749
51
167.6152918
0
ARC
8
DEFAULT_255_2_778
10
27.6853474
20
19.6452524
40
0.1889627
50
128.8618667
51
152.4027173
0
ARC
8
DEFAULT_255_2_778
10
27.6473599
20
19.6908773
40
0.1296046
50
92.156101
51
128.4408481
0
ARC
8
DEFAULT_255_2_778
10
27.6442376
20
22.1359307
40
0.1398516
50
240.5999804
51
269.2815017
0
ARC
8
DEFAULT_255_2_778
10
27.6578877
20
22.1571408
40
0.1650376
50
215.8902272
51
240.0861461
0
ARC
8
DEFAULT_255_2_778
10
27.6868545
20
22.1789705
40
0.2013034
50
196.4427504
51
216.0905388
0
ARC
8
DEFAULT_255_2_778
10
27.7209312
20
22.1901294
40
0.2371474
50
180.0336585
51
196.6981137
0
ARC
8
DEFAULT_255_2_778
10
29.0624949
20
101.699391
40
0.2031991
50
88.979955
51
90.0031192
0
ARC
8
DEFAULT_255_2_778
10
29.0630004
20
101.7005282
40
0.2020538
50
45.1961955
51
89.1175214
0
ARC
8
DEFAULT_255_2_778
10
29.0667095
20
101.7023183
40
0.1981746
50
0.0785891
51
45.5923551
0
ARC
8
DEFAULT_255_2_778
10
29.0481621
20
101.6911453
40
0.0373448
50
84.9075575
51
89.9666163
0
ARC
8
DEFAULT_255_2_778
10
29.0473776
20
101.6855975
40
0.0429413
50
46.7800298
51
84.5220447
0
ARC
8
DEFAULT_255_2_778
10
29.0479263
20
101.6880651
40
0.0407877
50
6.0631175
51
44.96771
0
ARC
8
DEFAULT_255_2_778
10
29.0519637
20
101.688567
40
0.0367201
50
0.0360566
51
5.9497601
0
ARC
8
DEFAULT_255_2_778
10
30.315952
20
104.0989583
40
0.4021378
50
1.3154523
51
90.0032512
0
ARC
8
DEFAULT_255_2_778
10
30.3159673
20
104.080723
40
0.4203732
50
90.005192
51
90.3112239
0
ARC
8
DEFAULT_255_2_778
10
30.4778233
20
104.0988266
40
0.4022695
50
1.3337776
51
89.9850704
0
ARC
8
DEFAULT_255_2_778
10
30.4779662
20
104.0811385
40
0.4199577
50
90.0051948
51
90.3113902
0
ARC
8
DEFAULT_255_2_778
10
29.6675111
20
104.0944409
40
0.4066494
50
89.9474786
51
134.6192107
0
ARC
8
DEFAULT_255_2_778
10
29.6606045
20
104.1007318
40
0.3973208
50
134.5474953
51
179.9483287
0
ARC
8
DEFAULT_255_2_778
10
31.7408357
20
105.2563545
40
0.3986055
50
359.0276391
51
359.9978987
0
ARC
8
DEFAULT_255_2_778
10
31.741155
20
105.2560915
40
0.3982862
50
0.0357299
51
44.3662375
0
ARC
8
DEFAULT_255_2_778
10
31.7356694
20
105.2502383
40
0.4063009
50
44.41539
51
89.1095054
0
ARC
8
DEFAULT_255_2_778
10
28.4520115
20
105.2927399
40
0.4066504
50
89.9475435
51
134.6191575
0
ARC
8
DEFAULT_255_2_778
10
28.4455066
20
105.2988635
40
0.3977229
50
134.5717604
51
179.9385366
0
ARC
8
DEFAULT_255_2_778
10
10.9438843
20
4.3685752
40
0.3994302
50
272.3817914
51
285.9853312
0
ARC
8
DEFAULT_255_2_778
10
22.5439798
20
5.4467069
40
0.161401
50
90.8505575
51
179.5444604
0
ARC
8
DEFAULT_255_2_778
10
28.8569639
20
5.3079715
40
0.4091817
50
90.0020251
51
91.0054453
0
ARC
8
DEFAULT_255_2_778
10
28.8569645
20
5.3097965
40
0.4073566
50
45.9323806
51
90.0021196
0
ARC
8
DEFAULT_255_2_778
10
28.8631682
20
5.3167916
40
0.398016
50
0.0717718
51
45.873698
0
ARC
8
DEFAULT_255_2_778
10
29.2507109
20
5.3204855
40
0.0109495
50
269.8571292
51
343.0324757
0
ARC
8
DEFAULT_255_2_778
10
29.2300658
20
5.3931291
40
0.0860983
50
282.5565756
51
283.8551935
0
ARC
8
DEFAULT_255_2_778
10
29.1477928
20
5.6929683
40
0.3969403
50
280.4895151
51
284.7394475
0
ARC
8
DEFAULT_255_2_778
10
29.1403275
20
5.7373753
40
0.441965
50
279.4357415
51
280.3930563
0
ARC
8
DEFAULT_255_2_778
10
29.1295935
20
5.940595
40
0.6445956
50
272.453156
51
277.4151727
0
ARC
8
DEFAULT_255_2_778
10
12.451347
20
78.8689195
40
0.4086294
50
247.759681
51
270.0191905
0
ARC
8
DEFAULT_255_2_778
10
12.4514117
20
78.8674498
40
0.4072942
50
225.3911008
51
247.6729936
0
ARC
8
DEFAULT_255_2_778
10
12.4473566
20
78.8630591
40
0.4013206
50
202.8698627
51
225.3630506
0
ARC
8
DEFAULT_255_2_778
10
12.4444806
20
78.8611678
40
0.3979361
50
183.4308076
51
202.7798944
0
ARC
8
DEFAULT_255_2_778
10
12.4319432
20
78.8601326
40
0.3853593
50
180.0063097
51
183.3887091
0
ARC
8
DEFAULT_255_2_778
10
12.4514253
20
82.6095317
40
0.4105584
50
90.0336942
51
112.1872958
0
ARC
8
DEFAULT_255_2_778
10
12.4519581
20
82.6119806
40
0.4084946
50
112.3862052
51
134.5898634
0
ARC
8
DEFAULT_255_2_778
10
12.4458917
20
82.6178939
40
0.4000247
50
134.5656779
51
157.1408836
0
ARC
8
DEFAULT_255_2_778
10
12.4462561
20
82.6190351
40
0.3999189
50
157.3118165
51
176.5607745
0
ARC
8
DEFAULT_255_2_778
10
12.4319722
20
82.6202443
40
0.3855884
50
176.6128002
51
179.9931885
0
ARC
8
DEFAULT_255_2_778
10
22.2392465
20
78.8692979
40
0.4090078
50
269.9912299
51
292.2298851
0
ARC
8
DEFAULT_255_2_778
10
22.240738
20
78.8638976
40
0.4034453
50
292.3239567
51
314.7728871
0
ARC
8
DEFAULT_255_2_778
10
22.2443866
20
78.861491
40
0.3991681
50
314.6443861
51
337.2440533
0
ARC
8
DEFAULT_255_2_778
10
22.2392846
20
78.8617086
40
0.4039611
50
337.4955077
51
356.5435867
0
ARC
8
DEFAULT_255_2_778
10
22.2571372
20
78.860136
40
0.3860466
50
356.6168227
51
359.9931942
0
ARC
8
DEFAULT_255_2_778
10
22.2393674
20
82.6086497
40
0.4109405
50
67.8231399
51
89.9558836
0
ARC
8
DEFAULT_255_2_778
10
22.2379813
20
82.6100776
40
0.4101455
50
45.4553848
51
67.568539
0
ARC
8
DEFAULT_255_2_778
10
22.2436473
20
82.6166131
40
0.4015135
50
22.8749887
51
45.3774352
0
ARC
8
DEFAULT_255_2_778
10
22.2456841
20
82.6186669
40
0.39884
50
3.3627178
51
22.7168947
0
ARC
8
DEFAULT_255_2_778
10
22.2589222
20
82.6197447
40
0.3855617
50
0.0067454
51
3.3182089
0
ARC
8
DEFAULT_255_2_778
10
29.0645005
20
83.4293342
40
0.1985839
50
314.4571769
51
359.8718892
0
ARC
8
DEFAULT_255_2_778
10
29.0592726
20
83.4339745
40
0.2055581
50
289.7351265
51
314.5914085
0
ARC
8
DEFAULT_255_2_778
10
28.7625551
20
5.7630415
40
0.1016954
50
337.8772891
51
338.2091205
0
ARC
8
DEFAULT_255_2_778
10
28.8472369
20
5.7263165
40
0.0096557
50
287.1484136
51
350.6261839
0
ARC
8
DEFAULT_255_2_778
10
11.0471978
20
77.7957271
40
0.0420168
50
283.0759605
51
303.003331
0
ARC
8
DEFAULT_255_2_778
10
11.2607423
20
77.051892
40
0.7319227
50
106.1868436
51
106.2455407
0
ARC
8
DEFAULT_255_2_778
10
11.0057756
20
77.991905
40
0.242568
50
270.6172542
51
281.9457928
0
LINE
8
DEFAULT_255_2_778
10
11.0083888
20
77.7493512
11
11.006404
21
77.7492668
0
ARC
8
DEFAULT_255_2_778
10
11.1299004
20
74.8200009
40
2.9318679
50
92.4141332
51
92.4947241
0
ARC
8
DEFAULT_255_2_778
10
11.0460651
20
77.7780798
40
0.0421058
50
288.3505966
51
304.2851598
0
ARC
8
DEFAULT_255_2_778
10
10.9862148
20
77.9435029
40
0.2180108
50
288.6090182
51
289.5928915
0
ARC
8
DEFAULT_255_2_778
10
10.9596927
20
78.0757726
40
0.3522426
50
276.9120938
51
285.8308396
0
ARC
8
DEFAULT_255_2_778
10
10.9184451
20
3.9047912
40
0.155943
50
317.9728638
51
357.9048861
0
ARC
8
DEFAULT_255_2_778
10
10.8604787
20
3.958931
40
0.2352519
50
285.4587823
51
317.6296928
0
ARC
8
DEFAULT_255_2_778
10
10.8295147
20
4.0307727
40
0.3127058
50
270.0290702
51
282.7604792
0
ARC
8
DEFAULT_255_2_778
10
10.8296734
20
4.0275862
40
0.3095193
50
269.2984845
51
269.9999877
0
ARC
8
DEFAULT_255_2_778
10
22.4569718
20
76.8818915
40
0.2143824
50
253.6393019
51
263.03735
0
ARC
8
DEFAULT_255_2_778
10
22.5458446
20
76.6832402
40
0.1614673
50
90.8377276
51
179.4855057
0
ARC
8
DEFAULT_255_2_778
10
29.0989879
20
76.6775069
40
0.161401
50
0.4555396
51
89.1494425
0
ARC
8
DEFAULT_255_2_778
10
28.8583068
20
77.5239341
40
0.4020827
50
272.676653
51
359.6944889
0
ARC
8
DEFAULT_255_2_778
10
29.0488301
20
83.4424197
40
0.0369538
50
353.3716461
51
359.9541406
0
ARC
8
DEFAULT_255_2_778
10
29.0453211
20
83.4427751
40
0.0404804
50
314.8776144
51
353.4452225
0
ARC
8
DEFAULT_255_2_778
10
29.0444131
20
83.4451346
40
0.0428052
50
277.2721134
51
313.5102848
0
ARC
8
DEFAULT_255_2_778
10
29.0452429
20
83.4396759
40
0.0372857
50
270.0629214
51
277.0690786
0
ARC
8
DEFAULT_255_2_778
10
30.3153333
20
1.3801164
40
0.3998311
50
292.0728389
51
358.8497638
0
ARC
8
DEFAULT_255_2_778
10
27.6448533
20
3.124758
40
0.4142407
50
90.0044036
51
90.3692274
0
ARC
8
DEFAULT_255_2_778
10
27.644779
20
3.1372643
40
0.4017344
50
45.2945678
51
89.9939376
0
ARC
8
DEFAULT_255_2_778
10
27.6446976
20
3.1368416
40
0.4020921
50
0.3061507
51
45.3286995
0
ARC
8
DEFAULT_255_2_778
10
28.4492791
20
0.1813098
40
0.4025014
50
180.3159674
51
225.3044215
0
ARC
8
DEFAULT_255_2_778
10
28.4490362
20
0.1813255
40
0.4023418
50
225.3305885
51
269.9973935
0
ARC
8
DEFAULT_255_2_778
10
28.4490175
20
0.1802761
40
0.4012923
50
270.0000553
51
270.3235861
0
ARC
8
DEFAULT_255_2_778
10
31.7364919
20
0.2240779
40
0.4022151
50
270.6683894
51
315.6652412
0
ARC
8
DEFAULT_255_2_778
10
31.735733
20
0.2242472
40
0.4028764
50
315.7234415
51
0.0003356
0
ARC
8
DEFAULT_255_2_778
10
31.7357164
20
0.2242483
40
0.402893
50
0.0001784
51
0.6459128
0
ARC
8
DEFAULT_255_2_778
10
1.7282015
20
3.1190385
40
0.4199578
50
89.6886098
51
89.9948052
0
ARC
8
DEFAULT_255_2_778
10
1.7282945
20
3.13688
40
0.4021163
50
90.0078263
51
178.6875765
0
ARC
8
DEFAULT_255_2_778
10
21.8757972
20
4.5727462
40
0.1624562
50
269.9247414
51
314.608588
0
ARC
8
DEFAULT_255_2_778
10
21.8784977
20
4.5702547
40
0.1587863
50
314.5462469
51
0.0488833
0
ARC
8
DEFAULT_255_2_778
10
21.8758557
20
78.0570568
40
0.1614336
50
0.4732428
51
90.0304653
0
LINE
8
DEFAULT_255_2_778
10
21.8757699
20
78.2184902
11
21.8755839
21
78.2184901
0
LINE
8
DEFAULT_255_2_778
10
11.6020839
20
78.2184901
11
11.601898
21
78.2184902
0
ARC
8
DEFAULT_255_2_778
10
11.6018906
20
78.0570782
40
0.161412
50
89.9973585
51
179.5343058
0
ARC
8
DEFAULT_255_2_778
10
11.6130905
20
4.5699256
40
0.1726073
50
179.8458117
51
179.9691607
0
ARC
8
DEFAULT_255_2_778
10
11.5991764
20
4.5701175
40
0.1586931
50
180.0357233
51
225.4173546
0
ARC
8
DEFAULT_255_2_778
10
11.6022317
20
4.5736284
40
0.1633385
50
225.5185164
51
269.9481417
0
ARC
8
DEFAULT_255_2_778
10
22.4577747
20
6.1897096
40
0.2144006
50
253.6399049
51
263.0371548
0
ARC
8
DEFAULT_255_2_778
10
22.5466655
20
5.9938601
40
0.1614875
50
180.4860587
51
269.1549464
0
ARC
8
DEFAULT_255_2_778
10
29.0997879
20
5.9995734
40
0.161401
50
270.8505575
51
359.5444604
0
ARC
8
DEFAULT_255_2_778
10
29.1863642
20
6.2067867
40
0.2258789
50
277.202429
51
286.1211519
0
ARC
8
DEFAULT_255_2_778
10
29.663677
20
1.3817088
40
0.4024993
50
180.3158353
51
225.3045434
0
ARC
8
DEFAULT_255_2_778
10
29.6635313
20
1.381957
40
0.4025733
50
225.3441213
51
269.998089
0
ARC
8
DEFAULT_255_2_778
10
29.6635175
20
1.3806787
40
0.401295
50
270.000055
51
270.3235858
0
ARC
8
DEFAULT_255_2_778
10
30.4758662
20
1.3993417
40
0.4199578
50
269.6886098
51
269.9948052
0
ARC
8
DEFAULT_255_2_778
10
30.4757732
20
1.3815002
40
0.4021163
50
270.0078263
51
358.6875765
0
ARC
8
DEFAULT_255_2_778
10
27.7200372
20
18.1243431
40
0.2384533
50
179.9886928
51
184.9166408
0
ARC
8
DEFAULT_255_2_778
10
27.7082287
20
18.1230724
40
0.2265794
50
184.8524264
51
197.1155592
0
ARC
8
DEFAULT_255_2_778
10
27.6922828
20
18.117086
40
0.2095804
50
196.8344153
51
215.6990062
0
ARC
8
DEFAULT_255_2_778
10
27.6550345
20
18.0907046
40
0.1639374
50
215.8077831
51
240.1685651
0
ARC
8
DEFAULT_255_2_778
10
27.6421376
20
18.0703307
40
0.1398516
50
240.5999804
51
269.2815017
0
ARC
8
DEFAULT_255_2_778
10
27.409096
20
52.2980911
40
0.2143818
50
276.9626403
51
286.36071
0
ARC
8
DEFAULT_255_2_778
10
27.4090958
20
50.8333922
40
0.2143831
50
276.9626532
51
286.3606711
0
ARC
8
DEFAULT_255_2_778
10
27.8129883
20
52.1006244
40
0.3314045
50
167.2277272
51
179.954051
0
ARC
8
DEFAULT_255_2_778
10
27.7526841
20
52.1152097
40
0.2693695
50
151.4882879
51
167.4175957
0
ARC
8
DEFAULT_255_2_778
10
27.6841251
20
52.1552473
40
0.1900298
50
128.8262792
51
152.2288199
0
ARC
8
DEFAULT_255_2_778
10
27.6457215
20
52.2018214
40
0.1296706
50
92.2706813
51
128.5089056
0
ARC
8
DEFAULT_255_2_778
10
28.8521593
20
5.2777396
40
0.2564616
50
90.0049234
51
90.5306927
0
ARC
8
DEFAULT_255_2_778
10
28.8519178
20
5.2766723
40
0.2575288
50
68.9342124
51
89.9511749
0
ARC
8
DEFAULT_255_2_778
10
28.8566316
20
5.2939876
40
0.2396834
50
45.4141891
51
68.497961
0
ARC
8
DEFAULT_255_2_778
10
28.8583528
20
5.2938311
40
0.2385905
50
22.7483085
51
45.7349396
0
ARC
8
DEFAULT_255_2_778
10
28.8481429
20
5.2922351
40
0.2486356
50
3.3960311
51
22.1776885
0
ARC
8
DEFAULT_255_2_778
10
28.8204061
20
5.2891158
40
0.2765124
50
0.9064373
51
3.7007915
0
ARC
8
DEFAULT_255_2_778
10
27.7561016
20
23.6311295
40
0.433518
50
162.2227318
51
180.0580685
0
ARC
8
DEFAULT_255_2_778
10
27.7145835
20
23.6458471
40
0.3894911
50
142.4747895
51
162.4196515
0
ARC
8
DEFAULT_255_2_778
10
27.6660153
20
23.6841464
40
0.3276448
50
118.717695
51
142.6131538
0
ARC
8
DEFAULT_255_2_778
10
27.6459469
20
23.7172191
40
0.2890024
50
93.6053068
51
118.3789476
0
ARC
8
DEFAULT_255_2_778
10
27.6433201
20
23.7413788
40
0.2647276
50
90.6355041
51
93.3666969
0
ARC
8
DEFAULT_255_2_778
10
27.6418372
20
46.5175141
40
0.1387316
50
240.4816673
51
269.3997571
0
ARC
8
DEFAULT_255_2_778
10
27.6542144
20
46.5380942
40
0.1627398
50
215.7167489
51
240.2595765
0
ARC
8
DEFAULT_255_2_778
10
27.6837471
20
46.5611732
40
0.2001965
50
196.3878508
51
216.1453587
0
ARC
8
DEFAULT_255_2_778
10
27.7188299
20
46.5731781
40
0.2372465
50
180.1178387
51
196.7788483
0
ARC
8
DEFAULT_255_2_778
10
27.8145628
20
48.0370481
40
0.3329791
50
167.2580466
51
179.9411464
0
ARC
8
DEFAULT_255_2_778
10
27.7532899
20
48.0513982
40
0.2700505
50
151.4915497
51
167.360369
0
ARC
8
DEFAULT_255_2_778
10
27.6823784
20
48.0931858
40
0.1878145
50
128.6862765
51
152.3688228
0
ARC
8
DEFAULT_255_2_778
10
27.6457212
20
48.1383224
40
0.1296696
50
92.2705664
51
128.5090764
0
ARC
8
DEFAULT_255_2_778
10
0.4889664
20
77.6270017
40
0.1147561
50
65.0994347
51
75.9625414
0
LINE
8
DEFAULT_255_2_778
10
0.5168012
20
77.738331
11
0.5161479
21
77.7385151
0
ARC
8
DEFAULT_255_2_778
10
0.6089239
20
78.0722316
40
0.3463727
50
253.2298362
51
254.4636216
0
ARC
8
DEFAULT_255_2_778
10
0.6063128
20
78.0086555
40
0.2859918
50
212.4530056
51
244.0538347
0
ARC
8
DEFAULT_255_2_778
10
0.9687904
20
78.277351
40
0.7367511
50
202.8555506
51
214.9599293
0
ARC
8
DEFAULT_255_2_778
10
1.6969132
20
78.5803882
40
1.5254134
50
191.0702417
51
202.7216561
0
ARC
8
DEFAULT_255_2_778
10
2.891166
20
78.8439637
40
2.7482108
50
185.2271341
51
191.6823575
0
ARC
8
DEFAULT_255_2_778
10
10.8368728
20
3.8597896
40
0.2379111
50
314.0482975
51
359.9760361
0
ARC
8
DEFAULT_255_2_778
10
10.8324387
20
3.8639124
40
0.2439573
50
269.9725355
51
314.1235798
0
ARC
8
DEFAULT_255_2_778
10
10.8323354
20
3.8661949
40
0.2462397
50
269.0339483
51
269.9968235
0
ARC
8
DEFAULT_255_2_778
10
0.5417338
20
4.1996208
40
0.4021553
50
180.2893113
51
269.3659918
0
ARC
8
DEFAULT_255_2_778
10
0.1543274
20
4.1998355
40
0.0149135
50
188.6595062
51
241.8169443
0
ARC
8
DEFAULT_255_2_778
10
0.1875511
20
4.2449278
40
0.0708031
50
235.338906
51
255.4669626
0
ARC
8
DEFAULT_255_2_778
10
0.3245953
20
4.7016003
40
0.5475512
50
253.5765436
51
262.7804797
0
ARC
8
DEFAULT_255_2_778
10
0.3562498
20
83.4438248
40
0.2009379
50
270.000013
51
270.3233726
0
ARC
8
DEFAULT_255_2_778
10
0.3561897
20
83.443765
40
0.200878
50
225.2962819
51
270.017155
0
ARC
8
DEFAULT_255_2_778
10
0.3561061
20
83.4439134
40
0.2009248
50
180.2917914
51
225.3429967
0
ARC
8
DEFAULT_255_2_778
10
0.355931
20
101.6857403
40
0.2007494
50
134.6361867
51
179.7289033
0
ARC
8
DEFAULT_255_2_778
10
0.3565006
20
101.6853986
40
0.201393
50
89.964787
51
134.6831999
0
ARC
8
DEFAULT_255_2_778
10
0.356814
20
101.7424912
40
0.1443005
50
89.7737459
51
90.0753018
0
ARC
8
DEFAULT_255_2_778
10
29.0466537
20
101.7424912
40
0.1443001
50
89.9246982
51
90.2262541
0
ARC
8
DEFAULT_255_2_778
10
29.0469671
20
101.6853986
40
0.201393
50
45.3168001
51
90.035213
0
ARC
8
DEFAULT_255_2_778
10
29.047119
20
101.6855648
40
0.201168
50
0.3205188
51
45.3142693
0
ARC
8
DEFAULT_255_2_778
10
29.0483471
20
83.4432966
40
0.1999377
50
305.581822
51
359.8262099
0
ARC
8
DEFAULT_255_2_778
10
29.0455931
20
83.4487824
40
0.2060039
50
287.5712111
51
305.3169672
0
ARC
8
DEFAULT_255_2_778
10
29.0460514
20
83.4482137
40
0.2053235
50
270.0090452
51
287.4972037
0
ARC
8
DEFAULT_255_2_778
10
0.3572496
20
83.4434159
40
0.040726
50
225.6566202
51
270.1888806
0
ARC
8
DEFAULT_255_2_778
10
0.3567576
20
83.4427046
40
0.0398737
50
180.0208553
51
225.4478857
0
LINE
8
DEFAULT_255_2_778
10
27.4815839
20
47.5553901
11
29.2611839
21
47.5553901
0
LINE
8
DEFAULT_255_2_778
10
29.2611839
20
47.5553901
11
29.2611839
21
47.9032901
0
LINE
8
DEFAULT_255_2_778
10
29.0698839
20
47.7283901
11
29.1511839
21
47.5553901
0
LINE
8
DEFAULT_255_2_778
10
27.4818839
20
51.6190901
11
29.2614839
21
51.6190901
0
LINE
8
DEFAULT_255_2_778
10
29.2614839
20
51.6190901
11
29.2614839
21
51.9669901
0
LINE
8
DEFAULT_255_2_778
10
29.0701839
20
51.7920901
11
29.1513839
21
51.6190901
0
LINE
8
DEFAULT_255_2_778
10
27.4821839
20
47.5182901
11
27.7885839
21
47.4627901
0
LINE
8
DEFAULT_255_2_778
10
27.9276839
20
47.4508901
11
29.1828839
21
47.4637901
0
LINE
8
DEFAULT_255_2_778
10
29.1828839
20
47.4637901
11
29.1818839
21
47.5550901
0
LINE
8
DEFAULT_255_2_778
10
27.4821839
20
47.0748901
11
29.2617839
21
47.0748901
0
LINE
8
DEFAULT_255_2_778
10
29.1026839
20
46.8861901
11
29.1026839
21
46.3638901
0
LINE
8
DEFAULT_255_2_778
10
29.1026839
20
46.3638901
11
27.6408839
21
46.3779901
0
LINE
8
DEFAULT_255_2_778
10
27.6408839
20
46.3779901
11
27.6408839
21
46.9115901
0
LINE
8
DEFAULT_255_2_778
10
27.6408839
20
46.9115901
11
29.1026839
21
46.8864901
0
LINE
8
DEFAULT_255_2_778
10
29.1026839
20
47.7423901
11
29.1026839
21
48.2842901
0
LINE
8
DEFAULT_255_2_778
10
29.1026839
20
48.2842901
11
27.6408839
21
48.2670901
0
LINE
8
DEFAULT_255_2_778
10
27.6408839
20
48.2670901
11
27.6408839
21
47.7169901
0
LINE
8
DEFAULT_255_2_778
10
27.6408839
20
47.7169901
11
29.1026839
21
47.7421901
0
LINE
8
DEFAULT_255_2_778
10
27.4821839
20
51.5825901
11
27.7885839
21
51.5269901
0
LINE
8
DEFAULT_255_2_778
10
27.9276839
20
51.5150901
11
29.1828839
21
51.5280901
0
LINE
8
DEFAULT_255_2_778
10
29.1828839
20
51.5280901
11
29.1818839
21
51.6193901
0
LINE
8
DEFAULT_255_2_778
10
27.4821839
20
51.1390901
11
29.2617839
21
51.1390901
0
LINE
8
DEFAULT_255_2_778
10
29.1026839
20
50.9504901
11
29.1026839
21
50.4281901
0
LINE
8
DEFAULT_255_2_778
10
29.1026839
20
50.4281901
11
27.6408839
21
50.4421901
0
LINE
8
DEFAULT_255_2_778
10
27.6408839
20
50.4421901
11
27.6408839
21
50.9758901
0
LINE
8
DEFAULT_255_2_778
10
27.6408839
20
50.9758901
11
29.1026839
21
50.9507901
0
LINE
8
DEFAULT_255_2_778
10
29.1026839
20
51.8066901
11
29.1026839
21
52.3485901
0
LINE
8
DEFAULT_255_2_778
10
29.1026839
20
52.3485901
11
27.6408839
21
52.3313901
0
LINE
8
DEFAULT_255_2_778
10
27.6408839
20
52.3313901
11
27.6408839
21
51.7812901
0
LINE
8
DEFAULT_255_2_778
10
27.6408839
20
51.7812901
11
29.1026839
21
51.8063901
0
LINE
8
DEFAULT_255_2_778
10
29.0704839
20
46.9020901
11
29.1516839
21
47.0750901
0
LINE
8
DEFAULT_255_2_778
10
29.1516839
20
51.1390901
11
29.0704839
21
50.9660901
0
LINE
8
DEFAULT_255_2_778
10
29.1026839
20
48.2845901
11
29.1029839
21
48.3689901
0
LINE
8
DEFAULT_255_2_778
10
29.1029839
20
48.3689901
11
29.1026839
21
48.4072901
0
LINE
8
DEFAULT_255_2_778
10
29.1026839
20
48.4072901
11
29.1638839
21
48.4091901
0
LINE
8
DEFAULT_255_2_778
10
29.1638839
20
48.4091901
11
29.2154839
21
48.4138901
0
LINE
8
DEFAULT_255_2_778
10
29.2498839
20
48.4210901
11
29.2587839
21
48.4252901
0
LINE
8
DEFAULT_255_2_778
10
29.2587839
20
48.4252901
11
29.2619839
21
48.4294901
0
LINE
8
DEFAULT_255_2_778
10
29.1029839
20
50.2654901
11
29.1034839
21
50.3138901
0
LINE
8
DEFAULT_255_2_778
10
29.1034839
20
50.3138901
11
29.1029839
21
50.4286901
0
LINE
8
DEFAULT_255_2_778
10
29.2619839
20
50.2876901
11
29.2587839
21
50.2834901
0
LINE
8
DEFAULT_255_2_778
10
29.2587839
20
50.2834901
11
29.2498839
21
50.2791901
0
LINE
8
DEFAULT_255_2_778
10
29.2154839
20
50.2720901
11
29.1638839
21
50.2672901
0
LINE
8
DEFAULT_255_2_778
10
29.1638839
20
50.2672901
11
29.1026839
21
50.2654901
0
LINE
8
DEFAULT_255_2_778
10
29.1026839
20
52.4712901
11
29.1638839
21
52.4731901
0
LINE
8
DEFAULT_255_2_778
10
29.1638839
20
52.4731901
11
29.2154839
21
52.4778901
0
LINE
8
DEFAULT_255_2_778
10
29.2498839
20
52.4850901
11
29.2587839
21
52.4892901
0
LINE
8
DEFAULT_255_2_778
10
29.2587839
20
52.4892901
11
29.2619839
21
52.4934901
0
LINE
8
DEFAULT_255_2_778
10
29.1029839
20
52.3485901
11
29.1032839
21
52.4328901
0
LINE
8
DEFAULT_255_2_778
10
29.1032839
20
52.4328901
11
29.1029839
21
52.4712901
0
LINE
8
DEFAULT_255_2_778
10
29.1029839
20
46.3646901
11
29.1034839
21
46.2498901
0
LINE
8
DEFAULT_255_2_778
10
29.1034839
20
46.2498901
11
29.1029839
21
46.2014901
0
LINE
8
DEFAULT_255_2_778
10
29.1029839
20
46.2014901
11
29.1640839
21
46.2032901
0
LINE
8
DEFAULT_255_2_778
10
29.1640839
20
46.2032901
11
29.2156839
21
46.2080901
0
LINE
8
DEFAULT_255_2_778
10
29.2500839
20
46.2151901
11
29.2590839
21
46.2194901
0
LINE
8
DEFAULT_255_2_778
10
29.2590839
20
46.2194901
11
29.2622839
21
46.2236901
0
LINE
8
DEFAULT_255_2_778
10
29.2622839
20
50.7908901
11
29.2622839
21
47.9027901
0
LINE
8
DEFAULT_255_2_778
10
27.4826839
20
46.5726901
11
27.4794839
21
46.5684901
0
LINE
8
DEFAULT_255_2_778
10
27.4794839
20
46.5684901
11
27.4704839
21
46.5641901
0
LINE
8
DEFAULT_255_2_778
10
27.4360839
20
46.5570901
11
27.3844839
21
46.5522901
0
LINE
8
DEFAULT_255_2_778
10
27.3844839
20
46.5522901
11
27.3236839
21
46.5504901
0
LINE
8
DEFAULT_255_2_778
10
27.3236839
20
46.5504901
11
27.3236839
21
48.0151901
0
LINE
8
DEFAULT_255_2_778
10
27.3236839
20
48.0151901
11
27.3844839
21
48.0170901
0
LINE
8
DEFAULT_255_2_778
10
27.3844839
20
48.0170901
11
27.4360839
21
48.0217901
0
LINE
8
DEFAULT_255_2_778
10
27.4704839
20
48.0289901
11
27.4794839
21
48.0331901
0
LINE
8
DEFAULT_255_2_778
10
27.4794839
20
48.0331901
11
27.4826839
21
48.0373901
0
LINE
8
DEFAULT_255_2_778
10
27.6413839
20
48.3905901
11
29.1032839
21
48.4077901
0
LINE
8
DEFAULT_255_2_778
10
29.1032839
20
48.4077901
11
29.1032839
21
50.2659901
0
LINE
8
DEFAULT_255_2_778
10
29.1032839
20
50.2659901
11
27.6413839
21
50.2799901
0
LINE
8
DEFAULT_255_2_778
10
27.6413839
20
50.2799901
11
27.6419839
21
50.3284901
0
LINE
8
DEFAULT_255_2_778
10
27.6419839
20
50.3284901
11
27.6413839
21
50.4432901
0
LINE
8
DEFAULT_255_2_778
10
29.1521839
20
18.6281901
11
29.0709839
21
18.4551901
0
LINE
8
DEFAULT_255_2_778
10
29.1521839
20
22.6921901
11
29.0709839
21
22.5191901
0
LINE
8
DEFAULT_255_2_778
10
29.1521839
20
23.1721901
11
29.0709839
21
23.3451901
0
LINE
8
DEFAULT_255_2_778
10
27.4826839
20
19.1081901
11
29.2622839
21
19.1081901
0
LINE
8
DEFAULT_255_2_778
10
29.2622839
20
19.1081901
11
29.2622839
21
19.4560901
0
LINE
8
DEFAULT_255_2_778
10
29.0709839
20
19.2811901
11
29.1521839
21
19.1081901
0
LINE
8
DEFAULT_255_2_778
10
27.6419839
20
23.8841901
11
29.1037839
21
23.9013901
0
LINE
8
DEFAULT_255_2_778
10
29.1037839
20
23.9013901
11
29.1037839
21
23.3594901
0
LINE
8
DEFAULT_255_2_778
10
29.1037839
20
23.3594901
11
27.6419839
21
23.3342901
0
LINE
8
DEFAULT_255_2_778
10
27.6419839
20
23.3342901
11
27.6419839
21
23.8843901
0
LINE
8
DEFAULT_255_2_778
10
27.6419839
20
23.8843901
11
27.6421839
21
23.9687901
0
LINE
8
DEFAULT_255_2_778
10
27.6421839
20
23.9687901
11
27.6419839
21
24.0071901
0
LINE
8
DEFAULT_255_2_778
10
29.2624839
20
23.5205901
11
29.2624839
21
23.1726901
0
LINE
8
DEFAULT_255_2_778
10
29.2624839
20
23.1726901
11
27.4829839
21
23.1726901
0
LINE
8
DEFAULT_255_2_778
10
29.2624839
20
22.3447901
11
29.2624839
21
22.6926901
0
LINE
8
DEFAULT_255_2_778
10
29.2624839
20
22.6926901
11
27.4829839
21
22.6926901
0
LINE
8
DEFAULT_255_2_778
10
29.1825839
20
23.1728901
11
29.1836839
21
23.0816901
0
LINE
8
DEFAULT_255_2_778
10
29.1836839
20
23.0816901
11
27.9284839
21
23.0686901
0
LINE
8
DEFAULT_255_2_778
10
27.7892839
20
23.0805901
11
27.4829839
21
23.1361901
0
LINE
8
DEFAULT_255_2_778
10
29.1034839
20
22.5040901
11
27.6416839
21
22.5291901
0
LINE
8
DEFAULT_255_2_778
10
27.6416839
20
22.5291901
11
27.6416839
21
21.9955901
0
LINE
8
DEFAULT_255_2_778
10
27.6416839
20
21.9955901
11
29.1034839
21
21.9814901
0
LINE
8
DEFAULT_255_2_778
10
29.1034839
20
21.9814901
11
29.1034839
21
22.5037901
0
LINE
8
DEFAULT_255_2_778
10
29.2624839
20
18.2804901
11
29.2624839
21
18.6284901
0
LINE
8
DEFAULT_255_2_778
10
29.2624839
20
18.6284901
11
27.4829839
21
18.6284901
0
LINE
8
DEFAULT_255_2_778
10
29.1825839
20
19.1086901
11
29.1836839
21
19.0173901
0
LINE
8
DEFAULT_255_2_778
10
29.1836839
20
19.0173901
11
27.9284839
21
19.0043901
0
LINE
8
DEFAULT_255_2_778
10
27.7892839
20
19.0162901
11
27.4829839
21
19.0718901
0
LINE
8
DEFAULT_255_2_778
10
29.1034839
20
18.4397901
11
27.6416839
21
18.4649901
0
LINE
8
DEFAULT_255_2_778
10
27.6416839
20
18.4649901
11
27.6416839
21
17.9312901
0
LINE
8
DEFAULT_255_2_778
10
27.6416839
20
17.9312901
11
29.1034839
21
17.9172901
0
LINE
8
DEFAULT_255_2_778
10
29.1034839
20
17.9172901
11
29.1034839
21
18.4395901
0
LINE
8
DEFAULT_255_2_778
10
27.3239839
20
22.1672901
11
27.3847839
21
22.1690901
0
LINE
8
DEFAULT_255_2_778
10
27.3847839
20
22.1690901
11
27.4363839
21
22.1738901
0
LINE
8
DEFAULT_255_2_778
10
27.4707839
20
22.1809901
11
27.4797839
21
22.1852901
0
LINE
8
DEFAULT_255_2_778
10
27.4797839
20
22.1852901
11
27.4829839
21
22.1894901
0
LINE
8
DEFAULT_255_2_778
10
27.4829839
20
22.1894901
11
27.4829839
21
23.6541901
0
LINE
8
DEFAULT_255_2_778
10
27.4829839
20
23.6541901
11
27.4797839
21
23.6499901
0
LINE
8
DEFAULT_255_2_778
10
27.4797839
20
23.6499901
11
27.4707839
21
23.6457901
0
LINE
8
DEFAULT_255_2_778
10
27.4363839
20
23.6385901
11
27.3847839
21
23.6338901
0
LINE
8
DEFAULT_255_2_778
10
27.3847839
20
23.6338901
11
27.3239839
21
23.6319901
0
LINE
8
DEFAULT_255_2_778
10
27.3239839
20
23.6319901
11
27.3239839
21
22.1672901
0
LINE
8
DEFAULT_255_2_778
10
29.1034839
20
17.7542901
11
29.1646839
21
17.7560901
0
LINE
8
DEFAULT_255_2_778
10
29.1646839
20
17.7560901
11
29.2161839
21
17.7608901
0
LINE
8
DEFAULT_255_2_778
10
29.2505839
20
17.7679901
11
29.2595839
21
17.7722901
0
LINE
8
DEFAULT_255_2_778
10
29.2595839
20
17.7722901
11
29.2627839
21
17.7764901
0
LINE
8
DEFAULT_255_2_778
10
29.1037839
20
17.9174901
11
29.1042839
21
17.8026901
0
LINE
8
DEFAULT_255_2_778
10
29.1042839
20
17.8026901
11
29.1037839
21
17.7542901
0
LINE
8
DEFAULT_255_2_778
10
29.1037839
20
23.9013901
11
29.1040839
21
23.9857901
0
LINE
8
DEFAULT_255_2_778
10
29.1040839
20
23.9857901
11
29.1037839
21
24.0240901
0
LINE
8
DEFAULT_255_2_778
10
29.1037839
20
24.0240901
11
29.1648839
21
24.0259901
0
LINE
8
DEFAULT_255_2_778
10
29.1648839
20
24.0259901
11
29.2164839
21
24.0306901
0
LINE
8
DEFAULT_255_2_778
10
29.2508839
20
24.0378901
11
29.2598839
21
24.0420901
0
LINE
8
DEFAULT_255_2_778
10
29.2598839
20
24.0420901
11
29.2630839
21
24.0462901
0
LINE
8
DEFAULT_255_2_778
10
29.1040839
20
19.8372901
11
29.1042839
21
19.9216901
0
LINE
8
DEFAULT_255_2_778
10
29.1042839
20
19.9216901
11
29.1040839
21
19.9600901
0
LINE
8
DEFAULT_255_2_778
10
29.1040839
20
19.9600901
11
29.1651839
21
19.9619901
0
LINE
8
DEFAULT_255_2_778
10
29.1651839
20
19.9619901
11
29.2167839
21
19.9666901
0
LINE
8
DEFAULT_255_2_778
10
29.2511839
20
19.9738901
11
29.2601839
21
19.9780901
0
LINE
8
DEFAULT_255_2_778
10
29.2601839
20
19.9780901
11
29.2632839
21
19.9822901
0
LINE
8
DEFAULT_255_2_778
10
29.2632839
20
21.8404901
11
29.2601839
21
21.8362901
0
LINE
8
DEFAULT_255_2_778
10
29.2601839
20
21.8362901
11
29.2511839
21
21.8319901
0
LINE
8
DEFAULT_255_2_778
10
29.2167839
20
21.8248901
11
29.1651839
21
21.8200901
0
LINE
8
DEFAULT_255_2_778
10
29.1651839
20
21.8200901
11
29.1040839
21
21.8182901
0
LINE
8
DEFAULT_255_2_778
10
29.1040839
20
21.8182901
11
29.1045839
21
21.8666901
0
LINE
8
DEFAULT_255_2_778
10
29.1045839
20
21.8666901
11
29.1040839
21
21.9814901
0
LINE
8
DEFAULT_255_2_778
10
29.2630839
20
22.3436901
11
29.2630839
21
19.4555901
0
LINE
8
DEFAULT_255_2_778
10
27.4834839
20
19.5899901
11
27.4834839
21
18.1251901
0
LINE
8
DEFAULT_255_2_778
10
27.4834839
20
18.1251901
11
27.4802839
21
18.1209901
0
LINE
8
DEFAULT_255_2_778
10
27.4802839
20
18.1209901
11
27.4712839
21
18.1167901
0
LINE
8
DEFAULT_255_2_778
10
27.4368839
20
18.1095901
11
27.3852839
21
18.1048901
0
LINE
8
DEFAULT_255_2_778
10
27.3852839
20
18.1048901
11
27.3244839
21
18.1029901
0
LINE
8
DEFAULT_255_2_778
10
27.3244839
20
18.1029901
11
27.3244839
21
19.5676901
0
LINE
8
DEFAULT_255_2_778
10
27.3244839
20
19.5676901
11
27.3852839
21
19.5695901
0
LINE
8
DEFAULT_255_2_778
10
27.3852839
20
19.5695901
11
27.4368839
21
19.5743901
0
LINE
8
DEFAULT_255_2_778
10
27.4712839
20
19.5814901
11
27.4802839
21
19.5856901
0
LINE
8
DEFAULT_255_2_778
10
27.4802839
20
19.5856901
11
27.4834839
21
19.5899901
0
LINE
8
DEFAULT_255_2_778
10
27.6424839
20
19.8203901
11
29.1042839
21
19.8375901
0
LINE
8
DEFAULT_255_2_778
10
29.1042839
20
19.8375901
11
29.1042839
21
19.2956901
0
LINE
8
DEFAULT_255_2_778
10
29.1042839
20
19.2956901
11
27.6424839
21
19.2705901
0
LINE
8
DEFAULT_255_2_778
10
27.6424839
20
19.2705901
11
27.6424839
21
19.8206901
0
LINE
8
DEFAULT_255_2_778
10
27.6424839
20
19.8206901
11
27.6427839
21
19.9050901
0
LINE
8
DEFAULT_255_2_778
10
27.6427839
20
19.9050901
11
27.6424839
21
19.9433901
0
LINE
8
DEFAULT_255_2_778
10
27.6424839
20
19.9433901
11
29.1042839
21
19.9605901
0
LINE
8
DEFAULT_255_2_778
10
29.1042839
20
19.9605901
11
29.1042839
21
21.8187901
0
LINE
8
DEFAULT_255_2_778
10
29.1042839
20
21.8187901
11
27.6424839
21
21.8327901
0
LINE
8
DEFAULT_255_2_778
10
27.6424839
20
21.8327901
11
27.6429839
21
21.8812901
0
LINE
8
DEFAULT_255_2_778
10
27.6429839
20
21.8812901
11
27.6424839
21
21.9960901
0
LINE
8
DEFAULT_255_2_778
10
30.9039839
20
102.7410901
11
30.8799839
21
104.1081901
0
LINE
8
DEFAULT_255_2_778
10
30.4756839
20
104.5010901
11
29.6678839
21
104.5010901
0
LINE
8
DEFAULT_255_2_778
10
29.2632839
20
104.1010901
11
29.2632839
21
101.7025901
0
LINE
8
DEFAULT_255_2_778
10
31.7419839
20
105.6564901
11
29.2611839
21
105.6993901
0
LINE
8
DEFAULT_255_2_778
10
29.2611839
20
105.6993901
11
28.4523839
21
105.6993901
0
LINE
8
DEFAULT_255_2_778
10
28.0477839
20
105.2992901
11
28.0477839
21
101.9393901
0
LINE
8
DEFAULT_255_2_778
10
28.0477839
20
101.9393901
11
29.2611839
21
101.9393901
0
LINE
8
DEFAULT_255_2_778
10
30.8862839
20
103.6284901
11
32.1109839
21
103.6337901
0
LINE
8
DEFAULT_255_2_778
10
32.1395839
20
105.2564901
11
32.0951839
21
102.7394901
0
LINE
8
DEFAULT_255_2_778
10
32.0951839
20
102.7394901
11
30.7402839
21
102.7394901
0
LINE
8
DEFAULT_255_2_778
10
30.7402839
20
102.7394901
11
30.7161839
21
104.1065901
0
LINE
8
DEFAULT_255_2_778
10
30.7161839
20
104.1065901
11
30.8764839
21
104.1065901
0
LINE
8
DEFAULT_255_2_778
10
10.8281839
20
3.6199901
11
10.8279839
21
3.6215901
0
LINE
8
DEFAULT_255_2_778
10
10.8279839
20
3.6215901
11
10.8276839
21
3.6262901
0
LINE
8
DEFAULT_255_2_778
10
10.8276839
20
3.6262901
11
10.8273839
21
3.6342901
0
LINE
8
DEFAULT_255_2_778
10
10.8273839
20
3.6342901
11
10.8271839
21
3.6453901
0
LINE
8
DEFAULT_255_2_778
10
10.8271839
20
3.6453901
11
10.8268839
21
3.6762901
0
LINE
8
DEFAULT_255_2_778
10
10.8268839
20
3.6762901
11
10.8265839
21
3.7180901
0
LINE
8
DEFAULT_255_2_778
10
10.8265839
20
3.7180901
11
10.8273839
21
3.8945901
0
LINE
8
DEFAULT_255_2_778
10
10.8273839
20
3.8945901
11
10.8279839
21
3.9641901
0
LINE
8
DEFAULT_255_2_778
10
10.8279839
20
3.9641901
11
0.5372839
21
4.1416901
0
LINE
8
DEFAULT_255_2_778
10
0.5372839
20
4.1416901
11
0.5372839
21
77.7352901
0
LINE
8
DEFAULT_255_2_778
10
0.5372839
20
77.7352901
11
10.8279839
21
77.7106901
0
LINE
8
DEFAULT_255_2_778
10
10.8279839
20
77.7106901
11
10.8279839
21
3.9644901
0
LINE
8
DEFAULT_255_2_778
10
10.8279839
20
3.9644901
11
10.9604839
21
3.9694901
0
LINE
8
DEFAULT_255_2_778
10
11.0538839
20
3.9845901
11
11.0694839
21
3.9911901
0
LINE
8
DEFAULT_255_2_778
10
11.0694839
20
3.9911901
11
11.0747839
21
3.9977901
0
LINE
8
DEFAULT_255_2_778
10
11.0747839
20
21.1459901
11
11.4404839
21
21.1483901
0
LINE
8
DEFAULT_255_2_778
10
11.4404839
20
21.2440901
11
11.0747839
21
21.2409901
0
LINE
8
DEFAULT_255_2_778
10
11.4404839
20
21.4237901
11
11.0747839
21
21.4173901
0
LINE
8
DEFAULT_255_2_778
10
22.3825839
20
3.5395901
11
29.2611839
21
3.5395901
0
LINE
8
DEFAULT_255_2_778
10
22.3854839
20
3.5447901
11
22.3825839
21
5.4479901
0
LINE
8
DEFAULT_255_2_778
10
22.5415839
20
5.6080901
11
28.8497839
21
5.7170901
0
LINE
8
DEFAULT_255_2_778
10
29.1571839
20
5.2965901
11
29.0965839
21
5.2950901
0
LINE
8
DEFAULT_255_2_778
10
11.4414839
20
4.6348901
11
11.0747839
21
4.6285901
0
LINE
8
DEFAULT_255_2_778
10
11.4417839
20
8.2189901
11
11.0747839
21
8.2125901
0
LINE
8
DEFAULT_255_2_778
10
11.0747839
20
6.9663901
11
11.4404839
21
6.9854901
0
LINE
8
DEFAULT_255_2_778
10
11.4404839
20
8.6261901
11
11.0747839
21
8.6197901
0
LINE
8
DEFAULT_255_2_778
10
19.6914839
20
78.2191901
11
19.6914839
21
78.4602901
0
LINE
8
DEFAULT_255_2_778
10
14.9996839
20
78.2191901
11
14.9996839
21
78.4602901
0
LINE
8
DEFAULT_255_2_778
10
22.2396839
20
83.0203901
11
22.2393839
21
83.0195901
0
LINE
8
DEFAULT_255_2_778
10
22.2393839
20
83.0195901
11
22.2386839
21
83.0171901
0
LINE
8
DEFAULT_255_2_778
10
22.2386839
20
83.0171901
11
22.2372839
21
83.0134901
0
LINE
8
DEFAULT_255_2_778
10
22.2372839
20
83.0134901
11
22.2354839
21
83.0081901
0
LINE
8
DEFAULT_255_2_778
10
22.2354839
20
83.0081901
11
22.2304839
21
82.9930901
0
LINE
8
DEFAULT_255_2_778
10
22.2304839
20
82.9930901
11
22.2235839
21
82.9724901
0
LINE
8
DEFAULT_255_2_778
10
22.2235839
20
82.9724901
11
22.2148839
21
82.9462901
0
LINE
8
DEFAULT_255_2_778
10
22.2148839
20
82.9462901
11
22.2042839
21
82.9150901
0
LINE
8
DEFAULT_255_2_778
10
22.2042839
20
82.9150901
11
22.1782839
21
82.8388901
0
LINE
8
DEFAULT_255_2_778
10
22.1782839
20
82.8388901
11
22.1473839
21
82.7475901
0
LINE
8
DEFAULT_255_2_778
10
22.1473839
20
82.7475901
11
22.1126839
21
82.6448901
0
LINE
8
DEFAULT_255_2_778
10
22.1126839
20
82.6448901
11
22.0758839
21
82.5342901
0
LINE
8
DEFAULT_255_2_778
10
22.0758839
20
82.5342901
11
22.0372839
21
82.4202901
0
LINE
8
DEFAULT_255_2_778
10
22.0372839
20
82.4202901
11
22.0372839
21
79.0603901
0
LINE
8
DEFAULT_255_2_778
10
22.0372839
20
79.0603901
11
22.1584839
21
78.7004901
0
LINE
8
DEFAULT_255_2_778
10
22.1584839
20
78.7004901
11
22.2028839
21
78.5697901
0
LINE
8
DEFAULT_255_2_778
10
22.2028839
20
78.5697901
11
22.2304839
21
78.4882901
0
LINE
8
DEFAULT_255_2_778
10
22.2304839
20
78.4882901
11
22.2396839
21
78.4602901
0
LINE
8
DEFAULT_255_2_778
10
22.2396839
20
78.4602901
11
12.4514839
21
78.4602901
0
LINE
8
DEFAULT_255_2_778
10
12.0463839
20
82.6202901
11
12.0463839
21
78.8602901
0
LINE
8
DEFAULT_255_2_778
10
12.0463839
20
78.8602901
11
12.6530839
21
79.0603901
0
LINE
8
DEFAULT_255_2_778
10
12.6530839
20
79.0603901
11
22.0367839
21
79.0603901
0
LINE
8
DEFAULT_255_2_778
10
22.0367839
20
79.0603901
11
22.2391839
21
78.4602901
0
LINE
8
DEFAULT_255_2_778
10
22.6431839
20
78.8600901
11
22.6431839
21
82.6194901
0
LINE
8
DEFAULT_255_2_778
10
22.6431839
20
82.6194901
11
22.0364839
21
82.4194901
0
LINE
8
DEFAULT_255_2_778
10
22.0364839
20
82.4194901
11
12.6538839
21
82.4194901
0
LINE
8
DEFAULT_255_2_778
10
12.6538839
20
82.4194901
11
12.4516839
21
83.0195901
0
LINE
8
DEFAULT_255_2_778
10
12.4516839
20
83.0195901
11
22.2396839
21
83.0195901
0
LINE
8
DEFAULT_255_2_778
10
12.0473839
20
81.7103901
11
11.0750839
21
81.7270901
0
LINE
8
DEFAULT_255_2_778
10
12.0473839
20
81.9254901
11
11.0750839
21
81.9339901
0
LINE
8
DEFAULT_255_2_778
10
11.0750839
20
82.0940901
11
12.0473839
21
82.0855901
0
LINE
8
DEFAULT_255_2_778
10
29.2614839
20
5.9554901
11
29.2577839
21
5.9479901
0
LINE
8
DEFAULT_255_2_778
10
28.8743839
20
5.8329901
11
28.8695839
21
5.7860901
0
LINE
8
DEFAULT_255_2_778
10
28.8695839
20
5.7860901
11
28.8635839
21
5.7490901
0
LINE
8
DEFAULT_255_2_778
10
28.8635839
20
5.7490901
11
28.8569839
21
5.7252901
0
LINE
8
DEFAULT_255_2_778
10
28.8500839
20
5.7170901
11
28.8494839
21
5.7133901
0
LINE
8
DEFAULT_255_2_778
10
28.8494839
20
5.7133901
11
28.8489839
21
5.7027901
0
LINE
8
DEFAULT_255_2_778
10
28.8489839
20
5.7027901
11
28.8486839
21
5.6855901
0
LINE
8
DEFAULT_255_2_778
10
28.8486839
20
5.6855901
11
28.8486839
21
5.6619901
0
LINE
8
DEFAULT_255_2_778
10
28.8486839
20
5.6619901
11
28.8486839
21
5.6326901
0
LINE
8
DEFAULT_255_2_778
10
28.8486839
20
5.6326901
11
28.8489839
21
5.5998901
0
LINE
8
DEFAULT_255_2_778
10
28.8489839
20
5.5998901
11
28.8500839
21
5.5347901
0
LINE
8
DEFAULT_255_2_778
10
11.0747839
20
77.7667901
11
11.0700839
21
77.7604901
0
LINE
8
DEFAULT_255_2_778
10
11.0022839
20
77.7490901
11
10.9221839
21
77.7453901
0
LINE
8
DEFAULT_255_2_778
10
10.9221839
20
77.7453901
11
10.8276839
21
77.7440901
0
LINE
8
DEFAULT_255_2_778
10
11.0745839
20
77.7498901
11
11.0697839
21
77.7432901
0
LINE
8
DEFAULT_255_2_778
10
11.0020839
20
77.7260901
11
10.9218839
21
77.7188901
0
LINE
8
DEFAULT_255_2_778
10
10.9218839
20
77.7188901
11
10.8273839
21
77.7164901
0
LINE
8
DEFAULT_255_2_778
10
10.8273839
20
77.7164901
11
10.8273839
21
82.8509901
0
LINE
8
DEFAULT_255_2_778
10
10.9231839
20
3.7321901
11
10.8985839
21
3.7257901
0
LINE
8
DEFAULT_255_2_778
10
22.5436839
20
76.8449901
11
22.5434839
21
76.8438901
0
LINE
8
DEFAULT_255_2_778
10
22.5434839
20
76.8438901
11
22.5431839
21
76.8412901
0
LINE
8
DEFAULT_255_2_778
10
22.5431839
20
76.8412901
11
22.5428839
21
76.8367901
0
LINE
8
DEFAULT_255_2_778
10
22.5428839
20
76.8367901
11
22.5426839
21
76.8304901
0
LINE
8
DEFAULT_255_2_778
10
22.5426839
20
76.8304901
11
22.5423839
21
76.8129901
0
LINE
8
DEFAULT_255_2_778
10
22.5423839
20
76.8129901
11
22.5423839
21
76.7896901
0
LINE
8
DEFAULT_255_2_778
10
22.5423839
20
76.7896901
11
22.5423839
21
76.7616901
0
LINE
8
DEFAULT_255_2_778
10
22.5423839
20
76.7616901
11
22.5426839
21
76.7301901
0
LINE
8
DEFAULT_255_2_778
10
22.5426839
20
76.7301901
11
22.5436839
21
76.6623901
0
LINE
8
DEFAULT_255_2_778
10
22.5436839
20
76.6623901
11
22.4825839
21
76.6642901
0
LINE
8
DEFAULT_255_2_778
10
22.4825839
20
76.6642901
11
22.4309839
21
76.6690901
0
LINE
8
DEFAULT_255_2_778
10
22.3965839
20
76.6761901
11
22.3875839
21
76.6803901
0
LINE
8
DEFAULT_255_2_778
10
22.3875839
20
76.6803901
11
22.3843839
21
76.6846901
0
LINE
8
DEFAULT_255_2_778
10
22.5434839
20
76.8446901
11
25.6525839
21
76.8983901
0
LINE
8
DEFAULT_255_2_778
10
25.6525839
20
76.8983901
11
29.1013839
21
76.8388901
0
LINE
8
DEFAULT_255_2_778
10
29.2603839
20
83.4285901
11
29.2603839
21
77.5217901
0
LINE
8
DEFAULT_255_2_778
10
28.8770839
20
77.1222901
11
25.8382839
21
76.9648901
0
LINE
8
DEFAULT_255_2_778
10
25.8382839
20
76.9648901
11
22.3843839
21
77.0243901
0
LINE
8
DEFAULT_255_2_778
10
22.3843839
20
83.2401901
11
29.2603839
21
83.2431901
0
LINE
8
DEFAULT_255_2_778
10
28.0467839
20
3.1389901
11
28.0467839
21
0.1790901
0
LINE
8
DEFAULT_255_2_778
10
28.4512839
20
-0.2210099
11
29.2601839
21
-0.2210099
0
LINE
8
DEFAULT_255_2_778
10
29.2601839
20
-0.2210099
11
31.7411839
21
-0.1781099
0
LINE
8
DEFAULT_255_2_778
10
32.1083839
20
1.9390901
11
30.8870839
21
1.9390901
0
LINE
8
DEFAULT_255_2_778
10
22.4650839
20
3.5389901
11
1.7304839
21
3.5389901
0
LINE
8
DEFAULT_255_2_778
10
1.3262839
20
3.1460901
11
1.2907839
21
1.1391901
0
LINE
8
DEFAULT_255_2_778
10
1.2907839
20
1.1391901
11
0.1395839
21
1.1391901
0
LINE
8
DEFAULT_255_2_778
10
0.1395839
20
1.1391901
11
0.1395839
21
104.3393901
0
LINE
8
DEFAULT_255_2_778
10
0.1395839
20
104.3393901
11
1.3529839
21
104.3393901
0
LINE
8
DEFAULT_255_2_778
10
1.3529839
20
104.3393901
11
1.3529839
21
101.9393901
0
LINE
8
DEFAULT_255_2_778
10
1.3529839
20
101.9393901
11
0.1395839
21
101.9393901
0
LINE
8
DEFAULT_255_2_778
10
0.1395839
20
1.9961901
11
1.3058839
21
1.9964901
0
LINE
8
DEFAULT_255_2_778
10
22.0372839
20
4.5703901
11
22.0372839
21
78.0583901
0
LINE
8
DEFAULT_255_2_778
10
21.8755839
20
78.2184901
11
11.6020839
21
78.2184901
0
LINE
8
DEFAULT_255_2_778
10
11.4404839
20
78.0583901
11
11.4404839
21
4.5703901
0
LINE
8
DEFAULT_255_2_778
10
11.6020839
20
4.4102901
11
21.8755839
21
4.4102901
0
LINE
8
DEFAULT_255_2_778
10
16.5344839
20
78.2184901
11
16.5344839
21
4.4105901
0
LINE
8
DEFAULT_255_2_778
10
11.4404839
20
45.3785901
11
22.0375839
21
45.3785901
0
LINE
8
DEFAULT_255_2_778
10
11.4404839
20
45.5370901
11
22.0375839
21
45.5370901
0
LINE
8
DEFAULT_255_2_778
10
22.5442839
20
5.8323901
11
22.5439839
21
5.8350901
0
LINE
8
DEFAULT_255_2_778
10
22.5439839
20
5.8350901
11
22.5436839
21
5.8426901
0
LINE
8
DEFAULT_255_2_778
10
22.5436839
20
5.8426901
11
22.5436839
21
5.8551901
0
LINE
8
DEFAULT_255_2_778
10
22.5436839
20
5.8551901
11
22.5436839
21
5.8717901
0
LINE
8
DEFAULT_255_2_778
10
22.5436839
20
5.8717901
11
22.5436839
21
5.8924901
0
LINE
8
DEFAULT_255_2_778
10
22.5436839
20
5.8924901
11
22.5436839
21
5.9162901
0
LINE
8
DEFAULT_255_2_778
10
22.5436839
20
5.9162901
11
22.5444839
21
5.9702901
0
LINE
8
DEFAULT_255_2_778
10
22.5444839
20
5.9702901
11
22.4833839
21
5.9720901
0
LINE
8
DEFAULT_255_2_778
10
22.4833839
20
5.9720901
11
22.4317839
21
5.9768901
0
LINE
8
DEFAULT_255_2_778
10
22.3973839
20
5.9839901
11
22.3883839
21
5.9882901
0
LINE
8
DEFAULT_255_2_778
10
22.3883839
20
5.9882901
11
22.3851839
21
5.9924901
0
LINE
8
DEFAULT_255_2_778
10
22.5442839
20
5.8323901
11
25.6533839
21
5.7786901
0
LINE
8
DEFAULT_255_2_778
10
25.6533839
20
5.7786901
11
29.1021839
21
5.8381901
0
LINE
8
DEFAULT_255_2_778
10
29.2611839
20
5.9982901
11
29.2580839
21
5.9940901
0
LINE
8
DEFAULT_255_2_778
10
29.2580839
20
5.9940901
11
29.2490839
21
5.9897901
0
LINE
8
DEFAULT_255_2_778
10
29.2146839
20
5.9826901
11
29.1630839
21
5.9778901
0
LINE
8
DEFAULT_255_2_778
10
29.1630839
20
5.9778901
11
29.1018839
21
5.9760901
0
LINE
8
DEFAULT_255_2_778
10
29.1018839
20
5.9760901
11
29.1026839
21
5.9220901
0
LINE
8
DEFAULT_255_2_778
10
29.1026839
20
5.9220901
11
29.1026839
21
5.8982901
0
LINE
8
DEFAULT_255_2_778
10
29.1026839
20
5.8982901
11
29.1026839
21
5.8776901
0
LINE
8
DEFAULT_255_2_778
10
29.1026839
20
5.8776901
11
29.1026839
21
5.8609901
0
LINE
8
DEFAULT_255_2_778
10
29.1026839
20
5.8609901
11
29.1026839
21
5.8485901
0
LINE
8
DEFAULT_255_2_778
10
29.1026839
20
5.8485901
11
29.1024839
21
5.8408901
0
LINE
8
DEFAULT_255_2_778
10
29.1024839
20
5.8408901
11
29.1021839
21
5.8381901
0
LINE
8
DEFAULT_255_2_778
10
11.4404839
20
12.8665901
11
22.0375839
21
12.8665901
0
LINE
8
DEFAULT_255_2_778
10
11.4404839
20
13.0250901
11
22.0375839
21
13.0250901
0
LINE
8
DEFAULT_255_2_778
10
11.0747839
20
27.0993901
11
11.4404839
21
27.0929901
0
LINE
8
DEFAULT_255_2_778
10
11.4404839
20
27.4128901
11
11.0747839
21
27.4191901
0
LINE
8
DEFAULT_255_2_778
10
30.8764839
20
1.3722901
11
30.7161839
21
1.3722901
0
LINE
8
DEFAULT_255_2_778
10
30.7161839
20
1.3722901
11
30.7402839
21
2.7393901
0
LINE
8
DEFAULT_255_2_778
10
30.7402839
20
2.7393901
11
32.0951839
21
2.7393901
0
LINE
8
DEFAULT_255_2_778
10
32.0951839
20
2.7393901
11
32.1395839
21
0.2224901
0
LINE
8
DEFAULT_255_2_778
10
29.2611839
20
18.2786901
11
29.2611839
21
1.3794901
0
LINE
8
DEFAULT_255_2_778
10
29.6657839
20
0.9793901
11
30.4735839
21
0.9793901
0
LINE
8
DEFAULT_255_2_778
10
30.8777839
20
1.3722901
11
30.9018839
21
2.7393901
0
LINE
8
DEFAULT_255_2_778
10
29.2611839
20
46.7266901
11
29.2611839
21
23.5184901
0
LINE
8
DEFAULT_255_2_778
10
29.2611839
20
77.3847901
11
29.2611839
21
51.9664901
0
LINE
8
DEFAULT_255_2_778
10
27.6403839
20
17.9304901
11
27.6408839
21
17.8156901
0
LINE
8
DEFAULT_255_2_778
10
27.6408839
20
17.8156901
11
27.6403839
21
17.7671901
0
LINE
8
DEFAULT_255_2_778
10
27.6403839
20
17.7671901
11
29.1021839
21
17.7531901
0
LINE
8
DEFAULT_255_2_778
10
29.1021839
20
17.7531901
11
29.1021839
21
5.9757901
0
LINE
8
DEFAULT_255_2_778
10
29.1021839
20
5.9757901
11
26.0578839
21
5.9231901
0
LINE
8
DEFAULT_255_2_778
10
27.4815839
20
52.1008901
11
27.4784839
21
52.0966901
0
LINE
8
DEFAULT_255_2_778
10
27.4784839
20
52.0966901
11
27.4694839
21
52.0923901
0
LINE
8
DEFAULT_255_2_778
10
27.4350839
20
52.0852901
11
27.3834839
21
52.0804901
0
LINE
8
DEFAULT_255_2_778
10
27.3834839
20
52.0804901
11
27.3225839
21
52.0786901
0
LINE
8
DEFAULT_255_2_778
10
27.3225839
20
52.0786901
11
27.3225839
21
50.6138901
0
LINE
8
DEFAULT_255_2_778
10
27.3225839
20
50.6138901
11
27.3834839
21
50.6157901
0
LINE
8
DEFAULT_255_2_778
10
27.3834839
20
50.6157901
11
27.4350839
21
50.6205901
0
LINE
8
DEFAULT_255_2_778
10
27.4694839
20
50.6276901
11
27.4784839
21
50.6318901
0
LINE
8
DEFAULT_255_2_778
10
27.4784839
20
50.6318901
11
27.4815839
21
50.6361901
0
LINE
8
DEFAULT_255_2_778
10
27.4815839
20
50.6361901
11
27.4815839
21
52.1008901
0
LINE
8
DEFAULT_255_2_778
10
27.6405839
20
52.3313901
11
27.6408839
21
52.4157901
0
LINE
8
DEFAULT_255_2_778
10
27.6408839
20
52.4157901
11
27.6405839
21
52.4540901
0
LINE
8
DEFAULT_255_2_778
10
27.6405839
20
52.4540901
11
29.1024839
21
52.4712901
0
LINE
8
DEFAULT_255_2_778
10
29.1024839
20
52.4712901
11
29.1024839
21
76.6570901
0
LINE
8
DEFAULT_255_2_778
10
29.1024839
20
76.6570901
11
26.0581839
21
76.7097901
0
LINE
8
DEFAULT_255_2_778
10
22.7799839
20
3.5392901
11
22.7799839
21
5.4294901
0
LINE
8
DEFAULT_255_2_778
10
22.7799839
20
5.4294901
11
28.8497839
21
5.5341901
0
LINE
8
DEFAULT_255_2_778
10
29.0968839
20
5.2934901
11
29.0968839
21
3.5392901
0
LINE
8
DEFAULT_255_2_778
10
22.3851839
20
78.4880901
11
22.3851839
21
5.4577901
0
LINE
8
DEFAULT_255_2_778
10
22.3851839
20
83.2388901
11
22.3851839
21
82.9909901
0
LINE
8
DEFAULT_255_2_778
10
21.6329839
20
45.5368901
11
21.6329839
21
78.2184901
0
LINE
8
DEFAULT_255_2_778
10
15.9835839
20
45.5368901
11
15.9835839
21
45.3783901
0
LINE
8
DEFAULT_255_2_778
10
15.3165839
20
45.3783901
11
15.3165839
21
45.5368901
0
LINE
8
DEFAULT_255_2_778
10
12.0106839
20
45.3783901
11
12.0106839
21
45.5368901
0
LINE
8
DEFAULT_255_2_778
10
15.9835839
20
13.0248901
11
15.9835839
21
12.8663901
0
LINE
8
DEFAULT_255_2_778
10
15.3165839
20
12.8663901
11
15.3165839
21
13.0248901
0
LINE
8
DEFAULT_255_2_778
10
12.0106839
20
12.8663901
11
12.0106839
21
13.0248901
0
LINE
8
DEFAULT_255_2_778
10
27.6403839
20
24.0060901
11
29.1021839
21
24.0232901
0
LINE
8
DEFAULT_255_2_778
10
29.1021839
20
24.0232901
11
29.1021839
21
46.2014901
0
LINE
8
DEFAULT_255_2_778
10
29.1021839
20
46.2014901
11
27.6403839
21
46.2154901
0
LINE
8
DEFAULT_255_2_778
10
27.6403839
20
46.2154901
11
27.6408839
21
46.2638901
0
LINE
8
DEFAULT_255_2_778
10
27.6408839
20
46.2638901
11
27.6403839
21
46.3787901
0
LINE
8
DEFAULT_255_2_778
10
27.4815839
20
46.5726901
11
27.4815839
21
48.0373901
0
LINE
8
DEFAULT_255_2_778
10
27.6405839
20
48.2678901
11
27.6408839
21
48.3522901
0
LINE
8
DEFAULT_255_2_778
10
27.6408839
20
48.3522901
11
27.6405839
21
48.3905901
0
LINE
8
DEFAULT_255_2_778
10
11.8449839
20
12.8671901
11
11.8449839
21
4.4110901
0
LINE
8
DEFAULT_255_2_778
10
11.8449839
20
45.3791901
11
11.8449839
21
13.0256901
0
LINE
8
DEFAULT_255_2_778
10
11.8449839
20
78.2191901
11
11.8449839
21
45.5376901
0
LINE
8
DEFAULT_255_2_778
10
1.9178839
20
83.0047901
11
1.9178839
21
83.2288901
0
LINE
8
DEFAULT_255_2_778
10
1.7574839
20
83.2288901
11
1.7574839
21
83.0076901
0
LINE
8
DEFAULT_255_2_778
10
1.3166839
20
1.1394901
11
1.5145839
21
1.1394901
0
LINE
8
DEFAULT_255_2_778
10
1.5145839
20
1.1394901
11
1.5145839
21
3.1722901
0
LINE
8
DEFAULT_255_2_778
10
1.5145839
20
3.1722901
11
1.5383839
21
3.3090901
0
LINE
8
DEFAULT_255_2_778
10
1.5383839
20
3.3090901
11
1.6233839
21
3.4458901
0
LINE
8
DEFAULT_255_2_778
10
1.6233839
20
3.4458901
11
1.7394839
21
3.5270901
0
LINE
8
DEFAULT_255_2_778
10
11.0747839
20
73.6715901
11
11.4404839
21
73.6778901
0
LINE
8
DEFAULT_255_2_778
10
11.0747839
20
77.7720901
11
10.8279839
21
77.7720901
0
LINE
8
DEFAULT_255_2_778
10
10.8279839
20
77.7720901
11
0.5147839
21
77.7844901
0
LINE
8
DEFAULT_255_2_778
10
0.5147839
20
77.7844901
11
0.5372839
21
77.7310901
0
LINE
8
DEFAULT_255_2_778
10
0.5089839
20
77.7405901
11
0.4811839
21
77.7514901
0
LINE
8
DEFAULT_255_2_778
10
0.1543839
20
78.5935901
11
0.1395839
21
78.9031901
0
LINE
8
DEFAULT_255_2_778
10
0.1395839
20
78.9031901
11
0.3779839
21
78.9031901
0
LINE
8
DEFAULT_255_2_778
10
0.3779839
20
78.9031901
11
0.3779839
21
83.0314901
0
LINE
8
DEFAULT_255_2_778
10
0.1395839
20
83.0354901
11
11.0747839
21
82.8467901
0
LINE
8
DEFAULT_255_2_778
10
11.0747839
20
82.8467901
11
11.0747839
21
3.8596901
0
LINE
8
DEFAULT_255_2_778
10
10.8281839
20
3.6199901
11
0.5372839
21
3.7974901
0
LINE
8
DEFAULT_255_2_778
10
0.2557839
20
4.1583901
11
0.3845839
21
4.1461901
0
LINE
8
DEFAULT_255_2_778
10
0.3845839
20
4.1461901
11
0.5372839
21
4.1416901
0
LINE
8
DEFAULT_255_2_778
10
0.5372839
20
4.1416901
11
0.5356839
21
4.0064901
0
LINE
8
DEFAULT_255_2_778
10
0.5356839
20
4.0064901
11
0.5351839
21
3.9469901
0
LINE
8
DEFAULT_255_2_778
10
0.5351839
20
3.9469901
11
0.5348839
21
3.8953901
0
LINE
8
DEFAULT_255_2_778
10
0.5348839
20
3.8953901
11
0.5351839
21
3.8535901
0
LINE
8
DEFAULT_255_2_778
10
0.5351839
20
3.8535901
11
0.5356839
21
3.8226901
0
LINE
8
DEFAULT_255_2_778
10
0.5356839
20
3.8226901
11
0.5358839
21
3.8114901
0
LINE
8
DEFAULT_255_2_778
10
0.5358839
20
3.8114901
11
0.5361839
21
3.8035901
0
LINE
8
DEFAULT_255_2_778
10
0.5361839
20
3.8035901
11
0.5366839
21
3.7987901
0
LINE
8
DEFAULT_255_2_778
10
0.5366839
20
3.7987901
11
0.5372839
21
3.7971901
0
LINE
8
DEFAULT_255_2_778
10
29.2611839
20
83.0835901
11
22.3878839
21
82.9904901
0
LINE
8
DEFAULT_255_2_778
10
28.0491839
20
83.2306901
11
0.3432839
21
83.2288901
0
LINE
8
DEFAULT_255_2_778
10
0.3432839
20
83.2288901
11
0.3575839
21
83.2428901
0
LINE
8
DEFAULT_255_2_778
10
0.3575839
20
83.2428901
11
29.0463839
21
83.2428901
0
LINE
8
DEFAULT_255_2_778
10
29.0463839
20
83.2428901
11
29.0463839
21
83.4029901
0
LINE
8
DEFAULT_255_2_778
10
29.0463839
20
83.4029901
11
0.3573839
21
83.4029901
0
LINE
8
DEFAULT_255_2_778
10
0.3573839
20
83.4029901
11
0.3573839
21
83.2428901
0
LINE
8
DEFAULT_255_2_778
10
0.1551839
20
83.4428901
11
0.1551839
21
101.6866901
0
LINE
8
DEFAULT_255_2_778
10
0.3573839
20
101.8867901
11
0.3573839
21
101.7266901
0
LINE
8
DEFAULT_255_2_778
10
0.3573839
20
101.7266901
11
29.0460839
21
101.7266901
0
LINE
8
DEFAULT_255_2_778
10
29.0460839
20
101.7266901
11
29.0460839
21
101.8867901
0
LINE
8
DEFAULT_255_2_778
10
29.2482839
20
101.6866901
11
29.2482839
21
83.4426901
0
LINE
8
DEFAULT_255_2_778
10
0.3168839
20
83.4426901
11
0.3168839
21
101.6866901
0
LINE
8
DEFAULT_255_2_778
10
0.3168839
20
101.6866901
11
0.1551839
21
101.6866901
0
LINE
8
DEFAULT_255_2_778
10
0.1551839
20
101.6866901
11
0.1408839
21
101.7007901
0
LINE
8
DEFAULT_255_2_778
10
0.1408839
20
101.7007901
11
0.1408839
21
83.4285901
0
LINE
8
DEFAULT_255_2_778
10
0.1408839
20
83.4285901
11
0.1551839
21
83.4426901
0
LINE
8
DEFAULT_255_2_778
10
0.1551839
20
83.4426901
11
0.3168839
21
83.4426901
0
LINE
8
DEFAULT_255_2_778
10
29.2624839
20
83.4285901
11
29.2624839
21
101.7007901
0
LINE
8
DEFAULT_255_2_778
10
29.2624839
20
101.7007901
11
29.2482839
21
101.6866901
0
LINE
8
DEFAULT_255_2_778
10
29.2482839
20
101.6866901
11
29.0865839
21
101.6866901
0
LINE
8
DEFAULT_255_2_778
10
29.0865839
20
101.6866901
11
29.0865839
21
83.4426901
0
LINE
8
DEFAULT_255_2_778
10
29.0865839
20
83.4426901
11
29.2482839
21
83.4426901
0
LINE
8
DEFAULT_255_2_778
10
29.2482839
20
83.4426901
11
29.2624839
21
83.4285901
0
LINE
8
DEFAULT_255_2_778
10
28.0491839
20
101.8999901
11
29.0603839
21
101.9004901
0
LINE
8
DEFAULT_255_2_778
10
29.0603839
20
101.9004901
11
29.0460839
21
101.8864901
0
LINE
8
DEFAULT_255_2_778
10
29.0460839
20
101.8864901
11
0.3573839
21
101.8864901
0
LINE
8
DEFAULT_255_2_778
10
0.3573839
20
101.8864901
11
0.3430839
21
101.9004901
0
LINE
8
DEFAULT_255_2_778
10
0.3430839
20
101.9004901
11
28.0491839
21
101.8999901
0
ENDSEC
0
EOF