0
SECTION
2
HEADER
9
$MEASUREMENT
70
1
0
ENDSEC
0
SECTION
2
TABLES
0
TABLE
2
LTYPE
0
LTYPE
72
65
70
64
2
CONTINUOUS
3
______
73
0
40
0
0
ENDTAB
0
TABLE
2
LAYER
0
LAYER
2
DEFAULT_255_2_778
70
0
62
255
6
CONTINUOUS
0
ENDTAB
0
ENDSEC
0
SECTION
2
ENTITIES
0
ARC
8
DEFAULT_255_2_778
10
67.4386981
20
12.1490824
40
0.3622493
50
269.1029368
51
350.5454558
0
ARC
8
DEFAULT_255_2_778
10
9.7635672
20
46.4730595
40
0.2100852
50
270.0000528
51
270.3162193
0
ARC
8
DEFAULT_255_2_778
10
9.7636374
20
46.4691418
40
0.2061676
50
226.4255667
51
269.9805623
0
ARC
8
DEFAULT_255_2_778
10
9.7530279
20
46.4578893
40
0.1907026
50
180.2138824
51
226.4045564
0
ARC
8
DEFAULT_255_2_778
10
14.6289268
20
46.4859829
40
0.2963104
50
270.3287011
51
291.3342038
0
ARC
8
DEFAULT_255_2_778
10
14.6350794
20
46.470284
40
0.2794489
50
291.3301993
51
313.4399551
0
ARC
8
DEFAULT_255_2_778
10
14.6441244
20
46.4611707
40
0.2666127
50
313.3751985
51
336.3401538
0
ARC
8
DEFAULT_255_2_778
10
14.6493895
20
46.4577966
40
0.260438
50
336.5552176
51
359.8637806
0
ARC
8
DEFAULT_255_2_778
10
14.6338862
20
46.4730595
40
0.2100852
50
269.6837807
51
269.9999472
0
ARC
8
DEFAULT_255_2_778
10
14.633816
20
46.4691418
40
0.2061676
50
270.0194377
51
313.5744333
0
ARC
8
DEFAULT_255_2_778
10
14.6440332
20
46.4581974
40
0.1911961
50
313.6169211
51
359.6943598
0
ARC
8
DEFAULT_255_2_778
10
14.6445225
20
51.1769567
40
0.1904055
50
313.5156927
51
359.7955881
0
ARC
8
DEFAULT_255_2_778
10
14.6335395
20
51.1881831
40
0.2061091
50
270.0401277
51
313.5809609
0
ARC
8
DEFAULT_255_2_778
10
14.633684
20
51.1913341
40
0.2092599
50
269.6831254
51
269.9999475
0
ARC
8
DEFAULT_255_2_778
10
9.7632673
20
51.1921566
40
0.2100824
50
270.0000533
51
270.3162199
0
ARC
8
DEFAULT_255_2_778
10
9.7633419
20
51.1880032
40
0.205929
50
226.3990584
51
269.9792809
0
ARC
8
DEFAULT_255_2_778
10
9.7524298
20
51.1769564
40
0.1904043
50
180.2043077
51
226.484497
0
ARC
8
DEFAULT_255_2_778
10
14.6286476
20
51.2054974
40
0.2967253
50
270.3435393
51
291.3193377
0
ARC
8
DEFAULT_255_2_778
10
14.6337068
20
51.1912325
40
0.2815976
50
291.4156193
51
313.3545628
0
ARC
8
DEFAULT_255_2_778
10
14.6413925
20
51.1820529
40
0.2696476
50
313.506164
51
336.2091917
0
ARC
8
DEFAULT_255_2_778
10
14.6505619
20
51.1763588
40
0.2589648
50
336.5435784
51
359.9820069
0
ARC
8
DEFAULT_255_2_778
10
9.6602476
20
41.1244756
40
0.1752227
50
133.5475905
51
179.7378011
0
ARC
8
DEFAULT_255_2_778
10
9.6710454
20
41.1126299
40
0.191248
50
90.0322405
51
133.4472421
0
LINE
8
DEFAULT_255_2_778
10
9.6709378
20
41.3038778
11
9.6713267
21
41.3038774
0
LINE
8
DEFAULT_255_2_778
10
9.6715267
20
40.1430774
11
9.6711378
21
40.1430771
0
ARC
8
DEFAULT_255_2_778
10
9.6711766
20
40.3339018
40
0.1908248
50
226.5021612
51
269.9883354
0
ARC
8
DEFAULT_255_2_778
10
9.6597625
20
40.3221403
40
0.1744364
50
180.1520177
51
226.5625906
0
ARC
8
DEFAULT_255_2_778
10
9.6595936
20
42.5313875
40
0.1742673
50
133.4135613
51
179.8718026
0
ARC
8
DEFAULT_255_2_778
10
9.6709951
20
42.5200079
40
0.19037
50
89.9576902
51
133.5524422
0
LINE
8
DEFAULT_255_2_778
10
9.6711357
20
42.7103778
11
9.6715267
21
42.7103774
0
ARC
8
DEFAULT_255_2_778
10
9.670946
20
41.6745457
40
0.1248696
50
269.9113165
51
270.2664542
0
ARC
8
DEFAULT_255_2_778
10
9.6708553
20
41.7399563
40
0.1902804
50
226.4800032
51
269.9691226
0
ARC
8
DEFAULT_255_2_778
10
9.659817
20
41.7286635
40
0.1744908
50
180.1267616
51
226.5548471
0
ARC
8
DEFAULT_255_2_778
10
9.6594259
20
43.93796
40
0.1740994
50
133.3898538
51
179.8955378
0
ARC
8
DEFAULT_255_2_778
10
9.6708193
20
43.9269519
40
0.1899272
50
90.0200661
51
133.6062773
0
ARC
8
DEFAULT_255_2_778
10
9.670946
20
43.9920116
40
0.1248676
50
89.7335458
51
90.0886835
0
ARC
8
DEFAULT_255_2_778
10
9.670946
20
43.0810433
40
0.1248672
50
269.9113165
51
270.2664542
0
ARC
8
DEFAULT_255_2_778
10
9.6708193
20
43.146103
40
0.1899271
50
226.3937227
51
269.9799339
0
ARC
8
DEFAULT_255_2_778
10
9.6594259
20
43.1350949
40
0.1740994
50
180.1044622
51
226.6101462
0
ARC
8
DEFAULT_255_2_778
10
9.6598176
20
45.3443912
40
0.1744913
50
133.4452494
51
179.8731631
0
ARC
8
DEFAULT_255_2_778
10
9.6708553
20
45.3330986
40
0.1902804
50
90.0308774
51
133.5199968
0
ARC
8
DEFAULT_255_2_778
10
9.670946
20
45.3985092
40
0.1248699
50
89.7335458
51
90.0886835
0
LINE
8
DEFAULT_255_2_778
10
9.6715267
20
44.3626774
11
9.6711357
21
44.362677
0
ARC
8
DEFAULT_255_2_778
10
9.6709951
20
44.553047
40
0.19037
50
226.4475578
51
270.0423098
0
ARC
8
DEFAULT_255_2_778
10
9.6595945
20
44.5416677
40
0.1742682
50
180.1282913
51
226.5862893
0
ARC
8
DEFAULT_255_2_778
10
9.6594259
20
34.09546
40
0.1740994
50
133.3898538
51
179.8955378
0
ARC
8
DEFAULT_255_2_778
10
9.6708193
20
34.0844519
40
0.1899272
50
90.0200661
51
133.6062773
0
ARC
8
DEFAULT_255_2_778
10
9.670946
20
34.1495116
40
0.1248676
50
89.7335458
51
90.0886835
0
ARC
8
DEFAULT_255_2_778
10
9.670946
20
33.2385433
40
0.1248672
50
269.9113165
51
270.2664542
0
ARC
8
DEFAULT_255_2_778
10
9.6708193
20
33.303603
40
0.1899271
50
226.3937227
51
269.9799339
0
ARC
8
DEFAULT_255_2_778
10
9.6594259
20
33.2925949
40
0.1740994
50
180.1044622
51
226.6101462
0
ARC
8
DEFAULT_255_2_778
10
9.6594259
20
35.50196
40
0.1740994
50
133.3898538
51
179.8955378
0
ARC
8
DEFAULT_255_2_778
10
9.6708193
20
35.4909519
40
0.1899272
50
90.0200661
51
133.6062773
0
ARC
8
DEFAULT_255_2_778
10
9.670946
20
35.5560116
40
0.1248676
50
89.7335458
51
90.0886835
0
LINE
8
DEFAULT_255_2_778
10
9.6715267
20
34.5201774
11
9.6711357
21
34.520177
0
ARC
8
DEFAULT_255_2_778
10
9.6709951
20
34.710547
40
0.19037
50
226.4475578
51
270.0423098
0
ARC
8
DEFAULT_255_2_778
10
9.659594
20
34.6991675
40
0.1742677
50
180.1282256
51
226.5863586
0
ARC
8
DEFAULT_255_2_778
10
9.6597625
20
36.9084146
40
0.1744364
50
133.4374094
51
179.8479823
0
ARC
8
DEFAULT_255_2_778
10
9.6711766
20
36.8966531
40
0.1908248
50
90.0116646
51
133.4978388
0
LINE
8
DEFAULT_255_2_778
10
9.6711378
20
37.0874778
11
9.6715267
21
37.0874774
0
LINE
8
DEFAULT_255_2_778
10
9.6715267
20
35.9266774
11
9.6711378
21
35.9266771
0
ARC
8
DEFAULT_255_2_778
10
9.6711766
20
36.1175018
40
0.1908248
50
226.5021612
51
269.9883354
0
ARC
8
DEFAULT_255_2_778
10
9.6597625
20
36.1057403
40
0.1744364
50
180.1520177
51
226.5625906
0
ARC
8
DEFAULT_255_2_778
10
9.6597625
20
38.3149146
40
0.1744364
50
133.4374094
51
179.8479823
0
ARC
8
DEFAULT_255_2_778
10
9.6709951
20
38.3036079
40
0.19037
50
89.9576902
51
133.5524422
0
LINE
8
DEFAULT_255_2_778
10
9.6711357
20
38.4939778
11
9.6715267
21
38.4939774
0
ARC
8
DEFAULT_255_2_778
10
9.670946
20
37.4581433
40
0.1248672
50
269.9113165
51
270.2664542
0
ARC
8
DEFAULT_255_2_778
10
9.6708193
20
37.523203
40
0.1899271
50
226.3937227
51
269.9799339
0
ARC
8
DEFAULT_255_2_778
10
9.6594259
20
37.5121949
40
0.1740994
50
180.1044622
51
226.6101462
0
ARC
8
DEFAULT_255_2_778
10
14.6440332
20
29.7576974
40
0.1911962
50
313.6169211
51
359.6943598
0
ARC
8
DEFAULT_255_2_778
10
14.6334979
20
29.7690822
40
0.2067061
50
270.0014551
51
313.5541691
0
ARC
8
DEFAULT_255_2_778
10
14.6333093
20
29.7131653
40
0.1507895
50
269.7786413
51
270.0736754
0
ARC
8
DEFAULT_255_2_778
10
14.6279478
20
32.1537729
40
0.2990149
50
68.7079471
51
89.5250043
0
ARC
8
DEFAULT_255_2_778
10
14.6326094
20
32.1684922
40
0.2836093
50
46.7242014
51
68.5056182
0
ARC
8
DEFAULT_255_2_778
10
14.6413939
20
32.1794026
40
0.2696462
50
23.7907961
51
46.4939443
0
ARC
8
DEFAULT_255_2_778
10
14.6510382
20
32.1851951
40
0.2584886
50
0.018257
51
23.478316
0
ARC
8
DEFAULT_255_2_778
10
14.6440871
20
32.1841801
40
0.1911427
50
0.3289251
51
46.3901023
0
ARC
8
DEFAULT_255_2_778
10
14.6334979
20
32.1727727
40
0.2067061
50
46.4458309
51
89.9985449
0
ARC
8
DEFAULT_255_2_778
10
14.6333089
20
32.2288448
40
0.1506342
50
89.9260965
51
90.2214347
0
ARC
8
DEFAULT_255_2_778
10
14.6454158
20
26.1808876
40
0.1900119
50
313.464794
51
359.8160183
0
ARC
8
DEFAULT_255_2_778
10
14.6340473
20
26.1919082
40
0.2058323
50
269.933088
51
313.6513149
0
ARC
8
DEFAULT_255_2_778
10
14.6336121
20
26.1383782
40
0.1523023
50
269.7797757
51
270.0732983
0
ARC
8
DEFAULT_255_2_778
10
14.6289268
20
27.4372719
40
0.2963104
50
68.6657971
51
89.6712961
0
ARC
8
DEFAULT_255_2_778
10
14.6334046
20
27.4503306
40
0.2825182
50
46.6816209
51
68.5481971
0
ARC
8
DEFAULT_255_2_778
10
14.6441247
20
27.4620844
40
0.2666122
50
23.6598184
51
46.6248109
0
ARC
8
DEFAULT_255_2_778
10
14.6495045
20
27.4654818
40
0.2603231
50
0.1531186
51
23.4501141
0
ARC
8
DEFAULT_255_2_778
10
14.6365604
20
27.4617018
40
0.1987167
50
1.2905607
51
91.1631182
0
ARC
8
DEFAULT_255_2_778
10
12.7785531
20
30.6295038
40
0.3401442
50
113.6091804
51
163.083626
0
ARC
8
DEFAULT_255_2_778
10
12.7918386
20
31.2918667
40
0.3811522
50
207.2955988
51
246.9373025
0
ARC
8
DEFAULT_255_2_778
10
13.1970419
20
31.2227117
40
0.2536697
50
64.980211
51
85.7305755
0
ARC
8
DEFAULT_255_2_778
10
13.2036066
20
31.2511293
40
0.2252241
50
33.6339063
51
63.4358384
0
ARC
8
DEFAULT_255_2_778
10
13.1443363
20
31.2160584
40
0.2940198
50
12.0974241
51
32.9267041
0
ARC
8
DEFAULT_255_2_778
10
13.0839803
20
31.1954445
40
0.3574344
50
359.9794577
51
13.3008618
0
ARC
8
DEFAULT_255_2_778
10
13.0789611
20
31.1953235
40
0.3624537
50
357.7157949
51
359.9988697
0
ARC
8
DEFAULT_255_2_778
10
13.1164235
20
31.2127474
40
0.8324249
50
3.8939578
51
11.2241753
0
ARC
8
DEFAULT_255_2_778
10
13.3501261
20
31.257509
40
0.5944817
50
11.3768743
51
30.5611147
0
ARC
8
DEFAULT_255_2_778
10
13.382805
20
31.2709427
40
0.5595346
50
31.0780552
51
51.7868589
0
ARC
8
DEFAULT_255_2_778
10
13.3334869
20
31.2026129
40
0.6437396
50
52.0999838
51
70.1166606
0
ARC
8
DEFAULT_255_2_778
10
13.2553156
20
30.9882097
40
0.8719484
50
70.0777982
51
83.0101076
0
ARC
8
DEFAULT_255_2_778
10
13.1867338
20
30.4011948
40
1.4629502
50
83.1418682
51
90.0301167
0
ARC
8
DEFAULT_255_2_778
10
13.1859441
20
30.3645948
40
1.4995501
50
89.999207
51
90.5432353
0
ARC
8
DEFAULT_255_2_778
10
13.1217033
20
30.8066488
40
1.0554762
50
95.5498302
51
104.3098018
0
ARC
8
DEFAULT_255_2_778
10
13.0619042
20
31.0329941
40
0.821376
50
104.1703479
51
116.3894694
0
ARC
8
DEFAULT_255_2_778
10
12.9548302
20
31.2369557
40
0.5911008
50
115.8794821
51
134.0391357
0
ARC
8
DEFAULT_255_2_778
10
12.9080087
20
31.2973016
40
0.515239
50
134.9611675
51
143.4446422
0
ARC
8
DEFAULT_255_2_778
10
12.8717573
20
30.6364411
40
0.4390005
50
204.5449193
51
227.4032299
0
ARC
8
DEFAULT_255_2_778
10
12.9745923
20
30.7467925
40
0.5898371
50
227.3050414
51
243.7513744
0
ARC
8
DEFAULT_255_2_778
10
13.0564747
20
30.9062039
40
0.76903
50
243.5325917
51
255.2614463
0
ARC
8
DEFAULT_255_2_778
10
13.1088663
20
31.0942466
40
0.9642185
50
255.0933938
51
263.7399469
0
ARC
8
DEFAULT_255_2_778
10
13.1366518
20
31.374486
40
1.2458202
50
263.8750628
51
269.9840052
0
ARC
8
DEFAULT_255_2_778
10
13.1363497
20
31.3499166
40
1.2212507
50
269.997857
51
270.2475766
0
ARC
8
DEFAULT_255_2_778
10
13.1502063
20
31.2933433
40
1.1646974
50
269.5779327
51
270.0026639
0
ARC
8
DEFAULT_255_2_778
10
13.1502594
20
31.3130759
40
1.1844301
50
270.0000509
51
270.9033199
0
ARC
8
DEFAULT_255_2_778
10
13.1493529
20
31.3418063
40
1.2131711
50
270.9247354
51
277.3772675
0
ARC
8
DEFAULT_255_2_778
10
13.1890071
20
31.0157184
40
0.8846946
50
277.5420576
51
288.5684369
0
ARC
8
DEFAULT_255_2_778
10
13.2479812
20
30.8484664
40
0.7073745
50
288.3542063
51
302.786021
0
ARC
8
DEFAULT_255_2_778
10
13.3165208
20
30.7443011
40
0.5826898
50
302.666513
51
320.730606
0
ARC
8
DEFAULT_255_2_778
10
13.3735842
20
30.6950164
40
0.507321
50
320.9605441
51
341.8731165
0
ARC
8
DEFAULT_255_2_778
10
13.3494674
20
30.6975648
40
0.531058
50
342.4213466
51
352.3726209
0
ARC
8
DEFAULT_255_2_778
10
13.2136859
20
30.7318441
40
0.1973672
50
328.5876188
51
356.2330544
0
ARC
8
DEFAULT_255_2_778
10
13.191551
20
30.7520398
40
0.2268556
50
303.7322768
51
327.1480622
0
ARC
8
DEFAULT_255_2_778
10
13.1559617
20
30.7976454
40
0.2845782
50
286.844766
51
304.5924342
0
ARC
8
DEFAULT_255_2_778
10
13.1465772
20
30.8336968
40
0.3218056
50
271.3264638
51
286.5839099
0
ARC
8
DEFAULT_255_2_778
10
13.1457262
20
30.8620173
40
0.3501382
50
270.0001415
51
271.3584004
0
ARC
8
DEFAULT_255_2_778
10
13.1454665
20
30.8509765
40
0.3390976
50
260.7615783
51
270.0440306
0
ARC
8
DEFAULT_255_2_778
10
13.1243951
20
30.7520951
40
0.2381668
50
244.8101158
51
261.946061
0
ARC
8
DEFAULT_255_2_778
10
13.0846667
20
30.6711796
40
0.1480446
50
215.0884546
51
245.3949697
0
ARC
8
DEFAULT_255_2_778
10
13.0771076
20
30.6574766
40
0.1341583
50
180.5241402
51
212.1542553
0
ARC
8
DEFAULT_255_2_778
10
13.0924361
20
30.6596023
40
0.1495189
50
180.0002087
51
181.284968
0
ARC
8
DEFAULT_255_2_778
10
13.0955048
20
30.6595837
40
0.1525874
50
179.3640029
51
179.993233
0
ARC
8
DEFAULT_255_2_778
10
13.0779911
20
30.6602726
40
0.1350682
50
160.9412632
51
179.5737473
0
ARC
8
DEFAULT_255_2_778
10
13.0774465
20
30.6443006
40
0.1428085
50
113.1832177
51
142.5806137
0
ARC
8
DEFAULT_255_2_778
10
13.1167268
20
30.5611214
40
0.2347587
50
98.0315378
51
114.0040316
0
ARC
8
DEFAULT_255_2_778
10
13.1371655
20
30.4150949
40
0.3822086
50
89.3312177
51
98.006909
0
ARC
8
DEFAULT_255_2_778
10
13.1978395
20
31.5784617
40
0.4539
50
270.0030489
51
270.4780686
0
ARC
8
DEFAULT_255_2_778
10
13.19815
20
31.5842611
40
0.4596996
50
261.5283088
51
269.9643079
0
ARC
8
DEFAULT_255_2_778
10
13.1682397
20
31.3807076
40
0.2539609
50
243.5261756
51
261.4372285
0
ARC
8
DEFAULT_255_2_778
10
13.1262557
20
31.3004008
40
0.1633691
50
213.817711
51
244.15103
0
ARC
8
DEFAULT_255_2_778
10
13.1278989
20
31.2903055
40
0.1593872
50
179.9712347
51
210.4720188
0
ARC
8
DEFAULT_255_2_778
10
13.1309069
20
31.2903702
40
0.1623952
50
179.2212375
51
179.9946144
0
ARC
8
DEFAULT_255_2_778
10
13.1437808
20
31.2958095
40
0.1752839
50
179.9966924
51
181.0565184
0
ARC
8
DEFAULT_255_2_778
10
13.1457737
20
31.2957738
40
0.1772768
50
154.7561084
51
179.9852018
0
ARC
8
DEFAULT_255_2_778
10
13.1403129
20
31.2948928
40
0.1727415
50
126.597306
51
153.7193
0
ARC
8
DEFAULT_255_2_778
10
13.1630323
20
31.2630204
40
0.2118764
50
104.6832988
51
126.3913178
0
ARC
8
DEFAULT_255_2_778
10
13.1824295
20
31.182776
40
0.2944213
50
90.0207017
51
104.3765283
0
ARC
8
DEFAULT_255_2_778
10
13.1823057
20
31.1816554
40
0.295542
50
89.3367588
51
89.9966227
0
ARC
8
DEFAULT_255_2_778
10
9.7641446
20
48.9354448
40
0.1506337
50
89.7785653
51
90.0739035
0
ARC
8
DEFAULT_255_2_778
10
9.7639555
20
48.8793727
40
0.2067062
50
90.0014551
51
133.5541691
0
ARC
8
DEFAULT_255_2_778
10
9.7530279
20
48.8910656
40
0.1907026
50
133.5954436
51
179.7861176
0
ARC
8
DEFAULT_255_2_778
10
9.7643428
20
52.5108284
40
0.1515502
50
89.779248
51
90.0736757
0
ARC
8
DEFAULT_255_2_778
10
9.7640502
20
52.4561865
40
0.2061925
50
89.9728279
51
133.6111775
0
ARC
8
DEFAULT_255_2_778
10
9.7529294
20
52.4673982
40
0.1904043
50
133.5153632
51
179.7655189
0
ARC
8
DEFAULT_255_2_778
10
10.0441715
20
54.6771954
40
0.1854996
50
89.2107255
51
89.9995489
0
ARC
8
DEFAULT_255_2_778
10
10.044307
20
54.6775056
40
0.1851894
50
90.0414903
51
161.2680876
0
ARC
8
DEFAULT_255_2_778
10
10.2938825
20
54.6771295
40
0.1855605
50
18.8157164
51
90.6656453
0
ARC
8
DEFAULT_255_2_778
10
10.0445413
20
23.971631
40
0.1855664
50
198.8495418
51
270.6747966
0
ARC
8
DEFAULT_255_2_778
10
10.2942851
20
23.972022
40
0.1859622
50
269.21171
51
269.9995474
0
ARC
8
DEFAULT_255_2_778
10
10.2942184
20
23.9711963
40
0.1851364
50
270.0202025
51
341.2471666
0
ARC
8
DEFAULT_255_2_778
10
14.6292267
20
48.8629709
40
0.2963114
50
68.6658412
51
89.6712689
0
ARC
8
DEFAULT_255_2_778
10
14.6337047
20
48.8760306
40
0.2825181
50
46.6816356
51
68.5482159
0
ARC
8
DEFAULT_255_2_778
10
14.643166
20
48.8868982
40
0.268121
50
23.725346
51
46.5593722
0
ARC
8
DEFAULT_255_2_778
10
14.6514143
20
48.8917694
40
0.2586124
50
0.0017782
51
23.4725985
0
ARC
8
DEFAULT_255_2_778
10
14.6287818
20
52.4410101
40
0.2946719
50
68.5527969
51
89.6801584
0
ARC
8
DEFAULT_255_2_778
10
14.6344701
20
52.4543258
40
0.2801987
50
46.5899863
51
68.6398331
0
ARC
8
DEFAULT_255_2_778
10
14.6431841
20
52.4635628
40
0.2675001
50
23.6985058
51
46.586245
0
ARC
8
DEFAULT_255_2_778
10
14.6513952
20
52.4681694
40
0.2581315
50
0.0017793
51
23.4947507
0
ARC
8
DEFAULT_255_2_778
10
9.737855
20
32.1852638
40
0.2488283
50
177.58392
51
179.9968641
0
ARC
8
DEFAULT_255_2_778
10
9.7506199
20
32.1841619
40
0.2616289
50
156.6452826
51
177.460656
0
ARC
8
DEFAULT_255_2_778
10
9.7525428
20
32.1821051
40
0.264212
50
133.3043836
51
156.4011034
0
ARC
8
DEFAULT_255_2_778
10
9.7666204
20
32.1655832
40
0.2858928
50
111.5029355
51
133.0864567
0
ARC
8
DEFAULT_255_2_778
10
9.7700217
20
32.1550024
40
0.2969847
50
90.4620623
51
111.3652324
0
ARC
8
DEFAULT_255_2_778
10
9.7374622
20
27.4663685
40
0.2487355
50
177.5007595
51
179.9979424
0
ARC
8
DEFAULT_255_2_778
10
9.7513354
20
27.465139
40
0.2626498
50
156.6884673
51
177.3647725
0
ARC
8
DEFAULT_255_2_778
10
9.7539999
20
27.4620673
40
0.266318
50
133.3968318
51
156.3084132
0
ARC
8
DEFAULT_255_2_778
10
9.7650311
20
27.4483612
40
0.2838596
50
111.3849717
51
133.1139902
0
ARC
8
DEFAULT_255_2_778
10
9.7693034
20
27.4382723
40
0.2948118
50
90.3841619
51
111.4431463
0
ARC
8
DEFAULT_255_2_778
10
9.7688931
20
29.7831523
40
0.2926791
50
248.4791518
51
269.6933589
0
ARC
8
DEFAULT_255_2_778
10
9.7620106
20
29.7704068
40
0.2783029
50
226.6664207
51
248.83472
0
ARC
8
DEFAULT_255_2_778
10
9.7540003
20
29.7614876
40
0.2663184
50
203.691548
51
226.6030981
0
ARC
8
DEFAULT_255_2_778
10
9.7462618
20
29.7572617
40
0.2575352
50
180.018744
51
203.5223974
0
ARC
8
DEFAULT_255_2_778
10
9.7700201
20
26.2110469
40
0.2969791
50
248.6346711
51
269.5382448
0
ARC
8
DEFAULT_255_2_778
10
9.7632258
20
26.1954573
40
0.2799861
50
226.7338863
51
248.7672435
0
ARC
8
DEFAULT_255_2_778
10
9.7538317
20
26.1846345
40
0.2656673
50
203.6229271
51
226.6093961
0
ARC
8
DEFAULT_255_2_778
10
9.7457346
20
26.1807893
40
0.2567079
50
180.0026344
51
203.5607981
0
ARC
8
DEFAULT_255_2_778
10
9.737855
20
52.4687638
40
0.2488283
50
177.58392
51
179.9968641
0
ARC
8
DEFAULT_255_2_778
10
9.7506199
20
52.4676619
40
0.2616289
50
156.6452826
51
177.460656
0
ARC
8
DEFAULT_255_2_778
10
9.7525428
20
52.4656051
40
0.264212
50
133.3043836
51
156.4011034
0
ARC
8
DEFAULT_255_2_778
10
9.7666204
20
52.4490832
40
0.2858928
50
111.5029355
51
133.0864567
0
ARC
8
DEFAULT_255_2_778
10
9.7693248
20
52.440672
40
0.2947103
50
90.3301305
51
111.3927151
0
ARC
8
DEFAULT_255_2_778
10
9.7700218
20
51.2133527
40
0.2969849
50
248.6347765
51
269.5379322
0
ARC
8
DEFAULT_255_2_778
10
9.7635568
20
51.1979246
40
0.2802621
50
226.6940469
51
248.716561
0
ARC
8
DEFAULT_255_2_778
10
9.7525412
20
51.1862489
40
0.2642102
50
203.5988577
51
226.6957315
0
ARC
8
DEFAULT_255_2_778
10
9.746091
20
51.1831636
40
0.2570644
50
180.0192027
51
203.5442343
0
ARC
8
DEFAULT_255_2_778
10
9.7385303
20
48.8925692
40
0.2495036
50
178.3345327
51
179.998107
0
ARC
8
DEFAULT_255_2_778
10
9.7503812
20
48.8916444
40
0.2613771
50
156.6411574
51
178.2074041
0
ARC
8
DEFAULT_255_2_778
10
9.7534179
20
48.8888886
40
0.2652608
50
133.3506095
51
156.3547565
0
ARC
8
DEFAULT_255_2_778
10
9.7666204
20
48.8729832
40
0.2858928
50
111.5029355
51
133.0864567
0
ARC
8
DEFAULT_255_2_778
10
9.7693248
20
48.864572
40
0.2947103
50
90.3301305
51
111.3927151
0
ARC
8
DEFAULT_255_2_778
10
9.7700203
20
46.4945438
40
0.296976
50
248.6344172
51
269.5382045
0
ARC
8
DEFAULT_255_2_778
10
9.7623123
20
46.4775089
40
0.2783055
50
226.6664729
51
248.8345653
0
ARC
8
DEFAULT_255_2_778
10
9.7543003
20
46.4685876
40
0.2663184
50
203.691548
51
226.6030981
0
ARC
8
DEFAULT_255_2_778
10
9.7465673
20
46.4643627
40
0.2575406
50
180.0189775
51
203.5221301
0
ARC
8
DEFAULT_255_2_778
10
14.6440334
20
48.8915577
40
0.191196
50
0.3055977
51
46.3830938
0
ARC
8
DEFAULT_255_2_778
10
14.633816
20
48.8806131
40
0.2061677
50
46.4255667
51
89.9805623
0
ARC
8
DEFAULT_255_2_778
10
14.6338862
20
48.8766954
40
0.2100853
50
90.0000528
51
90.3162193
0
ARC
8
DEFAULT_255_2_778
10
14.6454156
20
52.4683674
40
0.1900121
50
0.1839642
51
46.5351477
0
ARC
8
DEFAULT_255_2_778
10
14.6340473
20
52.4573467
40
0.2058323
50
46.3486851
51
90.066912
0
ARC
8
DEFAULT_255_2_778
10
14.6336117
20
52.5110328
40
0.1521462
50
89.9264758
51
90.2202996
0
ARC
8
DEFAULT_255_2_778
10
9.7532702
20
29.7586038
40
0.1907457
50
180.2782664
51
226.4408313
0
ARC
8
DEFAULT_255_2_778
10
9.7642317
20
29.7701225
40
0.2066464
50
226.4392014
51
269.9778139
0
ARC
8
DEFAULT_255_2_778
10
9.7643456
20
29.7135962
40
0.1501204
50
269.9259815
51
270.2217773
0
ARC
8
DEFAULT_255_2_778
10
9.7643428
20
32.2289284
40
0.1515502
50
89.779248
51
90.0736757
0
ARC
8
DEFAULT_255_2_778
10
9.7640502
20
32.1742865
40
0.2061925
50
89.9728279
51
133.6111775
0
ARC
8
DEFAULT_255_2_778
10
9.7529292
20
32.1854983
40
0.1904041
50
133.5153351
51
179.7655366
0
ARC
8
DEFAULT_255_2_778
10
9.7532702
20
26.1822038
40
0.1907457
50
180.2782664
51
226.4408313
0
ARC
8
DEFAULT_255_2_778
10
9.7642317
20
26.1937225
40
0.2066464
50
226.4392014
51
269.9778139
0
ARC
8
DEFAULT_255_2_778
10
9.7643456
20
26.1371962
40
0.1501204
50
269.9259815
51
270.2217773
0
ARC
8
DEFAULT_255_2_778
10
9.7608433
20
27.4628557
40
0.1985637
50
88.8216469
51
178.7528662
0
ARC
8
DEFAULT_255_2_778
10
14.6279468
20
29.7891873
40
0.2990202
50
270.4751835
51
291.2918683
0
ARC
8
DEFAULT_255_2_778
10
14.6344699
20
29.7715286
40
0.2801983
50
291.3602361
51
313.4101064
0
ARC
8
DEFAULT_255_2_778
10
14.6413915
20
29.7635538
40
0.2696489
50
313.506193
51
336.2091057
0
ARC
8
DEFAULT_255_2_778
10
14.6510382
20
29.7577599
40
0.2584886
50
336.5216636
51
359.9817208
0
ARC
8
DEFAULT_255_2_778
10
14.6277279
20
26.2123649
40
0.2985971
50
270.4602918
51
291.3067991
0
ARC
8
DEFAULT_255_2_778
10
14.6329072
20
26.1971204
40
0.2825136
50
291.4516109
51
313.3185437
0
ARC
8
DEFAULT_255_2_778
10
14.642366
20
26.1862567
40
0.268121
50
313.4406278
51
336.274654
0
ARC
8
DEFAULT_255_2_778
10
14.6507328
20
26.1813609
40
0.2584939
50
336.5219342
51
359.9815025
0
ARC
8
DEFAULT_255_2_778
10
9.6597625
20
39.7196146
40
0.1744364
50
133.4374094
51
179.8479823
0
ARC
8
DEFAULT_255_2_778
10
9.6711766
20
39.7078531
40
0.1908248
50
90.0116646
51
133.4978388
0
LINE
8
DEFAULT_255_2_778
10
9.6711378
20
39.8986778
11
9.6715267
21
39.8986774
0
LINE
8
DEFAULT_255_2_778
10
9.6715267
20
38.7378774
11
9.6711378
21
38.7378771
0
ARC
8
DEFAULT_255_2_778
10
9.6711766
20
38.9287018
40
0.1908248
50
226.5021612
51
269.9883354
0
ARC
8
DEFAULT_255_2_778
10
9.6597625
20
38.9169403
40
0.1744364
50
180.1520177
51
226.5625906
0
LINE
8
DEFAULT_255_2_778
10
46.7690267
20
12.1385774
11
67.4330267
21
12.1385774
0
LINE
8
DEFAULT_255_2_778
10
67.4330267
20
12.1385774
11
67.7960267
21
12.0895774
0
LINE
8
DEFAULT_255_2_778
10
67.4330267
20
11.7868774
11
46.7786267
21
11.7868774
0
LINE
8
DEFAULT_255_2_778
10
46.7786267
20
11.7868774
11
47.0228267
21
11.6307774
0
LINE
8
DEFAULT_255_2_778
10
47.0228267
20
11.6307774
11
67.5743267
21
11.6307774
0
LINE
8
DEFAULT_255_2_778
10
67.5743267
20
11.6307774
11
67.4327267
21
11.7868774
0
LINE
8
DEFAULT_255_2_778
10
67.4327267
20
11.7868774
11
67.4327267
21
12.1382774
0
LINE
8
DEFAULT_255_2_778
10
67.4327267
20
12.1382774
11
77.0572267
21
77.7943774
0
LINE
8
DEFAULT_255_2_778
10
77.0572267
20
77.7943774
11
77.1715267
21
77.2535774
0
LINE
8
DEFAULT_255_2_778
10
77.1715267
20
77.2535774
11
77.2273267
21
76.9929774
0
LINE
8
DEFAULT_255_2_778
10
77.2273267
20
76.9929774
11
77.2744267
21
76.7820774
0
LINE
8
DEFAULT_255_2_778
10
9.5623267
20
46.4571774
11
9.5623267
21
48.8854774
0
LINE
8
DEFAULT_255_2_778
10
9.5623267
20
48.8854774
11
9.4892267
21
48.8854774
0
LINE
8
DEFAULT_255_2_778
10
9.4892267
20
48.8854774
11
9.4892267
21
46.4571774
0
LINE
8
DEFAULT_255_2_778
10
9.4892267
20
46.4571774
11
9.5623267
21
46.4571774
0
LINE
8
DEFAULT_255_2_778
10
14.9098267
20
46.4571774
11
14.9098267
21
48.8854774
0
LINE
8
DEFAULT_255_2_778
10
14.9098267
20
48.8854774
11
14.8354267
21
48.8854774
0
LINE
8
DEFAULT_255_2_778
10
14.8354267
20
48.8854774
11
14.8354267
21
46.4571774
0
LINE
8
DEFAULT_255_2_778
10
14.8354267
20
46.4571774
11
14.9098267
21
46.4571774
0
LINE
8
DEFAULT_255_2_778
10
10.1311267
20
46.1893774
11
9.7644267
21
46.1914774
0
LINE
8
DEFAULT_255_2_778
10
9.7644267
20
46.1914774
11
9.7644267
21
46.2631774
0
LINE
8
DEFAULT_255_2_778
10
9.7644267
20
46.2631774
11
14.6325267
21
46.2631774
0
LINE
8
DEFAULT_255_2_778
10
14.6325267
20
46.2631774
11
14.6325267
21
46.1901774
0
LINE
8
DEFAULT_255_2_778
10
14.6325267
20
46.1901774
11
10.1311267
21
46.1893774
0
LINE
8
DEFAULT_255_2_778
10
14.6325267
20
50.9820774
11
14.6325267
21
50.9089774
0
LINE
8
DEFAULT_255_2_778
10
14.6325267
20
50.9089774
11
10.1311267
21
50.9081774
0
LINE
8
DEFAULT_255_2_778
10
10.1311267
20
50.9081774
11
9.7644267
21
50.9103774
0
LINE
8
DEFAULT_255_2_778
10
9.7644267
20
50.9103774
11
9.7644267
21
50.9820774
0
LINE
8
DEFAULT_255_2_778
10
9.7644267
20
50.9820774
11
14.6325267
21
50.9820774
0
LINE
8
DEFAULT_255_2_778
10
9.5620267
20
51.1762774
11
9.5620267
21
52.4620774
0
LINE
8
DEFAULT_255_2_778
10
9.5620267
20
52.4620774
11
9.4890267
21
52.4620774
0
LINE
8
DEFAULT_255_2_778
10
9.4890267
20
52.4620774
11
9.4890267
21
51.1762774
0
LINE
8
DEFAULT_255_2_778
10
9.4890267
20
51.1762774
11
9.5620267
21
51.1762774
0
LINE
8
DEFAULT_255_2_778
10
14.9095267
20
51.1762774
11
14.9095267
21
52.4620774
0
LINE
8
DEFAULT_255_2_778
10
14.9095267
20
52.4620774
11
14.8352267
21
52.4620774
0
LINE
8
DEFAULT_255_2_778
10
14.8352267
20
52.4620774
11
14.8352267
21
51.1762774
0
LINE
8
DEFAULT_255_2_778
10
14.8352267
20
51.1762774
11
14.9095267
21
51.1762774
0
LINE
8
DEFAULT_255_2_778
10
10.0986267
20
40.9844774
11
10.3007267
21
41.0103774
0
LINE
8
DEFAULT_255_2_778
10
10.3007267
20
41.0103774
11
10.5706267
21
41.0363774
0
LINE
8
DEFAULT_255_2_778
10
10.5706267
20
41.0363774
11
10.8886267
21
41.0622774
0
LINE
8
DEFAULT_255_2_778
10
10.8886267
20
41.0622774
11
11.2315267
21
41.0881774
0
LINE
8
DEFAULT_255_2_778
10
11.2315267
20
41.0881774
11
11.6281267
21
41.1183774
0
LINE
8
DEFAULT_255_2_778
10
10.0983267
20
45.2032774
11
10.3005267
21
45.2291774
0
LINE
8
DEFAULT_255_2_778
10
10.3005267
20
45.2291774
11
10.5703267
21
45.2550774
0
LINE
8
DEFAULT_255_2_778
10
10.5703267
20
45.2550774
11
10.8884267
21
45.2810774
0
LINE
8
DEFAULT_255_2_778
10
10.8884267
20
45.2810774
11
11.2313267
21
45.3069774
0
LINE
8
DEFAULT_255_2_778
10
11.2313267
20
45.3069774
11
11.6279267
21
45.3371774
0
LINE
8
DEFAULT_255_2_778
10
10.0980267
20
42.3912774
11
10.3002267
21
42.4171774
0
LINE
8
DEFAULT_255_2_778
10
10.3002267
20
42.4171774
11
10.5701267
21
42.4431774
0
LINE
8
DEFAULT_255_2_778
10
10.5701267
20
42.4431774
11
10.8881267
21
42.4690774
0
LINE
8
DEFAULT_255_2_778
10
10.8881267
20
42.4690774
11
11.2310267
21
42.4949774
0
LINE
8
DEFAULT_255_2_778
10
11.2310267
20
42.4949774
11
11.6276267
21
42.5251774
0
LINE
8
DEFAULT_255_2_778
10
10.0978267
20
43.7977774
11
10.2999267
21
43.8237774
0
LINE
8
DEFAULT_255_2_778
10
10.2999267
20
43.8237774
11
10.5698267
21
43.8496774
0
LINE
8
DEFAULT_255_2_778
10
10.5698267
20
43.8496774
11
10.8878267
21
43.8755774
0
LINE
8
DEFAULT_255_2_778
10
10.8878267
20
43.8755774
11
11.2307267
21
43.9014774
0
LINE
8
DEFAULT_255_2_778
10
11.2307267
20
43.9014774
11
11.6273267
21
43.9316774
0
LINE
8
DEFAULT_255_2_778
10
10.0975267
20
39.5795774
11
10.2997267
21
39.6054774
0
LINE
8
DEFAULT_255_2_778
10
10.2997267
20
39.6054774
11
10.5695267
21
39.6313774
0
LINE
8
DEFAULT_255_2_778
10
10.5695267
20
39.6313774
11
10.8876267
21
39.6573774
0
LINE
8
DEFAULT_255_2_778
10
10.8876267
20
39.6573774
11
11.2305267
21
39.6832774
0
LINE
8
DEFAULT_255_2_778
10
11.2305267
20
39.6832774
11
11.6271267
21
39.7133774
0
LINE
8
DEFAULT_255_2_778
10
10.0973267
20
35.3612774
11
10.2994267
21
35.3872774
0
LINE
8
DEFAULT_255_2_778
10
10.2994267
20
35.3872774
11
10.5693267
21
35.4131774
0
LINE
8
DEFAULT_255_2_778
10
10.5693267
20
35.4131774
11
10.8873267
21
35.4390774
0
LINE
8
DEFAULT_255_2_778
10
10.8873267
20
35.4390774
11
11.2302267
21
35.4649774
0
LINE
8
DEFAULT_255_2_778
10
11.2302267
20
35.4649774
11
11.6268267
21
35.4951774
0
LINE
8
DEFAULT_255_2_778
10
10.0970267
20
38.1740774
11
10.2991267
21
38.1999774
0
LINE
8
DEFAULT_255_2_778
10
10.2991267
20
38.1999774
11
10.5690267
21
38.2259774
0
LINE
8
DEFAULT_255_2_778
10
10.5690267
20
38.2259774
11
10.8870267
21
38.2518774
0
LINE
8
DEFAULT_255_2_778
10
10.8870267
20
38.2518774
11
11.2299267
21
38.2777774
0
LINE
8
DEFAULT_255_2_778
10
11.2299267
20
38.2777774
11
11.6265267
21
38.3079774
0
LINE
8
DEFAULT_255_2_778
10
10.0967267
20
33.9558774
11
10.2989267
21
33.9817774
0
LINE
8
DEFAULT_255_2_778
10
10.2989267
20
33.9817774
11
10.5687267
21
34.0076774
0
LINE
8
DEFAULT_255_2_778
10
10.5687267
20
34.0076774
11
10.8868267
21
34.0335774
0
LINE
8
DEFAULT_255_2_778
10
10.8868267
20
34.0335774
11
11.2297267
21
34.0595774
0
LINE
8
DEFAULT_255_2_778
10
11.2297267
20
34.0595774
11
11.6263267
21
34.0896774
0
LINE
8
DEFAULT_255_2_778
10
10.0986267
20
36.7659774
11
10.3007267
21
36.7918774
0
LINE
8
DEFAULT_255_2_778
10
10.3007267
20
36.7918774
11
10.5706267
21
36.8177774
0
LINE
8
DEFAULT_255_2_778
10
10.5706267
20
36.8177774
11
10.8886267
21
36.8437774
0
LINE
8
DEFAULT_255_2_778
10
10.8886267
20
36.8437774
11
11.2315267
21
36.8696774
0
LINE
8
DEFAULT_255_2_778
10
11.2315267
20
36.8696774
11
11.6281267
21
36.8998774
0
LINE
8
DEFAULT_255_2_778
10
10.0634267
20
40.9786774
11
10.0054267
21
40.9691774
0
LINE
8
DEFAULT_255_2_778
10
10.0054267
20
40.9691774
11
9.9285267
21
40.9595774
0
LINE
8
DEFAULT_255_2_778
10
9.9285267
20
40.9595774
11
9.8843267
21
40.9548774
0
LINE
8
DEFAULT_255_2_778
10
9.8843267
20
40.9548774
11
9.7395267
21
40.9405774
0
LINE
8
DEFAULT_255_2_778
10
10.0634267
20
39.5723774
11
10.0054267
21
39.5628774
0
LINE
8
DEFAULT_255_2_778
10
10.0054267
20
39.5628774
11
9.9285267
21
39.5533774
0
LINE
8
DEFAULT_255_2_778
10
9.9285267
20
39.5533774
11
9.8843267
21
39.5485774
0
LINE
8
DEFAULT_255_2_778
10
9.8843267
20
39.5485774
11
9.7395267
21
39.5342774
0
LINE
8
DEFAULT_255_2_778
10
10.0634267
20
38.1661774
11
10.0054267
21
38.1565774
0
LINE
8
DEFAULT_255_2_778
10
10.0054267
20
38.1565774
11
9.9285267
21
38.1470774
0
LINE
8
DEFAULT_255_2_778
10
9.9285267
20
38.1470774
11
9.8843267
21
38.1423774
0
LINE
8
DEFAULT_255_2_778
10
9.8843267
20
38.1423774
11
9.7395267
21
38.1280774
0
LINE
8
DEFAULT_255_2_778
10
10.0634267
20
36.7598774
11
10.0054267
21
36.7503774
0
LINE
8
DEFAULT_255_2_778
10
10.0054267
20
36.7503774
11
9.9285267
21
36.7408774
0
LINE
8
DEFAULT_255_2_778
10
9.9285267
20
36.7408774
11
9.8843267
21
36.7360774
0
LINE
8
DEFAULT_255_2_778
10
9.8843267
20
36.7360774
11
9.7395267
21
36.7217774
0
LINE
8
DEFAULT_255_2_778
10
10.0634267
20
35.3535774
11
10.0054267
21
35.3440774
0
LINE
8
DEFAULT_255_2_778
10
10.0054267
20
35.3440774
11
9.9285267
21
35.3345774
0
LINE
8
DEFAULT_255_2_778
10
9.9285267
20
35.3345774
11
9.8843267
21
35.3297774
0
LINE
8
DEFAULT_255_2_778
10
9.8843267
20
35.3297774
11
9.7395267
21
35.3155774
0
LINE
8
DEFAULT_255_2_778
10
10.0634267
20
33.9473774
11
10.0054267
21
33.9378774
0
LINE
8
DEFAULT_255_2_778
10
10.0054267
20
33.9378774
11
9.9285267
21
33.9282774
0
LINE
8
DEFAULT_255_2_778
10
9.9285267
20
33.9282774
11
9.8843267
21
33.9235774
0
LINE
8
DEFAULT_255_2_778
10
9.8843267
20
33.9235774
11
9.7395267
21
33.9092774
0
LINE
8
DEFAULT_255_2_778
10
10.0634267
20
45.1968774
11
10.0054267
21
45.1873774
0
LINE
8
DEFAULT_255_2_778
10
10.0054267
20
45.1873774
11
9.9285267
21
45.1778774
0
LINE
8
DEFAULT_255_2_778
10
9.9285267
20
45.1778774
11
9.8843267
21
45.1730774
0
LINE
8
DEFAULT_255_2_778
10
9.8843267
20
45.1730774
11
9.7395267
21
45.1587774
0
LINE
8
DEFAULT_255_2_778
10
10.0634267
20
43.7906774
11
10.0054267
21
43.7811774
0
LINE
8
DEFAULT_255_2_778
10
10.0054267
20
43.7811774
11
9.9285267
21
43.7715774
0
LINE
8
DEFAULT_255_2_778
10
9.9285267
20
43.7715774
11
9.8843267
21
43.7668774
0
LINE
8
DEFAULT_255_2_778
10
9.8843267
20
43.7668774
11
9.7395267
21
43.7525774
0
LINE
8
DEFAULT_255_2_778
10
10.0634267
20
42.3843774
11
10.0054267
21
42.3748774
0
LINE
8
DEFAULT_255_2_778
10
10.0054267
20
42.3748774
11
9.9285267
21
42.3653774
0
LINE
8
DEFAULT_255_2_778
10
9.9285267
20
42.3653774
11
9.8843267
21
42.3605774
0
LINE
8
DEFAULT_255_2_778
10
9.8843267
20
42.3605774
11
9.7395267
21
42.3462774
0
LINE
8
DEFAULT_255_2_778
10
14.6632267
20
41.5498774
11
14.6632267
21
41.7366774
0
LINE
8
DEFAULT_255_2_778
10
13.7064267
20
41.5498774
11
13.7064267
21
41.7366774
0
LINE
8
DEFAULT_255_2_778
10
12.4685267
20
41.5498774
11
12.4685267
21
41.7366774
0
LINE
8
DEFAULT_255_2_778
10
11.9263267
20
41.7366774
11
11.9263267
21
41.5498774
0
LINE
8
DEFAULT_255_2_778
10
14.6632267
20
41.1178774
11
14.6632267
21
41.3046774
0
LINE
8
DEFAULT_255_2_778
10
13.7064267
20
41.1178774
11
13.7064267
21
41.3046774
0
LINE
8
DEFAULT_255_2_778
10
12.4685267
20
41.1178774
11
12.4685267
21
41.3046774
0
LINE
8
DEFAULT_255_2_778
10
11.9263267
20
41.3046774
11
11.9263267
21
41.1178774
0
LINE
8
DEFAULT_255_2_778
10
14.6632267
20
40.1436774
11
14.6632267
21
40.3304774
0
LINE
8
DEFAULT_255_2_778
10
13.7064267
20
40.1436774
11
13.7064267
21
40.3304774
0
LINE
8
DEFAULT_255_2_778
10
12.4685267
20
40.1436774
11
12.4685267
21
40.3304774
0
LINE
8
DEFAULT_255_2_778
10
11.9263267
20
40.3304774
11
11.9263267
21
40.1436774
0
LINE
8
DEFAULT_255_2_778
10
14.6632267
20
39.7115774
11
14.6632267
21
39.8983774
0
LINE
8
DEFAULT_255_2_778
10
13.7064267
20
39.7115774
11
13.7064267
21
39.8983774
0
LINE
8
DEFAULT_255_2_778
10
12.4685267
20
39.7115774
11
12.4685267
21
39.8983774
0
LINE
8
DEFAULT_255_2_778
10
11.9263267
20
39.8983774
11
11.9263267
21
39.7115774
0
LINE
8
DEFAULT_255_2_778
10
14.6632267
20
38.7373774
11
14.6632267
21
38.9241774
0
LINE
8
DEFAULT_255_2_778
10
13.7064267
20
38.7373774
11
13.7064267
21
38.9241774
0
LINE
8
DEFAULT_255_2_778
10
12.4685267
20
38.7373774
11
12.4685267
21
38.9241774
0
LINE
8
DEFAULT_255_2_778
10
11.9263267
20
38.9241774
11
11.9263267
21
38.7373774
0
LINE
8
DEFAULT_255_2_778
10
14.6632267
20
38.3052774
11
14.6632267
21
38.4920774
0
LINE
8
DEFAULT_255_2_778
10
13.7064267
20
38.3052774
11
13.7064267
21
38.4920774
0
LINE
8
DEFAULT_255_2_778
10
12.4685267
20
38.3052774
11
12.4685267
21
38.4920774
0
LINE
8
DEFAULT_255_2_778
10
11.9263267
20
38.4920774
11
11.9263267
21
38.3052774
0
LINE
8
DEFAULT_255_2_778
10
14.6632267
20
37.3310774
11
14.6632267
21
37.5178774
0
LINE
8
DEFAULT_255_2_778
10
13.7064267
20
37.3310774
11
13.7064267
21
37.5178774
0
LINE
8
DEFAULT_255_2_778
10
12.4685267
20
37.3310774
11
12.4685267
21
37.5178774
0
LINE
8
DEFAULT_255_2_778
10
11.9263267
20
37.5178774
11
11.9263267
21
37.3310774
0
LINE
8
DEFAULT_255_2_778
10
14.6632267
20
36.8990774
11
14.6632267
21
37.0858774
0
LINE
8
DEFAULT_255_2_778
10
13.7064267
20
36.8990774
11
13.7064267
21
37.0858774
0
LINE
8
DEFAULT_255_2_778
10
12.4685267
20
36.8990774
11
12.4685267
21
37.0858774
0
LINE
8
DEFAULT_255_2_778
10
11.9263267
20
37.0858774
11
11.9263267
21
36.8990774
0
LINE
8
DEFAULT_255_2_778
10
14.6632267
20
35.9248774
11
14.6632267
21
36.1116774
0
LINE
8
DEFAULT_255_2_778
10
13.7064267
20
35.9248774
11
13.7064267
21
36.1116774
0
LINE
8
DEFAULT_255_2_778
10
12.4685267
20
35.9248774
11
12.4685267
21
36.1116774
0
LINE
8
DEFAULT_255_2_778
10
11.9263267
20
36.1116774
11
11.9263267
21
35.9248774
0
LINE
8
DEFAULT_255_2_778
10
14.6632267
20
35.4927774
11
14.6632267
21
35.6795774
0
LINE
8
DEFAULT_255_2_778
10
13.7064267
20
35.4927774
11
13.7064267
21
35.6795774
0
LINE
8
DEFAULT_255_2_778
10
12.4685267
20
35.4927774
11
12.4685267
21
35.6795774
0
LINE
8
DEFAULT_255_2_778
10
11.9263267
20
35.6795774
11
11.9263267
21
35.4927774
0
LINE
8
DEFAULT_255_2_778
10
14.6632267
20
34.5185774
11
14.6632267
21
34.7053774
0
LINE
8
DEFAULT_255_2_778
10
13.7064267
20
34.5185774
11
13.7064267
21
34.7053774
0
LINE
8
DEFAULT_255_2_778
10
12.4685267
20
34.5185774
11
12.4685267
21
34.7053774
0
LINE
8
DEFAULT_255_2_778
10
11.9263267
20
34.7053774
11
11.9263267
21
34.5185774
0
LINE
8
DEFAULT_255_2_778
10
14.6632267
20
34.0865774
11
14.6632267
21
34.2733774
0
LINE
8
DEFAULT_255_2_778
10
13.7064267
20
34.0865774
11
13.7064267
21
34.2733774
0
LINE
8
DEFAULT_255_2_778
10
12.4685267
20
34.0865774
11
12.4685267
21
34.2733774
0
LINE
8
DEFAULT_255_2_778
10
11.9263267
20
34.2733774
11
11.9263267
21
34.0865774
0
LINE
8
DEFAULT_255_2_778
10
14.6632267
20
33.1123774
11
14.6632267
21
33.2991774
0
LINE
8
DEFAULT_255_2_778
10
13.7064267
20
33.1123774
11
13.7064267
21
33.2991774
0
LINE
8
DEFAULT_255_2_778
10
12.4685267
20
33.1123774
11
12.4685267
21
33.2991774
0
LINE
8
DEFAULT_255_2_778
10
11.9263267
20
33.2991774
11
11.9263267
21
33.1123774
0
LINE
8
DEFAULT_255_2_778
10
14.6632267
20
45.3357774
11
14.6632267
21
45.5225774
0
LINE
8
DEFAULT_255_2_778
10
13.7064267
20
45.3357774
11
13.7064267
21
45.5225774
0
LINE
8
DEFAULT_255_2_778
10
12.4685267
20
45.3357774
11
12.4685267
21
45.5225774
0
LINE
8
DEFAULT_255_2_778
10
11.9263267
20
45.5225774
11
11.9263267
21
45.3357774
0
LINE
8
DEFAULT_255_2_778
10
14.6632267
20
44.3615774
11
14.6632267
21
44.5483774
0
LINE
8
DEFAULT_255_2_778
10
13.7064267
20
44.3615774
11
13.7064267
21
44.5483774
0
LINE
8
DEFAULT_255_2_778
10
12.4685267
20
44.3615774
11
12.4685267
21
44.5483774
0
LINE
8
DEFAULT_255_2_778
10
11.9263267
20
44.5483774
11
11.9263267
21
44.3615774
0
LINE
8
DEFAULT_255_2_778
10
14.6632267
20
43.9295774
11
14.6632267
21
44.1163774
0
LINE
8
DEFAULT_255_2_778
10
13.7064267
20
43.9295774
11
13.7064267
21
44.1163774
0
LINE
8
DEFAULT_255_2_778
10
12.4685267
20
43.9295774
11
12.4685267
21
44.1163774
0
LINE
8
DEFAULT_255_2_778
10
11.9263267
20
44.1163774
11
11.9263267
21
43.9295774
0
LINE
8
DEFAULT_255_2_778
10
14.6632267
20
42.9553774
11
14.6632267
21
43.1421774
0
LINE
8
DEFAULT_255_2_778
10
13.7064267
20
42.9553774
11
13.7064267
21
43.1421774
0
LINE
8
DEFAULT_255_2_778
10
12.4685267
20
42.9553774
11
12.4685267
21
43.1421774
0
LINE
8
DEFAULT_255_2_778
10
11.9263267
20
43.1421774
11
11.9263267
21
42.9553774
0
LINE
8
DEFAULT_255_2_778
10
14.6632267
20
42.5232774
11
14.6632267
21
42.7100774
0
LINE
8
DEFAULT_255_2_778
10
13.7064267
20
42.5232774
11
13.7064267
21
42.7100774
0
LINE
8
DEFAULT_255_2_778
10
12.4685267
20
42.5232774
11
12.4685267
21
42.7100774
0
LINE
8
DEFAULT_255_2_778
10
11.9263267
20
42.7100774
11
11.9263267
21
42.5232774
0
LINE
8
DEFAULT_255_2_778
10
9.6713267
20
41.3038774
11
14.9119267
21
41.3038774
0
LINE
8
DEFAULT_255_2_778
10
14.9119267
20
41.3038774
11
14.9119267
21
40.1430774
0
LINE
8
DEFAULT_255_2_778
10
14.9119267
20
40.1430774
11
9.6715267
21
40.1430774
0
LINE
8
DEFAULT_255_2_778
10
9.4853267
20
40.3216774
11
9.4853267
21
41.1252774
0
LINE
8
DEFAULT_255_2_778
10
10.0986267
20
40.4632774
11
10.0986267
21
40.9836774
0
LINE
8
DEFAULT_255_2_778
10
10.0986267
20
40.9836774
11
10.0634267
21
40.9775774
0
LINE
8
DEFAULT_255_2_778
10
10.0634267
20
40.9775774
11
10.0634267
21
40.4695774
0
LINE
8
DEFAULT_255_2_778
10
10.0634267
20
40.4695774
11
10.0986267
21
40.4634774
0
LINE
8
DEFAULT_255_2_778
10
10.0986267
20
40.4634774
11
10.3007267
21
40.4375774
0
LINE
8
DEFAULT_255_2_778
10
10.3007267
20
40.4375774
11
10.5706267
21
40.4116774
0
LINE
8
DEFAULT_255_2_778
10
10.5706267
20
40.4116774
11
10.8886267
21
40.3857774
0
LINE
8
DEFAULT_255_2_778
10
10.8886267
20
40.3857774
11
11.2315267
21
40.3597774
0
LINE
8
DEFAULT_255_2_778
10
11.2315267
20
40.3597774
11
11.6281267
21
40.3296774
0
LINE
8
DEFAULT_255_2_778
10
11.6281267
20
40.3296774
11
14.8672267
21
40.3296774
0
LINE
8
DEFAULT_255_2_778
10
14.8672267
20
40.3296774
11
14.8672267
21
41.1170774
0
LINE
8
DEFAULT_255_2_778
10
14.8672267
20
41.1170774
11
11.6284267
21
41.1170774
0
LINE
8
DEFAULT_255_2_778
10
11.6284267
20
41.1170774
11
11.6284267
21
40.3296774
0
LINE
8
DEFAULT_255_2_778
10
11.4114267
20
41.1027774
11
11.4114267
21
41.3035774
0
LINE
8
DEFAULT_255_2_778
10
11.4114267
20
40.1428774
11
11.4114267
21
40.3438774
0
LINE
8
DEFAULT_255_2_778
10
10.9458267
20
40.3812774
11
10.9458267
21
40.1428774
0
LINE
8
DEFAULT_255_2_778
10
10.9458267
20
41.3035774
11
10.9458267
21
41.0654774
0
LINE
8
DEFAULT_255_2_778
10
10.0637267
20
40.4693774
11
10.0057267
21
40.4788774
0
LINE
8
DEFAULT_255_2_778
10
10.0057267
20
40.4788774
11
9.9287267
21
40.4883774
0
LINE
8
DEFAULT_255_2_778
10
9.9287267
20
40.4883774
11
9.7893267
21
40.5026774
0
LINE
8
DEFAULT_255_2_778
10
9.7893267
20
40.5026774
11
9.7398267
21
40.5074774
0
LINE
8
DEFAULT_255_2_778
10
9.7398267
20
40.5074774
11
9.6792267
21
40.5124774
0
LINE
8
DEFAULT_255_2_778
10
9.6792267
20
40.5124774
11
9.6792267
21
40.9344774
0
LINE
8
DEFAULT_255_2_778
10
9.6792267
20
40.9344774
11
9.7398267
21
40.9394774
0
LINE
8
DEFAULT_255_2_778
10
9.7398267
20
40.9394774
11
9.7398267
21
40.5076774
0
LINE
8
DEFAULT_255_2_778
10
9.7245267
20
40.5090774
11
9.7245267
21
40.9384774
0
LINE
8
DEFAULT_255_2_778
10
13.8583267
20
41.1175774
11
13.8583267
21
40.3301774
0
LINE
8
DEFAULT_255_2_778
10
9.6715267
20
42.7103774
11
14.9121267
21
42.7103774
0
LINE
8
DEFAULT_255_2_778
10
14.9121267
20
42.7103774
11
14.9121267
21
41.5496774
0
LINE
8
DEFAULT_255_2_778
10
14.9121267
20
41.5496774
11
9.6715267
21
41.5496774
0
LINE
8
DEFAULT_255_2_778
10
9.4853267
20
41.7282774
11
9.4853267
21
42.5317774
0
LINE
8
DEFAULT_255_2_778
10
10.0986267
20
41.8697774
11
10.0986267
21
42.3901774
0
LINE
8
DEFAULT_255_2_778
10
10.0986267
20
42.3901774
11
10.0634267
21
42.3841774
0
LINE
8
DEFAULT_255_2_778
10
10.0634267
20
42.3841774
11
10.0634267
21
41.8761774
0
LINE
8
DEFAULT_255_2_778
10
10.0634267
20
41.8761774
11
10.0986267
21
41.8700774
0
LINE
8
DEFAULT_255_2_778
10
10.0986267
20
41.8700774
11
10.3007267
21
41.8440774
0
LINE
8
DEFAULT_255_2_778
10
10.3007267
20
41.8440774
11
10.5706267
21
41.8181774
0
LINE
8
DEFAULT_255_2_778
10
10.5706267
20
41.8181774
11
10.8886267
21
41.7922774
0
LINE
8
DEFAULT_255_2_778
10
10.8886267
20
41.7922774
11
11.2315267
21
41.7663774
0
LINE
8
DEFAULT_255_2_778
10
11.2315267
20
41.7663774
11
11.6281267
21
41.7361774
0
LINE
8
DEFAULT_255_2_778
10
11.6281267
20
41.7361774
11
14.8672267
21
41.7361774
0
LINE
8
DEFAULT_255_2_778
10
14.8672267
20
41.7361774
11
14.8672267
21
42.5235774
0
LINE
8
DEFAULT_255_2_778
10
14.8672267
20
42.5235774
11
11.6284267
21
42.5235774
0
LINE
8
DEFAULT_255_2_778
10
11.6284267
20
42.5235774
11
11.6284267
21
41.7361774
0
LINE
8
DEFAULT_255_2_778
10
11.4114267
20
42.5092774
11
11.4114267
21
42.7100774
0
LINE
8
DEFAULT_255_2_778
10
11.4114267
20
41.5493774
11
11.4114267
21
41.7504774
0
LINE
8
DEFAULT_255_2_778
10
10.9458267
20
41.7877774
11
10.9458267
21
41.5493774
0
LINE
8
DEFAULT_255_2_778
10
10.9458267
20
42.7100774
11
10.9458267
21
42.4719774
0
LINE
8
DEFAULT_255_2_778
10
10.0637267
20
41.8758774
11
10.0057267
21
41.8853774
0
LINE
8
DEFAULT_255_2_778
10
10.0057267
20
41.8853774
11
9.9287267
21
41.8948774
0
LINE
8
DEFAULT_255_2_778
10
9.9287267
20
41.8948774
11
9.7893267
21
41.9091774
0
LINE
8
DEFAULT_255_2_778
10
9.7893267
20
41.9091774
11
9.7398267
21
41.9139774
0
LINE
8
DEFAULT_255_2_778
10
9.7398267
20
41.9139774
11
9.6792267
21
41.9189774
0
LINE
8
DEFAULT_255_2_778
10
9.6792267
20
41.9189774
11
9.6792267
21
42.3409774
0
LINE
8
DEFAULT_255_2_778
10
9.6792267
20
42.3409774
11
9.7398267
21
42.3460774
0
LINE
8
DEFAULT_255_2_778
10
9.7398267
20
42.3460774
11
9.7398267
21
41.9142774
0
LINE
8
DEFAULT_255_2_778
10
9.7245267
20
41.9155774
11
9.7245267
21
42.3449774
0
LINE
8
DEFAULT_255_2_778
10
13.8583267
20
42.5240774
11
13.8583267
21
41.7366774
0
LINE
8
DEFAULT_255_2_778
10
9.6715267
20
44.1168774
11
14.9121267
21
44.1168774
0
LINE
8
DEFAULT_255_2_778
10
14.9121267
20
44.1168774
11
14.9121267
21
42.9561774
0
LINE
8
DEFAULT_255_2_778
10
14.9121267
20
42.9561774
11
9.6715267
21
42.9561774
0
LINE
8
DEFAULT_255_2_778
10
9.4853267
20
43.1347774
11
9.4853267
21
43.9382774
0
LINE
8
DEFAULT_255_2_778
10
10.0986267
20
43.2762774
11
10.0986267
21
43.7967774
0
LINE
8
DEFAULT_255_2_778
10
10.0986267
20
43.7967774
11
10.0634267
21
43.7906774
0
LINE
8
DEFAULT_255_2_778
10
10.0634267
20
43.7906774
11
10.0634267
21
43.2826774
0
LINE
8
DEFAULT_255_2_778
10
10.0634267
20
43.2826774
11
10.0986267
21
43.2765774
0
LINE
8
DEFAULT_255_2_778
10
10.0986267
20
43.2765774
11
10.3007267
21
43.2506774
0
LINE
8
DEFAULT_255_2_778
10
10.3007267
20
43.2506774
11
10.5706267
21
43.2246774
0
LINE
8
DEFAULT_255_2_778
10
10.5706267
20
43.2246774
11
10.8886267
21
43.1987774
0
LINE
8
DEFAULT_255_2_778
10
10.8886267
20
43.1987774
11
11.2315267
21
43.1728774
0
LINE
8
DEFAULT_255_2_778
10
11.2315267
20
43.1728774
11
11.6281267
21
43.1426774
0
LINE
8
DEFAULT_255_2_778
10
11.6281267
20
43.1426774
11
14.8672267
21
43.1426774
0
LINE
8
DEFAULT_255_2_778
10
14.8672267
20
43.1426774
11
14.8672267
21
43.9300774
0
LINE
8
DEFAULT_255_2_778
10
14.8672267
20
43.9300774
11
11.6284267
21
43.9300774
0
LINE
8
DEFAULT_255_2_778
10
11.6284267
20
43.9300774
11
11.6284267
21
43.1426774
0
LINE
8
DEFAULT_255_2_778
10
11.4114267
20
43.9157774
11
11.4114267
21
44.1166774
0
LINE
8
DEFAULT_255_2_778
10
11.4114267
20
42.9558774
11
11.4114267
21
43.1569774
0
LINE
8
DEFAULT_255_2_778
10
10.9458267
20
43.1942774
11
10.9458267
21
42.9558774
0
LINE
8
DEFAULT_255_2_778
10
10.9458267
20
44.1166774
11
10.9458267
21
43.8784774
0
LINE
8
DEFAULT_255_2_778
10
10.0637267
20
43.2823774
11
10.0057267
21
43.2918774
0
LINE
8
DEFAULT_255_2_778
10
10.0057267
20
43.2918774
11
9.9287267
21
43.3014774
0
LINE
8
DEFAULT_255_2_778
10
9.9287267
20
43.3014774
11
9.7893267
21
43.3157774
0
LINE
8
DEFAULT_255_2_778
10
9.7893267
20
43.3157774
11
9.7398267
21
43.3204774
0
LINE
8
DEFAULT_255_2_778
10
9.7398267
20
43.3204774
11
9.6792267
21
43.3254774
0
LINE
8
DEFAULT_255_2_778
10
9.6792267
20
43.3254774
11
9.6792267
21
43.7475774
0
LINE
8
DEFAULT_255_2_778
10
9.6792267
20
43.7475774
11
9.7398267
21
43.7525774
0
LINE
8
DEFAULT_255_2_778
10
9.7398267
20
43.7525774
11
9.7398267
21
43.3207774
0
LINE
8
DEFAULT_255_2_778
10
9.7245267
20
43.3220774
11
9.7245267
21
43.7514774
0
LINE
8
DEFAULT_255_2_778
10
13.8583267
20
43.9305774
11
13.8583267
21
43.1431774
0
LINE
8
DEFAULT_255_2_778
10
9.6715267
20
45.5233774
11
14.9121267
21
45.5233774
0
LINE
8
DEFAULT_255_2_778
10
14.9121267
20
45.5233774
11
14.9121267
21
44.3626774
0
LINE
8
DEFAULT_255_2_778
10
14.9121267
20
44.3626774
11
9.6715267
21
44.3626774
0
LINE
8
DEFAULT_255_2_778
10
9.4853267
20
44.5412774
11
9.4853267
21
45.3447774
0
LINE
8
DEFAULT_255_2_778
10
10.0986267
20
44.6828774
11
10.0986267
21
45.2032774
0
LINE
8
DEFAULT_255_2_778
10
10.0986267
20
45.2032774
11
10.0634267
21
45.1971774
0
LINE
8
DEFAULT_255_2_778
10
10.0634267
20
45.1971774
11
10.0634267
21
44.6891774
0
LINE
8
DEFAULT_255_2_778
10
10.0634267
20
44.6891774
11
10.0986267
21
44.6830774
0
LINE
8
DEFAULT_255_2_778
10
10.0986267
20
44.6830774
11
10.3007267
21
44.6571774
0
LINE
8
DEFAULT_255_2_778
10
10.3007267
20
44.6571774
11
10.5706267
21
44.6312774
0
LINE
8
DEFAULT_255_2_778
10
10.5706267
20
44.6312774
11
10.8886267
21
44.6052774
0
LINE
8
DEFAULT_255_2_778
10
10.8886267
20
44.6052774
11
11.2315267
21
44.5793774
0
LINE
8
DEFAULT_255_2_778
10
11.2315267
20
44.5793774
11
11.6281267
21
44.5491774
0
LINE
8
DEFAULT_255_2_778
10
11.6281267
20
44.5491774
11
14.8672267
21
44.5491774
0
LINE
8
DEFAULT_255_2_778
10
14.8672267
20
44.5491774
11
14.8672267
21
45.3365774
0
LINE
8
DEFAULT_255_2_778
10
14.8672267
20
45.3365774
11
11.6284267
21
45.3365774
0
LINE
8
DEFAULT_255_2_778
10
11.6284267
20
45.3365774
11
11.6284267
21
44.5491774
0
LINE
8
DEFAULT_255_2_778
10
11.4114267
20
45.3223774
11
11.4114267
21
45.5231774
0
LINE
8
DEFAULT_255_2_778
10
11.4114267
20
44.3623774
11
11.4114267
21
44.5634774
0
LINE
8
DEFAULT_255_2_778
10
10.9458267
20
44.6007774
11
10.9458267
21
44.3623774
0
LINE
8
DEFAULT_255_2_778
10
10.9458267
20
45.5231774
11
10.9458267
21
45.2849774
0
LINE
8
DEFAULT_255_2_778
10
10.0637267
20
44.6888774
11
10.0057267
21
44.6984774
0
LINE
8
DEFAULT_255_2_778
10
10.0057267
20
44.6984774
11
9.9287267
21
44.7079774
0
LINE
8
DEFAULT_255_2_778
10
9.9287267
20
44.7079774
11
9.7893267
21
44.7222774
0
LINE
8
DEFAULT_255_2_778
10
9.7893267
20
44.7222774
11
9.7398267
21
44.7269774
0
LINE
8
DEFAULT_255_2_778
10
9.7398267
20
44.7269774
11
9.6792267
21
44.7320774
0
LINE
8
DEFAULT_255_2_778
10
9.6792267
20
44.7320774
11
9.6792267
21
45.1540774
0
LINE
8
DEFAULT_255_2_778
10
9.6792267
20
45.1540774
11
9.7398267
21
45.1590774
0
LINE
8
DEFAULT_255_2_778
10
9.7398267
20
45.1590774
11
9.7398267
21
44.7272774
0
LINE
8
DEFAULT_255_2_778
10
9.7245267
20
44.7285774
11
9.7245267
21
45.1579774
0
LINE
8
DEFAULT_255_2_778
10
13.8583267
20
45.3371774
11
13.8583267
21
44.5497774
0
LINE
8
DEFAULT_255_2_778
10
9.6715267
20
34.2743774
11
14.9121267
21
34.2743774
0
LINE
8
DEFAULT_255_2_778
10
14.9121267
20
34.2743774
11
14.9121267
21
33.1136774
0
LINE
8
DEFAULT_255_2_778
10
14.9121267
20
33.1136774
11
9.6715267
21
33.1136774
0
LINE
8
DEFAULT_255_2_778
10
9.4853267
20
33.2922774
11
9.4853267
21
34.0957774
0
LINE
8
DEFAULT_255_2_778
10
10.0986267
20
33.4337774
11
10.0986267
21
33.9542774
0
LINE
8
DEFAULT_255_2_778
10
10.0986267
20
33.9542774
11
10.0634267
21
33.9481774
0
LINE
8
DEFAULT_255_2_778
10
10.0634267
20
33.9481774
11
10.0634267
21
33.4401774
0
LINE
8
DEFAULT_255_2_778
10
10.0634267
20
33.4401774
11
10.0986267
21
33.4340774
0
LINE
8
DEFAULT_255_2_778
10
10.0986267
20
33.4340774
11
10.3007267
21
33.4081774
0
LINE
8
DEFAULT_255_2_778
10
10.3007267
20
33.4081774
11
10.5706267
21
33.3821774
0
LINE
8
DEFAULT_255_2_778
10
10.5706267
20
33.3821774
11
10.8886267
21
33.3562774
0
LINE
8
DEFAULT_255_2_778
10
10.8886267
20
33.3562774
11
11.2315267
21
33.3303774
0
LINE
8
DEFAULT_255_2_778
10
11.2315267
20
33.3303774
11
11.6281267
21
33.3001774
0
LINE
8
DEFAULT_255_2_778
10
11.6281267
20
33.3001774
11
14.8672267
21
33.3001774
0
LINE
8
DEFAULT_255_2_778
10
14.8672267
20
33.3001774
11
14.8672267
21
34.0875774
0
LINE
8
DEFAULT_255_2_778
10
14.8672267
20
34.0875774
11
11.6284267
21
34.0875774
0
LINE
8
DEFAULT_255_2_778
10
11.6284267
20
34.0875774
11
11.6284267
21
33.3001774
0
LINE
8
DEFAULT_255_2_778
10
11.4114267
20
34.0732774
11
11.4114267
21
34.2740774
0
LINE
8
DEFAULT_255_2_778
10
11.4114267
20
33.1133774
11
11.4114267
21
33.3144774
0
LINE
8
DEFAULT_255_2_778
10
10.9458267
20
33.3517774
11
10.9458267
21
33.1133774
0
LINE
8
DEFAULT_255_2_778
10
10.9458267
20
34.2740774
11
10.9458267
21
34.0359774
0
LINE
8
DEFAULT_255_2_778
10
10.0637267
20
33.4398774
11
10.0057267
21
33.4493774
0
LINE
8
DEFAULT_255_2_778
10
10.0057267
20
33.4493774
11
9.9287267
21
33.4589774
0
LINE
8
DEFAULT_255_2_778
10
9.9287267
20
33.4589774
11
9.7893267
21
33.4732774
0
LINE
8
DEFAULT_255_2_778
10
9.7893267
20
33.4732774
11
9.7398267
21
33.4779774
0
LINE
8
DEFAULT_255_2_778
10
9.7398267
20
33.4779774
11
9.6792267
21
33.4829774
0
LINE
8
DEFAULT_255_2_778
10
9.6792267
20
33.4829774
11
9.6792267
21
33.9050774
0
LINE
8
DEFAULT_255_2_778
10
9.6792267
20
33.9050774
11
9.7398267
21
33.9100774
0
LINE
8
DEFAULT_255_2_778
10
9.7398267
20
33.9100774
11
9.7398267
21
33.4782774
0
LINE
8
DEFAULT_255_2_778
10
9.7245267
20
33.4795774
11
9.7245267
21
33.9089774
0
LINE
8
DEFAULT_255_2_778
10
13.8583267
20
34.0880774
11
13.8583267
21
33.3006774
0
LINE
8
DEFAULT_255_2_778
10
9.6715267
20
35.6808774
11
14.9121267
21
35.6808774
0
LINE
8
DEFAULT_255_2_778
10
14.9121267
20
35.6808774
11
14.9121267
21
34.5201774
0
LINE
8
DEFAULT_255_2_778
10
14.9121267
20
34.5201774
11
9.6715267
21
34.5201774
0
LINE
8
DEFAULT_255_2_778
10
9.4853267
20
34.6987774
11
9.4853267
21
35.5022774
0
LINE
8
DEFAULT_255_2_778
10
10.0986267
20
34.8403774
11
10.0986267
21
35.3607774
0
LINE
8
DEFAULT_255_2_778
10
10.0986267
20
35.3607774
11
10.0634267
21
35.3546774
0
LINE
8
DEFAULT_255_2_778
10
10.0634267
20
35.3546774
11
10.0634267
21
34.8466774
0
LINE
8
DEFAULT_255_2_778
10
10.0634267
20
34.8466774
11
10.0986267
21
34.8405774
0
LINE
8
DEFAULT_255_2_778
10
10.0986267
20
34.8405774
11
10.3007267
21
34.8146774
0
LINE
8
DEFAULT_255_2_778
10
10.3007267
20
34.8146774
11
10.5706267
21
34.7887774
0
LINE
8
DEFAULT_255_2_778
10
10.5706267
20
34.7887774
11
10.8886267
21
34.7627774
0
LINE
8
DEFAULT_255_2_778
10
10.8886267
20
34.7627774
11
11.2315267
21
34.7368774
0
LINE
8
DEFAULT_255_2_778
10
11.2315267
20
34.7368774
11
11.6281267
21
34.7066774
0
LINE
8
DEFAULT_255_2_778
10
11.6281267
20
34.7066774
11
14.8672267
21
34.7066774
0
LINE
8
DEFAULT_255_2_778
10
14.8672267
20
34.7066774
11
14.8672267
21
35.4940774
0
LINE
8
DEFAULT_255_2_778
10
14.8672267
20
35.4940774
11
11.6284267
21
35.4940774
0
LINE
8
DEFAULT_255_2_778
10
11.6284267
20
35.4940774
11
11.6284267
21
34.7066774
0
LINE
8
DEFAULT_255_2_778
10
11.4114267
20
35.4798774
11
11.4114267
21
35.6806774
0
LINE
8
DEFAULT_255_2_778
10
11.4114267
20
34.5198774
11
11.4114267
21
34.7209774
0
LINE
8
DEFAULT_255_2_778
10
10.9458267
20
34.7582774
11
10.9458267
21
34.5198774
0
LINE
8
DEFAULT_255_2_778
10
10.9458267
20
35.6806774
11
10.9458267
21
35.4424774
0
LINE
8
DEFAULT_255_2_778
10
10.0637267
20
34.8463774
11
10.0057267
21
34.8559774
0
LINE
8
DEFAULT_255_2_778
10
10.0057267
20
34.8559774
11
9.9287267
21
34.8654774
0
LINE
8
DEFAULT_255_2_778
10
9.9287267
20
34.8654774
11
9.7893267
21
34.8797774
0
LINE
8
DEFAULT_255_2_778
10
9.7893267
20
34.8797774
11
9.7398267
21
34.8844774
0
LINE
8
DEFAULT_255_2_778
10
9.7398267
20
34.8844774
11
9.6792267
21
34.8895774
0
LINE
8
DEFAULT_255_2_778
10
9.6792267
20
34.8895774
11
9.6792267
21
35.3115774
0
LINE
8
DEFAULT_255_2_778
10
9.6792267
20
35.3115774
11
9.7398267
21
35.3165774
0
LINE
8
DEFAULT_255_2_778
10
9.7398267
20
35.3165774
11
9.7398267
21
34.8847774
0
LINE
8
DEFAULT_255_2_778
10
9.7245267
20
34.8860774
11
9.7245267
21
35.3155774
0
LINE
8
DEFAULT_255_2_778
10
13.8583267
20
35.4946774
11
13.8583267
21
34.7072774
0
LINE
8
DEFAULT_255_2_778
10
9.6715267
20
37.0874774
11
14.9121267
21
37.0874774
0
LINE
8
DEFAULT_255_2_778
10
14.9121267
20
37.0874774
11
14.9121267
21
35.9266774
0
LINE
8
DEFAULT_255_2_778
10
14.9121267
20
35.9266774
11
9.6715267
21
35.9266774
0
LINE
8
DEFAULT_255_2_778
10
9.4853267
20
36.1052774
11
9.4853267
21
36.9088774
0
LINE
8
DEFAULT_255_2_778
10
10.0986267
20
36.2468774
11
10.0986267
21
36.7672774
0
LINE
8
DEFAULT_255_2_778
10
10.0986267
20
36.7672774
11
10.0634267
21
36.7611774
0
LINE
8
DEFAULT_255_2_778
10
10.0634267
20
36.7611774
11
10.0634267
21
36.2531774
0
LINE
8
DEFAULT_255_2_778
10
10.0634267
20
36.2531774
11
10.0986267
21
36.2470774
0
LINE
8
DEFAULT_255_2_778
10
10.0986267
20
36.2470774
11
10.3007267
21
36.2211774
0
LINE
8
DEFAULT_255_2_778
10
10.3007267
20
36.2211774
11
10.5706267
21
36.1952774
0
LINE
8
DEFAULT_255_2_778
10
10.5706267
20
36.1952774
11
10.8886267
21
36.1693774
0
LINE
8
DEFAULT_255_2_778
10
10.8886267
20
36.1693774
11
11.2315267
21
36.1433774
0
LINE
8
DEFAULT_255_2_778
10
11.2315267
20
36.1433774
11
11.6281267
21
36.1132774
0
LINE
8
DEFAULT_255_2_778
10
11.6281267
20
36.1132774
11
14.8672267
21
36.1132774
0
LINE
8
DEFAULT_255_2_778
10
14.8672267
20
36.1132774
11
14.8672267
21
36.9006774
0
LINE
8
DEFAULT_255_2_778
10
14.8672267
20
36.9006774
11
11.6284267
21
36.9006774
0
LINE
8
DEFAULT_255_2_778
10
11.6284267
20
36.9006774
11
11.6284267
21
36.1132774
0
LINE
8
DEFAULT_255_2_778
10
11.4114267
20
36.8863774
11
11.4114267
21
37.0871774
0
LINE
8
DEFAULT_255_2_778
10
11.4114267
20
35.9264774
11
11.4114267
21
36.1275774
0
LINE
8
DEFAULT_255_2_778
10
10.9458267
20
36.1648774
11
10.9458267
21
35.9264774
0
LINE
8
DEFAULT_255_2_778
10
10.9458267
20
37.0871774
11
10.9458267
21
36.8490774
0
LINE
8
DEFAULT_255_2_778
10
10.0637267
20
36.2529774
11
10.0057267
21
36.2624774
0
LINE
8
DEFAULT_255_2_778
10
10.0057267
20
36.2624774
11
9.9287267
21
36.2719774
0
LINE
8
DEFAULT_255_2_778
10
9.9287267
20
36.2719774
11
9.7893267
21
36.2862774
0
LINE
8
DEFAULT_255_2_778
10
9.7893267
20
36.2862774
11
9.7398267
21
36.2910774
0
LINE
8
DEFAULT_255_2_778
10
9.7398267
20
36.2910774
11
9.6792267
21
36.2960774
0
LINE
8
DEFAULT_255_2_778
10
9.6792267
20
36.2960774
11
9.6792267
21
36.7180774
0
LINE
8
DEFAULT_255_2_778
10
9.6792267
20
36.7180774
11
9.7398267
21
36.7230774
0
LINE
8
DEFAULT_255_2_778
10
9.7398267
20
36.7230774
11
9.7398267
21
36.2912774
0
LINE
8
DEFAULT_255_2_778
10
9.7245267
20
36.2926774
11
9.7245267
21
36.7220774
0
LINE
8
DEFAULT_255_2_778
10
13.8583267
20
36.9011774
11
13.8583267
21
36.1137774
0
LINE
8
DEFAULT_255_2_778
10
9.6715267
20
38.4939774
11
14.9121267
21
38.4939774
0
LINE
8
DEFAULT_255_2_778
10
14.9121267
20
38.4939774
11
14.9121267
21
37.3332774
0
LINE
8
DEFAULT_255_2_778
10
14.9121267
20
37.3332774
11
9.6715267
21
37.3332774
0
LINE
8
DEFAULT_255_2_778
10
9.4853267
20
37.5118774
11
9.4853267
21
38.3153774
0
LINE
8
DEFAULT_255_2_778
10
10.0986267
20
37.6533774
11
10.0986267
21
38.1737774
0
LINE
8
DEFAULT_255_2_778
10
10.0986267
20
38.1737774
11
10.0634267
21
38.1677774
0
LINE
8
DEFAULT_255_2_778
10
10.0634267
20
38.1677774
11
10.0634267
21
37.6597774
0
LINE
8
DEFAULT_255_2_778
10
10.0634267
20
37.6597774
11
10.0986267
21
37.6536774
0
LINE
8
DEFAULT_255_2_778
10
10.0986267
20
37.6536774
11
10.3007267
21
37.6276774
0
LINE
8
DEFAULT_255_2_778
10
10.3007267
20
37.6276774
11
10.5706267
21
37.6017774
0
LINE
8
DEFAULT_255_2_778
10
10.5706267
20
37.6017774
11
10.8886267
21
37.5758774
0
LINE
8
DEFAULT_255_2_778
10
10.8886267
20
37.5758774
11
11.2315267
21
37.5499774
0
LINE
8
DEFAULT_255_2_778
10
11.2315267
20
37.5499774
11
11.6281267
21
37.5197774
0
LINE
8
DEFAULT_255_2_778
10
11.6281267
20
37.5197774
11
14.8672267
21
37.5197774
0
LINE
8
DEFAULT_255_2_778
10
14.8672267
20
37.5197774
11
14.8672267
21
38.3071774
0
LINE
8
DEFAULT_255_2_778
10
14.8672267
20
38.3071774
11
11.6284267
21
38.3071774
0
LINE
8
DEFAULT_255_2_778
10
11.6284267
20
38.3071774
11
11.6284267
21
37.5197774
0
LINE
8
DEFAULT_255_2_778
10
11.4114267
20
38.2928774
11
11.4114267
21
38.4936774
0
LINE
8
DEFAULT_255_2_778
10
11.4114267
20
37.3329774
11
11.4114267
21
37.5340774
0
LINE
8
DEFAULT_255_2_778
10
10.9458267
20
37.5713774
11
10.9458267
21
37.3329774
0
LINE
8
DEFAULT_255_2_778
10
10.9458267
20
38.4936774
11
10.9458267
21
38.2555774
0
LINE
8
DEFAULT_255_2_778
10
10.0637267
20
37.6594774
11
10.0057267
21
37.6689774
0
LINE
8
DEFAULT_255_2_778
10
10.0057267
20
37.6689774
11
9.9287267
21
37.6784774
0
LINE
8
DEFAULT_255_2_778
10
9.9287267
20
37.6784774
11
9.7893267
21
37.6927774
0
LINE
8
DEFAULT_255_2_778
10
9.7893267
20
37.6927774
11
9.7398267
21
37.6975774
0
LINE
8
DEFAULT_255_2_778
10
9.7398267
20
37.6975774
11
9.6792267
21
37.7025774
0
LINE
8
DEFAULT_255_2_778
10
9.6792267
20
37.7025774
11
9.6792267
21
38.1245774
0
LINE
8
DEFAULT_255_2_778
10
9.6792267
20
38.1245774
11
9.7398267
21
38.1296774
0
LINE
8
DEFAULT_255_2_778
10
9.7398267
20
38.1296774
11
9.7398267
21
37.6978774
0
LINE
8
DEFAULT_255_2_778
10
9.7245267
20
37.6991774
11
9.7245267
21
38.1285774
0
LINE
8
DEFAULT_255_2_778
10
13.8583267
20
38.3076774
11
13.8583267
21
37.5202774
0
LINE
8
DEFAULT_255_2_778
10
9.9044267
20
45.1799774
11
9.9044267
21
45.5255774
0
LINE
8
DEFAULT_255_2_778
10
9.9044267
20
44.3647774
11
9.9044267
21
44.7103774
0
LINE
8
DEFAULT_255_2_778
10
9.9044267
20
43.7742774
11
9.9044267
21
44.1197774
0
LINE
8
DEFAULT_255_2_778
10
9.9044267
20
42.9590774
11
9.9044267
21
43.3045774
0
LINE
8
DEFAULT_255_2_778
10
9.9044267
20
42.3685774
11
9.9044267
21
42.7140774
0
LINE
8
DEFAULT_255_2_778
10
9.9044267
20
41.5533774
11
9.9044267
21
41.8988774
0
LINE
8
DEFAULT_255_2_778
10
9.9044267
20
40.9627774
11
9.9044267
21
41.3083774
0
LINE
8
DEFAULT_255_2_778
10
9.9044267
20
40.1475774
11
9.9044267
21
40.4931774
0
LINE
8
DEFAULT_255_2_778
10
9.9044267
20
39.5570774
11
9.9044267
21
39.9025774
0
LINE
8
DEFAULT_255_2_778
10
9.9044267
20
38.7418774
11
9.9044267
21
39.0874774
0
LINE
8
DEFAULT_255_2_778
10
9.9044267
20
38.1513774
11
9.9044267
21
38.4968774
0
LINE
8
DEFAULT_255_2_778
10
9.9044267
20
37.3361774
11
9.9044267
21
37.6816774
0
LINE
8
DEFAULT_255_2_778
10
9.9044267
20
36.7455774
11
9.9044267
21
37.0911774
0
LINE
8
DEFAULT_255_2_778
10
9.9044267
20
35.9303774
11
9.9044267
21
36.2759774
0
LINE
8
DEFAULT_255_2_778
10
9.9044267
20
35.3398774
11
9.9044267
21
35.6853774
0
LINE
8
DEFAULT_255_2_778
10
9.9044267
20
34.5246774
11
9.9044267
21
34.8702774
0
LINE
8
DEFAULT_255_2_778
10
9.9044267
20
33.9341774
11
9.9044267
21
34.2796774
0
LINE
8
DEFAULT_255_2_778
10
9.9044267
20
33.1189774
11
9.9044267
21
33.4644774
0
LINE
8
DEFAULT_255_2_778
10
14.6327267
20
29.5623774
11
14.6327267
21
29.4893774
0
LINE
8
DEFAULT_255_2_778
10
14.6327267
20
29.4893774
11
10.1314267
21
29.4885774
0
LINE
8
DEFAULT_255_2_778
10
10.1314267
20
29.4885774
11
9.7647267
21
29.4906774
0
LINE
8
DEFAULT_255_2_778
10
9.7647267
20
29.4906774
11
9.7647267
21
29.5623774
0
LINE
8
DEFAULT_255_2_778
10
9.7647267
20
29.5623774
11
14.6327267
21
29.5623774
0
LINE
8
DEFAULT_255_2_778
10
14.5020267
20
32.4529774
11
14.6325267
21
32.4521774
0
LINE
8
DEFAULT_255_2_778
10
14.6325267
20
32.4521774
11
14.6325267
21
32.3791774
0
LINE
8
DEFAULT_255_2_778
10
14.6325267
20
32.3791774
11
9.7647267
21
32.3791774
0
LINE
8
DEFAULT_255_2_778
10
9.7647267
20
32.3791774
11
9.7647267
21
32.4508774
0
LINE
8
DEFAULT_255_2_778
10
9.7647267
20
32.4508774
11
14.5020267
21
32.4529774
0
LINE
8
DEFAULT_255_2_778
10
14.6330267
20
25.9860774
11
14.6330267
21
25.9129774
0
LINE
8
DEFAULT_255_2_778
10
14.6330267
20
25.9129774
11
10.1317267
21
25.9122774
0
LINE
8
DEFAULT_255_2_778
10
10.1317267
20
25.9122774
11
9.7649267
21
25.9143774
0
LINE
8
DEFAULT_255_2_778
10
9.7649267
20
25.9143774
11
9.7649267
21
25.9860774
0
LINE
8
DEFAULT_255_2_778
10
9.7649267
20
25.9860774
11
14.6330267
21
25.9860774
0
LINE
8
DEFAULT_255_2_778
10
14.5023267
20
27.7338774
11
14.6327267
21
27.7330774
0
LINE
8
DEFAULT_255_2_778
10
14.6327267
20
27.7330774
11
14.6327267
21
27.6600774
0
LINE
8
DEFAULT_255_2_778
10
14.6327267
20
27.6600774
11
9.7647267
21
27.6600774
0
LINE
8
DEFAULT_255_2_778
10
9.7647267
20
27.6600774
11
9.7647267
21
27.7317774
0
LINE
8
DEFAULT_255_2_778
10
9.7647267
20
27.7317774
11
14.5020267
21
27.7338774
0
LINE
8
DEFAULT_255_2_778
10
12.6425267
20
30.9411774
11
12.4531267
21
31.1170774
0
LINE
8
DEFAULT_255_2_778
10
13.4411267
20
31.1808774
11
13.9499267
21
31.1808774
0
LINE
8
DEFAULT_255_2_778
10
13.9499267
20
31.1808774
11
13.9469267
21
31.2692774
0
LINE
8
DEFAULT_255_2_778
10
13.1717267
20
31.8640774
11
13.0196267
21
31.8571774
0
LINE
8
DEFAULT_255_2_778
10
12.4941267
20
31.6041774
11
12.4534267
21
31.5404774
0
LINE
8
DEFAULT_255_2_778
10
12.4534267
20
31.5404774
11
12.4534267
21
31.8354774
0
LINE
8
DEFAULT_255_2_778
10
12.4534267
20
31.8354774
11
11.9446267
21
31.8354774
0
LINE
8
DEFAULT_255_2_778
10
11.9446267
20
31.8354774
11
11.9446267
21
30.7969774
0
LINE
8
DEFAULT_255_2_778
10
11.9446267
20
30.7969774
11
11.6752267
21
31.8354774
0
LINE
8
DEFAULT_255_2_778
10
11.6752267
20
31.8354774
11
11.2262267
21
31.8354774
0
LINE
8
DEFAULT_255_2_778
10
11.2262267
20
31.8354774
11
10.9569267
21
30.7969774
0
LINE
8
DEFAULT_255_2_778
10
10.9569267
20
30.7969774
11
10.9569267
21
31.8354774
0
LINE
8
DEFAULT_255_2_778
10
10.9569267
20
31.8354774
11
10.4478267
21
31.8354774
0
LINE
8
DEFAULT_255_2_778
10
10.4478267
20
31.8354774
11
10.4478267
21
30.1566774
0
LINE
8
DEFAULT_255_2_778
10
10.4478267
20
30.1566774
11
11.1961267
21
30.1566774
0
LINE
8
DEFAULT_255_2_778
10
11.1961267
20
30.1566774
11
11.4506267
21
31.1239774
0
LINE
8
DEFAULT_255_2_778
10
11.4506267
20
31.1239774
11
11.7051267
21
30.1566774
0
LINE
8
DEFAULT_255_2_778
10
11.7051267
20
30.1566774
11
12.4534267
21
30.1566774
0
LINE
8
DEFAULT_255_2_778
10
12.4534267
20
30.1566774
11
12.4534267
21
30.5080774
0
LINE
8
DEFAULT_255_2_778
10
12.4534267
20
30.5080774
11
12.4724267
21
30.4540774
0
LINE
8
DEFAULT_255_2_778
10
13.8758267
20
30.6270774
11
13.8821267
21
30.7188774
0
LINE
8
DEFAULT_255_2_778
10
13.8821267
20
30.7188774
11
13.4106267
21
30.7188774
0
LINE
8
DEFAULT_255_2_778
10
12.9503267
20
30.7043774
11
12.9640267
21
30.7310774
0
LINE
8
DEFAULT_255_2_778
10
13.1416267
20
30.7972774
11
13.3212267
21
30.7972774
0
LINE
8
DEFAULT_255_2_778
10
13.3212267
20
30.7972774
11
13.3212267
21
31.1245774
0
LINE
8
DEFAULT_255_2_778
10
13.3212267
20
31.1245774
11
13.2016267
21
31.1245774
0
LINE
8
DEFAULT_255_2_778
10
13.1857267
20
31.4771774
11
13.2159267
21
31.4756774
0
LINE
8
DEFAULT_255_2_778
10
12.4531267
20
31.1168774
11
12.4531267
21
30.7294774
0
LINE
8
DEFAULT_255_2_778
10
14.5026267
20
49.1595774
11
14.6330267
21
49.1587774
0
LINE
8
DEFAULT_255_2_778
10
14.6330267
20
49.1587774
11
14.6330267
21
49.0857774
0
LINE
8
DEFAULT_255_2_778
10
14.6330267
20
49.0857774
11
9.7647267
21
49.0857774
0
LINE
8
DEFAULT_255_2_778
10
9.7647267
20
49.0857774
11
9.7647267
21
49.1574774
0
LINE
8
DEFAULT_255_2_778
10
9.7647267
20
49.1574774
11
14.5020267
21
49.1595774
0
LINE
8
DEFAULT_255_2_778
10
14.5020267
20
52.7359774
11
14.6325267
21
52.7351774
0
LINE
8
DEFAULT_255_2_778
10
14.6325267
20
52.7351774
11
14.6325267
21
52.6621774
0
LINE
8
DEFAULT_255_2_778
10
14.6325267
20
52.6621774
11
9.7647267
21
52.6621774
0
LINE
8
DEFAULT_255_2_778
10
9.7647267
20
52.6621774
11
9.7647267
21
52.7338774
0
LINE
8
DEFAULT_255_2_778
10
9.7647267
20
52.7338774
11
14.5020267
21
52.7359774
0
LINE
8
DEFAULT_255_2_778
10
9.4887267
20
29.7571774
11
9.5617267
21
29.7571774
0
LINE
8
DEFAULT_255_2_778
10
9.5617267
20
29.7571774
11
9.5617267
21
32.1854774
0
LINE
8
DEFAULT_255_2_778
10
9.5617267
20
32.1854774
11
9.4887267
21
32.1854774
0
LINE
8
DEFAULT_255_2_778
10
9.4887267
20
32.1854774
11
9.4887267
21
29.7571774
0
LINE
8
DEFAULT_255_2_778
10
9.4890267
20
26.1807774
11
9.5620267
21
26.1807774
0
LINE
8
DEFAULT_255_2_778
10
9.5620267
20
26.1807774
11
9.5620267
21
27.4666774
0
LINE
8
DEFAULT_255_2_778
10
9.5620267
20
27.4666774
11
9.4890267
21
27.4666774
0
LINE
8
DEFAULT_255_2_778
10
9.4890267
20
27.4666774
11
9.4890267
21
26.1807774
0
LINE
8
DEFAULT_255_2_778
10
14.5023267
20
54.7369774
11
14.5023267
21
52.7367774
0
LINE
8
DEFAULT_255_2_778
10
10.1314267
20
52.7359774
11
10.1314267
21
54.7369774
0
LINE
8
DEFAULT_255_2_778
10
11.5101267
20
53.4714774
11
13.1236267
21
53.4714774
0
LINE
8
DEFAULT_255_2_778
10
13.1236267
20
53.4714774
11
13.1236267
21
53.7527774
0
LINE
8
DEFAULT_255_2_778
10
13.1236267
20
53.7527774
11
11.5101267
21
53.7527774
0
LINE
8
DEFAULT_255_2_778
10
11.5101267
20
53.7527774
11
11.5101267
21
53.4714774
0
LINE
8
DEFAULT_255_2_778
10
12.8442267
20
53.7527774
11
12.8442267
21
53.4714774
0
LINE
8
DEFAULT_255_2_778
10
11.7895267
20
53.4714774
11
11.7895267
21
53.7527774
0
LINE
8
DEFAULT_255_2_778
10
11.5101267
20
49.8998774
11
13.1236267
21
49.8998774
0
LINE
8
DEFAULT_255_2_778
10
13.1236267
20
49.8998774
11
13.1236267
21
50.1811774
0
LINE
8
DEFAULT_255_2_778
10
13.1236267
20
50.1811774
11
11.5101267
21
50.1811774
0
LINE
8
DEFAULT_255_2_778
10
11.5101267
20
50.1811774
11
11.5101267
21
49.8998774
0
LINE
8
DEFAULT_255_2_778
10
12.8442267
20
50.1811774
11
12.8442267
21
49.8998774
0
LINE
8
DEFAULT_255_2_778
10
11.7895267
20
49.8998774
11
11.7895267
21
50.1811774
0
LINE
8
DEFAULT_255_2_778
10
14.5023267
20
50.9158774
11
14.5023267
21
49.1603774
0
LINE
8
DEFAULT_255_2_778
10
10.1314267
20
49.1595774
11
10.1314267
21
50.9163774
0
LINE
8
DEFAULT_255_2_778
10
14.5023267
20
33.1202774
11
14.5023267
21
32.4537774
0
LINE
8
DEFAULT_255_2_778
10
10.1314267
20
32.4529774
11
10.1314267
21
33.1199774
0
LINE
8
DEFAULT_255_2_778
10
14.5023267
20
34.5262774
11
14.5023267
21
34.2809774
0
LINE
8
DEFAULT_255_2_778
10
10.1314267
20
34.2809774
11
10.1314267
21
34.5262774
0
LINE
8
DEFAULT_255_2_778
10
14.5023267
20
29.4901774
11
14.5023267
21
27.7346774
0
LINE
8
DEFAULT_255_2_778
10
10.1314267
20
27.7338774
11
10.1314267
21
29.4906774
0
LINE
8
DEFAULT_255_2_778
10
14.5023267
20
25.9135774
11
14.5023267
21
23.9132774
0
LINE
8
DEFAULT_255_2_778
10
10.1314267
20
23.9132774
11
10.1314267
21
25.9143774
0
LINE
8
DEFAULT_255_2_778
10
11.5101267
20
28.4694774
11
13.1236267
21
28.4694774
0
LINE
8
DEFAULT_255_2_778
10
13.1236267
20
28.4694774
11
13.1236267
21
28.7506774
0
LINE
8
DEFAULT_255_2_778
10
13.1236267
20
28.7506774
11
11.5101267
21
28.7506774
0
LINE
8
DEFAULT_255_2_778
10
11.5101267
20
28.7506774
11
11.5101267
21
28.4694774
0
LINE
8
DEFAULT_255_2_778
10
12.8442267
20
28.7506774
11
12.8442267
21
28.4694774
0
LINE
8
DEFAULT_255_2_778
10
11.7895267
20
28.4694774
11
11.7895267
21
28.7506774
0
LINE
8
DEFAULT_255_2_778
10
11.5101267
20
24.8977774
11
13.1236267
21
24.8977774
0
LINE
8
DEFAULT_255_2_778
10
13.1236267
20
24.8977774
11
13.1236267
21
25.1790774
0
LINE
8
DEFAULT_255_2_778
10
13.1236267
20
25.1790774
11
11.5101267
21
25.1790774
0
LINE
8
DEFAULT_255_2_778
10
11.5101267
20
25.1790774
11
11.5101267
21
24.8977774
0
LINE
8
DEFAULT_255_2_778
10
12.8442267
20
25.1790774
11
12.8442267
21
24.8977774
0
LINE
8
DEFAULT_255_2_778
10
11.7895267
20
24.8977774
11
11.7895267
21
25.1790774
0
LINE
8
DEFAULT_255_2_778
10
14.9095267
20
29.7576774
11
14.8352267
21
29.7576774
0
LINE
8
DEFAULT_255_2_778
10
14.8352267
20
29.7576774
11
14.8352267
21
32.1860774
0
LINE
8
DEFAULT_255_2_778
10
14.8352267
20
32.1860774
11
14.9095267
21
32.1860774
0
LINE
8
DEFAULT_255_2_778
10
14.9095267
20
32.1860774
11
14.9095267
21
29.7576774
0
LINE
8
DEFAULT_255_2_778
10
14.9092267
20
26.1812774
11
14.8349267
21
26.1812774
0
LINE
8
DEFAULT_255_2_778
10
14.8349267
20
26.1812774
11
14.8349267
21
27.4671774
0
LINE
8
DEFAULT_255_2_778
10
14.8349267
20
27.4671774
11
14.9092267
21
27.4671774
0
LINE
8
DEFAULT_255_2_778
10
14.9092267
20
27.4671774
11
14.9092267
21
26.1812774
0
LINE
8
DEFAULT_255_2_778
10
15.4331267
20
54.7369774
11
15.4331267
21
55.0121774
0
LINE
8
DEFAULT_255_2_778
10
15.4331267
20
23.6262774
11
15.4331267
21
23.9135774
0
LINE
8
DEFAULT_255_2_778
10
15.4331267
20
23.7870774
11
14.0361267
21
23.7870774
0
LINE
8
DEFAULT_255_2_778
10
14.0361267
20
23.7870774
11
14.0361267
21
23.6262774
0
LINE
8
DEFAULT_255_2_778
10
14.0361267
20
55.0121774
11
14.0361267
21
54.8637774
0
LINE
8
DEFAULT_255_2_778
10
14.0361267
20
54.8637774
11
15.4331267
21
54.8637774
0
LINE
8
DEFAULT_255_2_778
10
9.0530267
20
54.8637774
11
10.5965267
21
54.8637774
0
LINE
8
DEFAULT_255_2_778
10
10.5965267
20
54.8637774
11
10.5965267
21
55.0121774
0
LINE
8
DEFAULT_255_2_778
10
10.5965267
20
23.6262774
11
10.5965267
21
23.7870774
0
LINE
8
DEFAULT_255_2_778
10
10.5965267
20
23.7870774
11
9.0535267
21
23.7870774
0
LINE
8
DEFAULT_255_2_778
10
9.2001267
20
23.7870774
11
9.2001267
21
23.9135774
0
LINE
8
DEFAULT_255_2_778
10
9.2001267
20
23.9135774
11
15.4336267
21
23.9135774
0
LINE
8
DEFAULT_255_2_778
10
15.4336267
20
23.9135774
11
15.4336267
21
54.7298774
0
LINE
8
DEFAULT_255_2_778
10
15.4336267
20
54.7298774
11
9.2001267
21
54.7298774
0
LINE
8
DEFAULT_255_2_778
10
9.2001267
20
54.7298774
11
9.2001267
21
23.9064774
0
LINE
8
DEFAULT_255_2_778
10
9.6715267
20
39.8986774
11
14.9121267
21
39.8986774
0
LINE
8
DEFAULT_255_2_778
10
14.9121267
20
39.8986774
11
14.9121267
21
38.7378774
0
LINE
8
DEFAULT_255_2_778
10
14.9121267
20
38.7378774
11
9.6715267
21
38.7378774
0
LINE
8
DEFAULT_255_2_778
10
9.4853267
20
38.9164774
11
9.4853267
21
39.7200774
0
LINE
8
DEFAULT_255_2_778
10
10.0986267
20
39.0580774
11
10.0986267
21
39.5784774
0
LINE
8
DEFAULT_255_2_778
10
10.0986267
20
39.5784774
11
10.0634267
21
39.5723774
0
LINE
8
DEFAULT_255_2_778
10
10.0634267
20
39.5723774
11
10.0634267
21
39.0643774
0
LINE
8
DEFAULT_255_2_778
10
10.0634267
20
39.0643774
11
10.0986267
21
39.0582774
0
LINE
8
DEFAULT_255_2_778
10
10.0986267
20
39.0582774
11
10.3007267
21
39.0323774
0
LINE
8
DEFAULT_255_2_778
10
10.3007267
20
39.0323774
11
10.5706267
21
39.0064774
0
LINE
8
DEFAULT_255_2_778
10
10.5706267
20
39.0064774
11
10.8886267
21
38.9805774
0
LINE
8
DEFAULT_255_2_778
10
10.8886267
20
38.9805774
11
11.2315267
21
38.9545774
0
LINE
8
DEFAULT_255_2_778
10
11.2315267
20
38.9545774
11
11.6281267
21
38.9244774
0
LINE
8
DEFAULT_255_2_778
10
11.6281267
20
38.9244774
11
14.8672267
21
38.9244774
0
LINE
8
DEFAULT_255_2_778
10
14.8672267
20
38.9244774
11
14.8672267
21
39.7118774
0
LINE
8
DEFAULT_255_2_778
10
14.8672267
20
39.7118774
11
11.6284267
21
39.7118774
0
LINE
8
DEFAULT_255_2_778
10
11.6284267
20
39.7118774
11
11.6284267
21
38.9244774
0
LINE
8
DEFAULT_255_2_778
10
11.4114267
20
39.6975774
11
11.4114267
21
39.8983774
0
LINE
8
DEFAULT_255_2_778
10
11.4114267
20
38.7376774
11
11.4114267
21
38.9387774
0
LINE
8
DEFAULT_255_2_778
10
10.9458267
20
38.9760774
11
10.9458267
21
38.7376774
0
LINE
8
DEFAULT_255_2_778
10
10.9458267
20
39.8983774
11
10.9458267
21
39.6602774
0
LINE
8
DEFAULT_255_2_778
10
10.0637267
20
39.0641774
11
10.0057267
21
39.0736774
0
LINE
8
DEFAULT_255_2_778
10
10.0057267
20
39.0736774
11
9.9287267
21
39.0831774
0
LINE
8
DEFAULT_255_2_778
10
9.9287267
20
39.0831774
11
9.7893267
21
39.0974774
0
LINE
8
DEFAULT_255_2_778
10
9.7893267
20
39.0974774
11
9.7398267
21
39.1022774
0
LINE
8
DEFAULT_255_2_778
10
9.7398267
20
39.1022774
11
9.6792267
21
39.1072774
0
LINE
8
DEFAULT_255_2_778
10
9.6792267
20
39.1072774
11
9.6792267
21
39.5292774
0
LINE
8
DEFAULT_255_2_778
10
9.6792267
20
39.5292774
11
9.7398267
21
39.5342774
0
LINE
8
DEFAULT_255_2_778
10
9.7398267
20
39.5342774
11
9.7398267
21
39.1024774
0
LINE
8
DEFAULT_255_2_778
10
9.7245267
20
39.1038774
11
9.7245267
21
39.5332774
0
LINE
8
DEFAULT_255_2_778
10
13.8583267
20
39.7123774
11
13.8583267
21
38.9249774
0
LINE
8
DEFAULT_255_2_778
10
14.5020267
20
35.9258774
11
14.5020267
21
35.6806774
0
LINE
8
DEFAULT_255_2_778
10
10.1311267
20
35.6806774
11
10.1311267
21
35.9258774
0
LINE
8
DEFAULT_255_2_778
10
14.5020267
20
37.3321774
11
14.5020267
21
37.0868774
0
LINE
8
DEFAULT_255_2_778
10
10.1311267
20
37.0868774
11
10.1311267
21
37.3321774
0
LINE
8
DEFAULT_255_2_778
10
14.5020267
20
38.7384774
11
14.5020267
21
38.4931774
0
LINE
8
DEFAULT_255_2_778
10
10.1311267
20
38.4931774
11
10.1311267
21
38.7384774
0
LINE
8
DEFAULT_255_2_778
10
14.5020267
20
40.1446774
11
14.5020267
21
39.8994774
0
LINE
8
DEFAULT_255_2_778
10
10.1311267
20
39.8994774
11
10.1311267
21
40.1446774
0
LINE
8
DEFAULT_255_2_778
10
14.5020267
20
41.5509774
11
14.5020267
21
41.3056774
0
LINE
8
DEFAULT_255_2_778
10
10.1311267
20
41.3056774
11
10.1311267
21
41.5509774
0
LINE
8
DEFAULT_255_2_778
10
14.5020267
20
44.3631774
11
14.5020267
21
44.1179774
0
LINE
8
DEFAULT_255_2_778
10
10.1311267
20
44.1179774
11
10.1311267
21
44.3631774
0
LINE
8
DEFAULT_255_2_778
10
14.5020267
20
46.1904774
11
14.5020267
21
45.5239774
0
LINE
8
DEFAULT_255_2_778
10
10.1311267
20
45.5239774
11
10.1311267
21
46.1909774
0
LINE
8
DEFAULT_255_2_778
10
14.5020267
20
42.9569774
11
14.5020267
21
42.7116774
0
LINE
8
DEFAULT_255_2_778
10
10.1311267
20
42.7116774
11
10.1311267
21
42.9569774
0
LINE
8
DEFAULT_255_2_778
10
8.6865267
20
23.6195774
11
15.9467267
21
23.6195774
0
LINE
8
DEFAULT_255_2_778
10
15.9467267
20
23.6195774
11
15.9467267
21
55.0049774
0
LINE
8
DEFAULT_255_2_778
10
15.9467267
20
55.0049774
11
8.6865267
21
55.0049774
0
LINE
8
DEFAULT_255_2_778
10
8.6865267
20
55.0049774
11
8.6865267
21
23.6190774
0
LINE
8
DEFAULT_255_2_778
10
9.0532267
20
23.6129774
11
9.0532267
21
55.0110774
0
LINE
8
DEFAULT_255_2_778
10
15.5800267
20
55.0110774
11
15.5800267
21
23.6129774
0
LINE
8
DEFAULT_255_2_778
10
9.2001267
20
54.8563774
11
9.2001267
21
54.7298774
0
ARC
8
DEFAULT_255_2_778
10
49.5511664
20
3.9716873
40
0.3785556
50
87.7310079
51
89.9993351
0
ARC
8
DEFAULT_255_2_778
10
49.5511698
20
3.9731861
40
0.3770579
50
59.2829133
51
87.7225103
0
ARC
8
DEFAULT_255_2_778
10
49.5699569
20
3.9959507
40
0.3479202
50
0.3445353
51
60.0277976
0
ARC
8
DEFAULT_255_2_778
10
47.7091835
20
3.9959513
40
0.347919
50
119.9720826
51
179.6555542
0
ARC
8
DEFAULT_255_2_778
10
47.7285605
20
3.9705845
40
0.3795962
50
94.4573409
51
120.5929008
0
ARC
8
DEFAULT_255_2_778
10
47.7297285
20
3.9623027
40
0.3879442
50
90.2596041
51
94.5342719
0
ARC
8
DEFAULT_255_2_778
10
49.5469571
20
1.0445348
40
0.34792
50
299.9721801
51
359.6554851
0
ARC
8
DEFAULT_255_2_778
10
49.5275811
20
1.0699012
40
0.3795962
50
274.4573409
51
300.5929008
0
ARC
8
DEFAULT_255_2_778
10
49.526413
20
1.078183
40
0.3879442
50
270.2596041
51
274.5342719
0
ARC
8
DEFAULT_255_2_778
10
47.7509752
20
1.0687984
40
0.3785556
50
267.7310079
51
269.9993351
0
ARC
8
DEFAULT_255_2_778
10
47.7509718
20
1.0672996
40
0.3770579
50
239.2829133
51
267.7225103
0
ARC
8
DEFAULT_255_2_778
10
47.7321839
20
1.0445344
40
0.3479194
50
180.3444442
51
240.0278657
0
ARC
8
DEFAULT_255_2_778
10
48.6436859
20
8.2323397
40
0.9021121
50
53.9719296
51
90.2550109
0
ARC
8
DEFAULT_255_2_778
10
48.6896308
20
8.2880512
40
0.8300441
50
0.1788922
51
54.2748566
0
ARC
8
DEFAULT_255_2_778
10
48.6683129
20
8.3021904
40
0.8514362
50
279.7237734
51
359.2229073
0
ARC
8
DEFAULT_255_2_778
10
48.6402487
20
8.3755526
40
0.92861
50
269.9643447
51
280.6660038
0
ARC
8
DEFAULT_255_2_778
10
48.6356627
20
8.3490738
40
0.9021399
50
233.9039187
51
270.254561
0
ARC
8
DEFAULT_255_2_778
10
48.5895083
20
8.293236
40
0.8298416
50
180.1790462
51
234.2075615
0
ARC
8
DEFAULT_255_2_778
10
48.6113562
20
8.2789552
40
0.8517656
50
99.5563294
51
179.2137848
0
ARC
8
DEFAULT_255_2_778
10
48.6391131
20
8.2060576
40
0.9283854
50
89.9655817
51
100.4987359
0
ARC
8
DEFAULT_255_2_778
10
48.6436439
20
8.2226308
40
1.0173198
50
56.6720102
51
90.2237681
0
ARC
8
DEFAULT_255_2_778
10
48.6933853
20
8.2868031
40
0.9363931
50
0.2349452
51
57.0576579
0
ARC
8
DEFAULT_255_2_778
10
48.6745601
20
8.3023303
40
0.9552822
50
282.8905767
51
359.2989954
0
ARC
8
DEFAULT_255_2_778
10
48.6406664
20
8.3805927
40
1.0392503
50
269.9451096
51
283.7495608
0
ARC
8
DEFAULT_255_2_778
10
48.6356997
20
8.3585779
40
1.0172429
50
236.7537781
51
270.2236717
0
ARC
8
DEFAULT_255_2_778
10
48.5861449
20
8.2944711
40
0.9364821
50
180.23422
51
237.1390994
0
ARC
8
DEFAULT_255_2_778
10
48.6048215
20
8.2790254
40
0.9552214
50
102.8934697
51
179.3031476
0
ARC
8
DEFAULT_255_2_778
10
48.6386718
20
8.200776
40
1.0391673
50
89.9449216
51
103.7501182
0
ARC
8
DEFAULT_255_2_778
10
48.6436104
20
8.2086278
40
1.1822216
50
59.9586652
51
90.1909309
0
ARC
8
DEFAULT_255_2_778
10
48.6982624
20
8.2850718
40
1.0887242
50
0.3089734
51
60.4344451
0
ARC
8
DEFAULT_255_2_778
10
48.6845513
20
8.3024936
40
1.1024799
50
287.0825076
51
359.3996966
0
ARC
8
DEFAULT_255_2_778
10
48.6414425
20
8.3885548
40
1.1975133
50
269.9152333
51
287.8445536
0
ARC
8
DEFAULT_255_2_778
10
48.6357458
20
8.3730458
40
1.1820095
50
239.955916
51
270.1902549
0
ARC
8
DEFAULT_255_2_778
10
48.5812118
20
8.2968167
40
1.0887568
50
180.3091144
51
240.4317324
0
ARC
8
DEFAULT_255_2_778
10
48.5949074
20
8.279395
40
1.1024971
50
107.0859188
51
179.3998582
0
ARC
8
DEFAULT_255_2_778
10
48.6379043
20
8.1936127
40
1.1972316
50
89.9154612
51
107.8466711
0
ARC
8
DEFAULT_255_2_778
10
48.6437431
20
8.1614704
40
1.7174772
50
66.1307708
51
90.1358557
0
ARC
8
DEFAULT_255_2_778
10
48.7117271
20
8.2760371
40
1.5852785
50
3.2257832
51
66.7021893
0
ARC
8
DEFAULT_255_2_778
10
48.7325244
20
8.2907142
40
1.5637464
50
359.9973871
51
2.731739
0
ARC
8
DEFAULT_255_2_778
10
48.7599696
20
8.2890766
40
1.536302
50
327.6416843
51
0.0584133
0
ARC
8
DEFAULT_255_2_778
10
48.6722536
20
8.3514132
40
1.6437704
50
287.1959092
51
327.4426489
0
ARC
8
DEFAULT_255_2_778
10
48.6421075
20
8.432342
40
1.7300008
50
269.9192981
51
287.3572905
0
ARC
8
DEFAULT_255_2_778
10
48.6356414
20
8.4190724
40
1.7167343
50
246.0523697
51
270.1344805
0
ARC
8
DEFAULT_255_2_778
10
48.5678049
20
8.3053817
40
1.5853749
50
183.2272519
51
246.6251893
0
ARC
8
DEFAULT_255_2_778
10
48.5464463
20
8.2905762
40
1.5632756
50
179.9975574
51
182.7295377
0
ARC
8
DEFAULT_255_2_778
10
48.5195058
20
8.2922056
40
1.5363358
50
147.6423291
51
180.0582813
0
ARC
8
DEFAULT_255_2_778
10
48.6071802
20
8.2299113
40
1.6437463
50
107.1977719
51
147.4437204
0
ARC
8
DEFAULT_255_2_778
10
48.637239
20
8.149228
40
1.7297165
50
89.9194492
51
107.358729
0
ARC
8
DEFAULT_255_2_778
10
50.1056097
20
9.6541285
40
0.2050534
50
138.4843929
51
179.4828529
0
ARC
8
DEFAULT_255_2_778
10
50.1004021
20
9.6544831
40
0.199843
50
179.5710514
51
179.9999972
0
ARC
8
DEFAULT_255_2_778
10
50.1068585
20
9.6550019
40
0.2063
50
180.1440818
51
225.347866
0
ARC
8
DEFAULT_255_2_778
10
48.7254286
20
8.2649578
40
1.7534386
50
26.1062538
51
45.1581095
0
ARC
8
DEFAULT_255_2_778
10
48.7733004
20
8.2892284
40
1.6997709
50
0.0312622
51
26.0816758
0
ARC
8
DEFAULT_255_2_778
10
48.7846974
20
8.2901479
40
1.6883737
50
358.1418547
51
0.0002684
0
ARC
8
DEFAULT_255_2_778
10
48.7806838
20
8.2906925
40
1.6924028
50
337.0957051
51
358.1278321
0
ARC
8
DEFAULT_255_2_778
10
48.741129
20
8.3068693
40
1.735135
50
328.1538683
51
337.1119892
0
ARC
8
DEFAULT_255_2_778
10
48.6526145
20
8.3833594
40
1.8507745
50
269.6040146
51
327.5881934
0
ARC
8
DEFAULT_255_2_778
10
48.6398199
20
8.4380632
40
1.9054342
50
262.7703886
51
270.0001064
0
ARC
8
DEFAULT_255_2_778
10
48.6404434
20
8.4422891
40
1.909705
50
255.2233768
51
262.7677862
0
ARC
8
DEFAULT_255_2_778
10
48.6220026
20
8.3891702
40
1.8536444
50
229.5348695
51
255.3557614
0
ARC
8
DEFAULT_255_2_778
10
48.5326751
20
8.2979849
40
1.7263207
50
180.2503194
51
229.8263594
0
ARC
8
DEFAULT_255_2_778
10
49.5585594
20
1.0279241
40
0.3583794
50
268.658747
51
358.8838086
0
ARC
8
DEFAULT_255_2_778
10
47.7211684
20
1.0280118
40
0.3584674
50
181.1299375
51
271.343115
0
ARC
8
DEFAULT_255_2_778
10
48.7789836
20
8.2893178
40
1.7936735
50
326.7775592
51
358.0998277
0
ARC
8
DEFAULT_255_2_778
10
48.6853385
20
8.3545648
40
1.9077635
50
294.1110039
51
326.6792006
0
ARC
8
DEFAULT_255_2_778
10
51.9414738
20
5.7747285
40
0.1811749
50
139.810938
51
163.7116792
0
ARC
8
DEFAULT_255_2_778
10
52.8513233
20
6.6679305
40
0.8709058
50
164.9042601
51
170.5711925
0
LINE
8
DEFAULT_255_2_778
10
51.9921837
20
6.810604
11
51.9919144
21
6.8091286
0
ARC
8
DEFAULT_255_2_778
10
47.1854998
20
7.6837708
40
4.8853476
50
349.5018603
51
349.6865153
0
ARC
8
DEFAULT_255_2_778
10
48.388765
20
8.1727174
40
3.3575399
50
213.404365
51
228.9377949
0
ARC
8
DEFAULT_255_2_778
10
48.4718325
20
8.2760141
40
3.4899945
50
229.0235026
51
236.5569827
0
ARC
8
DEFAULT_255_2_778
10
48.6138168
20
8.4776841
40
3.7365307
50
236.4445129
51
243.5134629
0
ARC
8
DEFAULT_255_2_778
10
48.6287915
20
8.5135743
40
3.7753332
50
243.5529766
51
257.6260527
0
ARC
8
DEFAULT_255_2_778
10
48.6385734
20
8.5580533
40
3.8208751
50
257.6257045
51
270.0014092
0
ARC
8
DEFAULT_255_2_778
10
48.6386664
20
8.5601455
40
3.8229672
50
270.0000142
51
271.5859194
0
ARC
8
DEFAULT_255_2_778
10
48.6391229
20
8.5561515
40
3.8189619
50
271.5807325
51
285.5369762
0
ARC
8
DEFAULT_255_2_778
10
48.6559133
20
8.4954947
40
3.7560242
50
285.5380546
51
299.6491336
0
ARC
8
DEFAULT_255_2_778
10
48.7210362
20
8.3797108
40
3.6231844
50
299.6598929
51
314.1575967
0
ARC
8
DEFAULT_255_2_778
10
48.9101791
20
8.1902416
40
3.3554927
50
314.0943266
51
329.5741394
0
ARC
8
DEFAULT_255_2_778
10
48.5541429
20
8.5954364
40
3.8713918
50
313.3560781
51
327.070869
0
ARC
8
DEFAULT_255_2_778
10
48.6732122
20
8.4813407
40
3.7066972
50
298.7584424
51
313.2286265
0
ARC
8
DEFAULT_255_2_778
10
48.6670324
20
8.4960781
40
3.7225904
50
284.1882427
51
298.7326947
0
ARC
8
DEFAULT_255_2_778
10
48.6310079
20
8.6593858
40
3.8897498
50
271.5337785
51
284.1130839
0
ARC
8
DEFAULT_255_2_778
10
48.6256719
20
8.7348145
40
3.9652958
50
270.1993848
51
271.5816799
0
ARC
8
DEFAULT_255_2_778
10
48.6613276
20
8.8679323
40
4.0984477
50
268.1409969
51
269.6944432
0
ARC
8
DEFAULT_255_2_778
10
48.6486993
20
8.6705533
40
3.9007679
50
256.6659194
51
268.2323392
0
ARC
8
DEFAULT_255_2_778
10
48.6115773
20
8.4977588
40
3.7240721
50
242.8459884
51
256.6085304
0
ARC
8
DEFAULT_255_2_778
10
48.6290198
20
8.5198704
40
3.7517111
50
229.2140454
51
242.7630823
0
ARC
8
DEFAULT_255_2_778
10
48.633497
20
8.5267397
40
3.759837
50
215.8479505
51
229.2307683
0
ARC
8
DEFAULT_255_2_778
10
45.1441733
20
6.6322476
40
0.4981559
50
296.8208496
51
303.4375159
0
ARC
8
DEFAULT_255_2_778
10
42.901215
20
10.8878132
40
5.3085692
50
297.6233469
51
297.70099
0
ARC
8
DEFAULT_255_2_778
10
48.447159
20
2.615436
40
2.5286235
50
184.2750102
51
206.4930859
0
ARC
8
DEFAULT_255_2_778
10
48.5303076
20
2.6599611
40
2.6229042
50
206.553325
51
228.229705
0
ARC
8
DEFAULT_255_2_778
10
48.6126231
20
2.7563143
40
2.749602
50
228.2878988
51
249.2924905
0
ARC
8
DEFAULT_255_2_778
10
48.6392646
20
2.8333455
40
2.8310782
50
249.3393943
51
270.0016075
0
LINE
8
DEFAULT_255_2_778
10
48.639344
20
0.0022672
11
48.639757
21
0.0022672
0
ARC
8
DEFAULT_255_2_778
10
48.6394658
20
2.8326042
40
2.830337
50
270.005895
51
290.5886366
0
ARC
8
DEFAULT_255_2_778
10
48.666983
20
2.7552457
40
2.7482432
50
290.6187396
51
311.6573744
0
ARC
8
DEFAULT_255_2_778
10
48.7515252
20
2.6580041
40
2.6193982
50
311.6895243
51
333.4293049
0
ARC
8
DEFAULT_255_2_778
10
48.8170239
20
2.6200417
40
2.5438409
50
333.5341575
51
355.6601355
0
ARC
8
DEFAULT_255_2_778
10
48.8288588
20
2.6252067
40
2.7520326
50
333.0428163
51
355.0123627
0
ARC
8
DEFAULT_255_2_778
10
48.7590692
20
2.6666714
40
2.8330412
50
311.3347273
51
332.9351838
0
ARC
8
DEFAULT_255_2_778
10
48.6663593
20
2.7751169
40
2.9757006
50
290.4218889
51
311.2960052
0
ARC
8
DEFAULT_255_2_778
10
48.6381618
20
2.8588243
40
3.063987
50
270.0042313
51
290.3698515
0
LINE
8
DEFAULT_255_2_778
10
48.6383881
20
-0.2051627
11
48.636958
21
-0.2051624
0
ARC
8
DEFAULT_255_2_778
10
48.638329
20
2.8022719
40
3.0074346
50
269.8902981
51
269.9738805
0
ARC
8
DEFAULT_255_2_778
10
48.6395718
20
2.8502882
40
3.0554534
50
249.3445938
51
269.868717
0
ARC
8
DEFAULT_255_2_778
10
48.6118702
20
2.7738118
40
2.9741215
50
228.4617433
51
249.3242526
0
ARC
8
DEFAULT_255_2_778
10
48.5217694
20
2.6678471
40
2.8350593
50
206.8597835
51
228.4046372
0
ARC
8
DEFAULT_255_2_778
10
48.4467694
20
2.6244268
40
2.7485374
50
184.7998393
51
206.7586756
0
ARC
8
DEFAULT_255_2_778
10
45.5289797
20
6.0841048
40
0.1567069
50
180.4938989
51
184.0845281
0
ARC
8
DEFAULT_255_2_778
10
45.5253248
20
6.0840866
40
0.153052
50
179.9915489
51
180.4988804
0
ARC
8
DEFAULT_255_2_778
10
45.5294917
20
6.0841161
40
0.1572189
50
162.5954625
51
180.0025301
0
ARC
8
DEFAULT_255_2_778
10
45.6154695
20
6.0608722
40
0.2459548
50
136.091855
51
153.2325681
0
ARC
8
DEFAULT_255_2_778
10
50.8949602
20
8.1710712
40
0.7986852
50
95.4523541
51
112.5967729
0
ARC
8
DEFAULT_255_2_778
10
50.8702104
20
8.2387246
40
0.7267223
50
112.8447733
51
131.53147
0
ARC
8
DEFAULT_255_2_778
10
47.7546669
20
10.0610251
40
0.0733203
50
181.4710415
51
209.2109438
0
ARC
8
DEFAULT_255_2_778
10
47.7515353
20
10.0602866
40
0.0702321
50
209.9319412
51
239.3872695
0
ARC
8
DEFAULT_255_2_778
10
47.7548445
20
10.065738
40
0.0766089
50
239.3334191
51
266.8769422
0
ARC
8
DEFAULT_255_2_778
10
47.753644
20
10.0638774
40
0.0746938
50
267.7186784
51
269.9985873
0
ARC
8
DEFAULT_255_2_778
10
47.7529152
20
10.0744912
40
0.0853106
50
270.4882921
51
293.3083261
0
ARC
8
DEFAULT_255_2_778
10
50.1479873
20
9.8397464
40
0.3948465
50
195.8595269
51
225.9529657
0
ARC
8
DEFAULT_255_2_778
10
50.8292371
20
10.0529742
40
1.1085969
50
190.7108341
51
196.83842
0
ARC
8
DEFAULT_255_2_778
10
69.5427725
20
13.911589
40
20.2156618
50
191.5745071
51
191.5992101
0
ARC
8
DEFAULT_255_2_778
10
47.884657
20
9.4888523
40
1.8894577
50
11.188475
51
13.5438316
0
ARC
8
DEFAULT_255_2_778
10
51.9378968
20
5.7771339
40
0.1776847
50
147.0634517
51
164.625526
0
ARC
8
DEFAULT_255_2_778
10
48.8367308
20
2.6105987
40
2.7466302
50
341.4111674
51
355.6013167
0
ARC
8
DEFAULT_255_2_778
10
48.8054506
20
2.6201875
40
2.7793117
50
326.3134005
51
339.5658107
0
ARC
8
DEFAULT_255_2_778
10
50.8920581
20
1.1015604
40
0.2211695
50
296.7397407
51
310.0838073
0
ARC
8
DEFAULT_255_2_778
10
50.8905298
20
1.1016611
40
0.2222334
50
310.3685569
51
324.0660174
0
ARC
8
DEFAULT_255_2_778
10
48.8433944
20
2.5685333
40
2.740658
50
324.3513786
51
340.4636227
0
ARC
8
DEFAULT_255_2_778
10
48.8790939
20
2.5483347
40
2.7002683
50
340.6142248
51
356.8455037
0
ARC
8
DEFAULT_255_2_778
10
48.5187791
20
2.6206473
40
2.8218406
50
189.9133546
51
197.882782
0
ARC
8
DEFAULT_255_2_778
10
48.4972085
20
2.630243
40
2.8046968
50
200.1378314
51
226.2880726
0
ARC
8
DEFAULT_255_2_778
10
48.4121356
20
2.5496801
40
2.6876821
50
226.4121659
51
232.1010426
0
ARC
8
DEFAULT_255_2_778
10
48.6123753
20
2.7573979
40
2.9745597
50
233.4719919
51
249.0871983
0
ARC
8
DEFAULT_255_2_778
10
48.6378602
20
2.8287502
40
3.0503088
50
249.1184343
51
269.5348727
0
ARC
8
DEFAULT_255_2_778
10
48.6401225
20
2.8574301
40
3.0790069
50
269.4971074
51
270.0004162
0
ARC
8
DEFAULT_255_2_778
10
48.6450604
20
2.8136486
40
3.0352296
50
269.9072107
51
299.9416158
0
ARC
8
DEFAULT_255_2_778
10
48.6852068
20
2.7311155
40
2.943681
50
300.0662919
51
310.6382653
0
ARC
8
DEFAULT_255_2_778
10
48.7398497
20
2.6730824
40
2.864109
50
311.5829914
51
316.7554691
0
ARC
8
DEFAULT_255_2_778
10
51.2489235
20
7.4908322
40
1.8646921
50
52.8980715
51
58.8902529
0
ARC
8
DEFAULT_255_2_778
10
51.7732939
20
8.1795784
40
0.9990586
50
41.9200872
51
53.0553875
0
ARC
8
DEFAULT_255_2_778
10
52.0296009
20
8.4110995
40
0.6536694
50
24.9700915
51
41.8295777
0
ARC
8
DEFAULT_255_2_778
10
52.1590371
20
8.4726626
40
0.5103447
50
3.4240159
51
24.8389739
0
ARC
8
DEFAULT_255_2_778
10
52.3614553
20
8.390783
40
0.3116359
50
1.5923639
51
5.5214968
0
ARC
8
DEFAULT_255_2_778
10
52.3256993
20
8.3859699
40
0.3476917
50
5.7440211
51
25.9367429
0
ARC
8
DEFAULT_255_2_778
10
52.3094025
20
8.3730263
40
0.3680361
50
26.6391861
51
90.4916869
0
ARC
8
DEFAULT_255_2_778
10
52.3062562
20
8.3580958
40
0.3829531
50
90.0018016
51
94.9112319
0
ARC
8
DEFAULT_255_2_778
10
51.3501177
20
8.7492837
40
0.9266213
50
13.032666
51
21.3971172
0
ARC
8
DEFAULT_255_2_778
10
48.9090732
20
8.2864206
40
3.398583
50
2.8568466
51
6.7968842
0
ARC
8
DEFAULT_255_2_778
10
48.9095186
20
8.2864484
40
3.3981368
50
0.0000379
51
2.8567529
0
ARC
8
DEFAULT_255_2_778
10
48.9085005
20
8.286492
40
3.3991547
50
336.2159122
51
359.9993043
0
ARC
8
DEFAULT_255_2_778
10
52.3494847
20
6.7279731
40
0.3800781
50
150.4115758
51
161.4890059
0
ARC
8
DEFAULT_255_2_778
10
52.3657348
20
5.7248056
40
0.829135
50
151.3419711
51
171.5640446
0
ARC
8
DEFAULT_255_2_778
10
47.7329931
20
10.0594446
40
0.1966223
50
180.0005201
51
182.0085376
0
ARC
8
DEFAULT_255_2_778
10
47.7417818
20
10.0602613
40
0.2054348
50
182.150261
51
210.0003575
0
ARC
8
DEFAULT_255_2_778
10
47.7522379
20
10.0677933
40
0.2182598
50
210.3402632
51
238.8298721
0
ARC
8
DEFAULT_255_2_778
10
47.7571429
20
10.0771999
40
0.2288481
50
238.9980519
51
266.6501641
0
ARC
8
DEFAULT_255_2_778
10
47.7556888
20
10.0814457
40
0.2330079
50
267.0681185
51
269.9987156
0
ARC
8
DEFAULT_255_2_778
10
47.7557488
20
10.0800577
40
0.2316199
50
269.9838608
51
294.4105205
0
ARC
8
DEFAULT_255_2_778
10
48.640547
20
8.1487673
40
1.8927053
50
89.9678338
51
114.6392707
0
ARC
8
DEFAULT_255_2_778
10
48.6416214
20
8.1393684
40
1.9021038
50
88.6402769
51
90.0003574
0
ARC
8
DEFAULT_255_2_778
10
48.6422016
20
8.1470877
40
1.894373
50
74.1506826
51
88.6522807
0
ARC
8
DEFAULT_255_2_778
10
48.6732612
20
8.3692853
40
1.8733732
50
291.4479394
51
318.7774496
0
ARC
8
DEFAULT_255_2_778
10
48.7628611
20
8.2955523
40
1.7573948
50
318.6605251
51
359.168293
0
ARC
8
DEFAULT_255_2_778
10
50.8700557
20
8.260455
40
0.3501162
50
135.937008
51
178.4307785
0
ARC
8
DEFAULT_255_2_778
10
50.889327
20
8.2387468
40
0.3790673
50
95.3822082
51
135.6049593
0
ARC
8
DEFAULT_255_2_778
10
52.3070004
20
8.2980731
40
0.3911165
50
92.4997223
51
94.7561705
0
ARC
8
DEFAULT_255_2_778
10
52.3070248
20
8.2978196
40
0.3913709
50
90.0002416
51
92.5016753
0
ARC
8
DEFAULT_255_2_778
10
52.3070832
20
8.2984834
40
0.3907069
50
68.8788756
51
90.0088011
0
ARC
8
DEFAULT_255_2_778
10
52.3137406
20
8.3202898
40
0.3679701
50
44.7492846
51
68.6223422
0
ARC
8
DEFAULT_255_2_778
10
52.3304401
20
8.3359209
40
0.3451063
50
22.5459124
51
44.8580935
0
ARC
8
DEFAULT_255_2_778
10
52.334363
20
8.3396303
40
0.3400663
50
1.0636225
51
22.2221292
0
ARC
8
DEFAULT_255_2_778
10
34.6066642
20
10.0247544
40
17.6848006
50
347.5015923
51
349.8220439
0
ARC
8
DEFAULT_255_2_778
10
47.6646727
20
10.0086936
40
0.4204214
50
180.5520505
51
245.6263467
0
ARC
8
DEFAULT_255_2_778
10
48.5463191
20
8.3063762
40
1.8384998
50
182.5012199
51
238.3548755
0
ARC
8
DEFAULT_255_2_778
10
48.6200388
20
8.3938872
40
1.9517494
50
237.8603539
51
240.5613483
0
ARC
8
DEFAULT_255_2_778
10
48.6360003
20
8.4819365
40
1.996945
50
243.7946726
51
270.0434666
0
ARC
8
DEFAULT_255_2_778
10
48.6375301
20
8.4943858
40
2.0093936
50
269.9995747
51
270.7289002
0
ARC
8
DEFAULT_255_2_778
10
48.6386504
20
8.4828616
40
1.9978564
50
270.7009797
51
291.1706696
0
ARC
8
DEFAULT_255_2_778
10
48.5508597
20
8.3065974
40
1.7893185
50
182.51941
51
239.8350019
0
ARC
8
DEFAULT_255_2_778
10
48.624709
20
8.3986995
40
1.906138
50
239.3069195
51
243.0381225
0
ARC
8
DEFAULT_255_2_778
10
47.7455648
20
3.9688773
40
0.3584617
50
88.6722731
51
178.8865711
0
ARC
8
DEFAULT_255_2_778
10
48.872625
20
8.3145142
40
3.8044099
50
320.0796975
51
350.257695
0
ARC
8
DEFAULT_255_2_778
10
49.4581234
20
9.3569869
40
0.6317732
50
57.758144
51
65.2750287
0
ARC
8
DEFAULT_255_2_778
10
50.0540017
20
9.6706097
40
0.2049936
50
138.4999204
51
179.2193634
0
ARC
8
DEFAULT_255_2_778
10
50.0529506
20
9.670996
40
0.2039377
50
179.3238593
51
179.9951937
0
ARC
8
DEFAULT_255_2_778
10
50.0555525
20
9.671621
40
0.2065405
50
180.168617
51
226.7257261
0
ARC
8
DEFAULT_255_2_778
10
49.8691809
20
9.3022127
40
0.2238491
50
73.436653
51
75.4094315
0
ARC
8
DEFAULT_255_2_778
10
49.7138097
20
8.7794462
40
0.769216
50
72.8818597
51
73.4443745
0
ARC
8
DEFAULT_255_2_778
10
50.0043143
20
9.7113681
40
0.2069564
50
251.9597392
51
258.5330214
0
ARC
8
DEFAULT_255_2_778
10
48.6708183
20
8.2094329
40
1.8060005
50
46.7518475
51
65.0313708
0
ARC
8
DEFAULT_255_2_778
10
48.7311147
20
8.2724863
40
1.7187605
50
15.6111399
51
46.775777
0
ARC
8
DEFAULT_255_2_778
10
48.7809557
20
8.2888088
40
1.6663673
50
0.0230813
51
15.5317884
0
ARC
8
DEFAULT_255_2_778
10
48.7969704
20
8.2894442
40
1.6503523
50
354.2458825
51
0.0012464
0
ARC
8
DEFAULT_255_2_778
10
48.7900441
20
8.2905239
40
1.6573521
50
341.6997352
51
354.2327497
0
ARC
8
DEFAULT_255_2_778
10
48.7460563
20
8.3051322
40
1.7037021
50
333.0745287
51
341.6978061
0
ARC
8
DEFAULT_255_2_778
10
48.7126123
20
8.3229129
40
1.7415725
50
306.1840696
51
333.0512132
0
ARC
8
DEFAULT_255_2_778
10
48.6420114
20
8.4243088
40
1.8650952
50
269.9261959
51
306.0956389
0
ARC
8
DEFAULT_255_2_778
10
48.6395474
20
8.4306205
40
1.8714054
50
264.6962961
51
270.0018851
0
ARC
8
DEFAULT_255_2_778
10
48.6383762
20
8.4196144
40
1.8603381
50
251.9193232
51
264.7008793
0
ARC
8
DEFAULT_255_2_778
10
48.6408775
20
8.4265943
40
1.8677496
50
245.0723578
51
251.9128346
0
ARC
8
DEFAULT_255_2_778
10
48.6108916
20
8.3715934
40
1.8052387
50
226.8670213
51
245.1996602
0
ARC
8
DEFAULT_255_2_778
10
48.5515834
20
8.3093065
40
1.7192353
50
195.6512281
51
226.8902215
0
ARC
8
DEFAULT_255_2_778
10
48.5016935
20
8.2929543
40
1.6667852
50
180.0233799
51
195.5726271
0
ARC
8
DEFAULT_255_2_778
10
48.4855185
20
8.2923088
40
1.65061
50
174.1925004
51
180.0012032
0
ARC
8
DEFAULT_255_2_778
10
48.4923913
20
8.2912309
40
1.6575567
50
161.7796145
51
174.1794717
0
ARC
8
DEFAULT_255_2_778
10
48.5357852
20
8.2768888
40
1.7032593
50
153.2454916
51
161.7777655
0
ARC
8
DEFAULT_255_2_778
10
48.5689227
20
8.2597471
40
1.740566
50
126.2875069
51
153.2326834
0
ARC
8
DEFAULT_255_2_778
10
48.639821
20
8.1582596
40
1.8643334
50
89.9249105
51
126.1978912
0
ARC
8
DEFAULT_255_2_778
10
48.6423319
20
8.1516393
40
1.8709523
50
84.608125
51
90.0020698
0
ARC
8
DEFAULT_255_2_778
10
48.6434224
20
8.1618007
40
1.8607333
50
71.9833343
51
84.6121525
0
ARC
8
DEFAULT_255_2_778
10
48.6407236
20
8.1541179
40
1.8688743
50
65.2221546
51
71.977503
0
ARC
8
DEFAULT_255_2_778
10
49.2405839
20
10.0109632
40
0.0789582
50
236.209547
51
247.1127898
0
ARC
8
DEFAULT_255_2_778
10
49.1711532
20
9.8491579
40
0.0971165
50
59.2757073
51
66.4904515
0
ARC
8
DEFAULT_255_2_778
10
50.9301729
20
8.211363
40
0.3582052
50
93.8901629
51
176.9627037
0
ARC
8
DEFAULT_255_2_778
10
49.5364767
20
3.9688773
40
0.3584618
50
1.1134289
51
91.3277269
0
ARC
8
DEFAULT_255_2_778
10
48.6407735
20
8.1302523
40
2.0520328
50
76.8827598
51
88.0835342
0
ARC
8
DEFAULT_255_2_778
10
48.640491
20
8.1262068
40
2.0560855
50
88.0794376
51
90.0000789
0
ARC
8
DEFAULT_255_2_778
10
48.639265
20
8.1390016
40
2.0432911
50
89.9656999
51
114.6466213
0
ARC
8
DEFAULT_255_2_778
10
47.6823126
20
10.0259014
40
0.2316968
50
270.0091683
51
296.991691
0
ARC
8
DEFAULT_255_2_778
10
47.68235
20
10.0216498
40
0.2274454
50
268.9471554
51
269.9999174
0
ARC
8
DEFAULT_255_2_778
10
47.6829112
20
10.0223149
40
0.2281213
50
240.4110474
51
268.8092933
0
ARC
8
DEFAULT_255_2_778
10
47.6758697
20
10.0103525
40
0.2142421
50
210.7092691
51
240.4689371
0
ARC
8
DEFAULT_255_2_778
10
47.6697526
20
10.0058478
40
0.2066838
50
180.2508611
51
210.5016036
0
ARC
8
DEFAULT_255_2_778
10
47.6806915
20
8.2871771
40
0.8737298
50
162.332829
51
179.73994
0
ARC
8
DEFAULT_255_2_778
10
57.7112528
20
12.1318063
40
10.9418844
50
179.9621068
51
180.9831433
0
ARC
8
DEFAULT_255_2_778
10
50.8498539
20
12.0082029
40
4.0793789
50
180.9008993
51
182.4051475
0
ARC
8
DEFAULT_255_2_778
10
47.1881264
20
11.8464953
40
0.4141663
50
181.3122981
51
187.7411699
0
ARC
8
DEFAULT_255_2_778
10
46.7835388
20
11.7911168
40
0.0058187
50
184.0312156
51
216.6571914
0
ARC
8
DEFAULT_255_2_778
10
42.429945
20
16.9275339
40
4.3079146
50
267.8532016
51
269.70476
0
ARC
8
DEFAULT_255_2_778
10
42.5280632
20
29.5871726
40
16.9679228
50
269.5937228
51
269.8380578
0
ARC
8
DEFAULT_255_2_778
10
42.2791388
20
-45.3216996
40
57.9413657
50
89.7810347
51
89.8012729
0
LINE
8
DEFAULT_255_2_778
10
48.6396708
20
9.1344428
11
48.6396708
21
9.1344428
0
LINE
8
DEFAULT_255_2_778
10
48.6396708
20
9.2399428
11
48.6396708
21
9.2399428
0
LINE
8
DEFAULT_255_2_778
10
48.6396708
20
9.3908428
11
48.6396708
21
9.3908428
0
LINE
8
DEFAULT_255_2_778
10
48.6396708
20
9.8789428
11
48.6396708
21
9.8789428
0
LINE
8
DEFAULT_255_2_778
10
46.8063708
20
8.2904428
11
46.8063708
21
11.7688428
0
LINE
8
DEFAULT_255_2_778
10
49.5501708
20
0.6696428
11
47.7295708
21
0.6696428
0
LINE
8
DEFAULT_255_2_778
10
47.7295708
20
0.6696428
11
47.7295708
21
0.6696428
0
LINE
8
DEFAULT_255_2_778
10
49.5284708
20
0.6905428
11
47.7512708
21
0.6905428
0
LINE
8
DEFAULT_255_2_778
10
51.9890708
20
6.7936428
11
51.9676708
21
6.6928428
0
LINE
8
DEFAULT_255_2_778
10
51.9676708
20
6.6928428
11
51.9220708
21
6.4920428
0
LINE
8
DEFAULT_255_2_778
10
51.9220708
20
6.4920428
11
51.8736708
21
6.2933428
0
LINE
8
DEFAULT_255_2_778
10
51.8736708
20
6.2933428
11
51.8247708
21
6.0993428
0
LINE
8
DEFAULT_255_2_778
10
51.8247708
20
6.0993428
11
51.7943708
21
5.9813428
0
LINE
8
DEFAULT_255_2_778
10
51.7943708
20
5.9813428
11
51.7678708
21
5.8665428
0
LINE
8
DEFAULT_255_2_778
10
51.7678708
20
5.8665428
11
51.7641708
21
5.8422428
0
LINE
8
DEFAULT_255_2_778
10
51.7641708
20
5.8422428
11
51.7617708
21
5.8176428
0
LINE
8
DEFAULT_255_2_778
10
45.5858708
20
6.3248428
11
45.5858708
21
6.3242428
0
LINE
8
DEFAULT_255_2_778
10
45.4379708
20
6.2314428
11
45.4186708
21
6.2165428
0
LINE
8
DEFAULT_255_2_778
10
45.3625708
20
6.1843428
11
45.3458708
21
6.1739428
0
LINE
8
DEFAULT_255_2_778
10
45.3458708
20
6.1739428
11
45.3075708
21
6.1509428
0
LINE
8
DEFAULT_255_2_778
10
45.3075708
20
6.1509428
11
45.2927708
21
6.1425428
0
LINE
8
DEFAULT_255_2_778
10
45.2927708
20
6.1425428
11
45.2887708
21
6.1406428
0
LINE
8
DEFAULT_255_2_778
10
45.2887708
20
6.1406428
11
45.2871708
21
6.1401428
0
LINE
8
DEFAULT_255_2_778
10
45.2871708
20
6.1401428
11
45.3776708
21
6.0157428
0
LINE
8
DEFAULT_255_2_778
10
45.3776708
20
6.0157428
11
45.2871708
21
6.1401428
0
LINE
8
DEFAULT_255_2_778
10
45.2871708
20
6.1401428
11
42.9759708
21
9.4508428
0
LINE
8
DEFAULT_255_2_778
10
45.3723708
20
6.0726428
11
45.3760708
21
6.0319428
0
LINE
8
DEFAULT_255_2_778
10
45.7059708
20
2.4158428
11
45.7104708
21
2.4155428
0
LINE
8
DEFAULT_255_2_778
10
45.7104708
20
2.4155428
11
45.7229708
21
2.4158428
0
LINE
8
DEFAULT_255_2_778
10
45.7229708
20
2.4158428
11
45.7432708
21
2.4169428
0
LINE
8
DEFAULT_255_2_778
10
45.7432708
20
2.4169428
11
45.7705708
21
2.4187428
0
LINE
8
DEFAULT_255_2_778
10
45.7705708
20
2.4187428
11
45.8036708
21
2.4211428
0
LINE
8
DEFAULT_255_2_778
10
45.8036708
20
2.4211428
11
45.8417708
21
2.4240428
0
LINE
8
DEFAULT_255_2_778
10
45.8417708
20
2.4240428
11
45.9253708
21
2.4306428
0
LINE
8
DEFAULT_255_2_778
10
43.4133708
20
9.4508428
11
45.5662708
21
6.3666428
0
LINE
8
DEFAULT_255_2_778
10
45.5662708
20
6.3666428
11
45.9255708
21
2.4269428
0
LINE
8
DEFAULT_255_2_778
10
51.3535708
20
2.4275428
11
51.5421708
21
5.8255428
0
LINE
8
DEFAULT_255_2_778
10
51.5421708
20
5.8255428
11
51.6519708
21
5.8205428
0
LINE
8
DEFAULT_255_2_778
10
51.6519708
20
5.8205428
11
51.7165708
21
5.8181428
0
LINE
8
DEFAULT_255_2_778
10
51.7165708
20
5.8181428
11
51.7323708
21
5.8176428
0
LINE
8
DEFAULT_255_2_778
10
51.7323708
20
5.8176428
11
51.7451708
21
5.8176428
0
LINE
8
DEFAULT_255_2_778
10
51.7451708
20
5.8176428
11
51.7543708
21
5.8176428
0
LINE
8
DEFAULT_255_2_778
10
51.7543708
20
5.8176428
11
51.7599708
21
5.8178428
0
LINE
8
DEFAULT_255_2_778
10
51.7599708
20
5.8178428
11
51.7617708
21
5.8181428
0
LINE
8
DEFAULT_255_2_778
10
51.7617708
20
5.8181428
11
51.5728708
21
2.4166428
0
LINE
8
DEFAULT_255_2_778
10
51.5728708
20
2.4166428
11
51.5704708
21
2.3859428
0
LINE
8
DEFAULT_255_2_778
10
45.7078708
20
2.3944428
11
45.7062708
21
2.4163428
0
LINE
8
DEFAULT_255_2_778
10
45.7062708
20
2.4163428
11
45.3726708
21
6.0729428
0
LINE
8
DEFAULT_255_2_778
10
45.3794708
20
6.1311428
11
45.3866708
21
6.1512428
0
LINE
8
DEFAULT_255_2_778
10
45.3866708
20
6.1512428
11
45.3958708
21
6.1716428
0
LINE
8
DEFAULT_255_2_778
10
45.4382708
20
6.2314428
11
45.4665708
21
6.2647428
0
LINE
8
DEFAULT_255_2_778
10
45.4665708
20
6.2647428
11
45.5665708
21
6.3666428
0
LINE
8
DEFAULT_255_2_778
10
49.4320708
20
9.8472428
11
49.4220708
21
9.8522428
0
LINE
8
DEFAULT_255_2_778
10
51.4400708
20
1.7350428
11
51.4098708
21
1.6498428
0
LINE
8
DEFAULT_255_2_778
10
51.1180708
20
1.0786428
11
51.0976708
21
1.0484428
0
LINE
8
DEFAULT_255_2_778
10
51.0976708
20
1.0484428
11
50.9915708
21
0.9040428
0
LINE
8
DEFAULT_255_2_778
10
51.5752708
20
2.3997428
11
51.5752708
21
2.3999428
0
LINE
8
DEFAULT_255_2_778
10
45.7067708
20
2.3978428
11
45.7390708
21
2.1348428
0
LINE
8
DEFAULT_255_2_778
10
45.8332708
20
1.7541428
11
45.8639708
21
1.6646428
0
LINE
8
DEFAULT_255_2_778
10
46.7611708
20
0.4288428
11
46.8418708
21
0.3671428
0
LINE
8
DEFAULT_255_2_778
10
50.6023708
20
0.4973428
11
50.6407708
21
0.5307428
0
LINE
8
DEFAULT_255_2_778
10
50.8261708
20
0.7108428
11
50.8770708
21
0.7661428
0
LINE
8
DEFAULT_255_2_778
10
50.8770708
20
0.7661428
11
50.9936708
21
0.9035428
0
LINE
8
DEFAULT_255_2_778
10
46.6008708
20
12.6827428
11
46.6058708
21
12.5380428
0
LINE
8
DEFAULT_255_2_778
10
52.6684708
20
8.5031428
11
52.6729708
21
8.3994428
0
LINE
8
DEFAULT_255_2_778
10
52.2734708
20
8.7396428
11
52.2739708
21
8.7417428
0
LINE
8
DEFAULT_255_2_778
10
52.2739708
20
8.7417428
11
52.2742708
21
8.7470428
0
LINE
8
DEFAULT_255_2_778
10
52.2742708
20
8.7470428
11
52.2742708
21
8.7558428
0
LINE
8
DEFAULT_255_2_778
10
52.2742708
20
8.7558428
11
52.2739708
21
8.7677428
0
LINE
8
DEFAULT_255_2_778
10
52.2739708
20
8.7677428
11
52.2732708
21
8.8007428
0
LINE
8
DEFAULT_255_2_778
10
52.2732708
20
8.8007428
11
52.2705708
21
8.8449428
0
LINE
8
DEFAULT_255_2_778
10
52.2705708
20
8.8449428
11
52.2642708
21
8.8981428
0
LINE
8
DEFAULT_255_2_778
10
52.2642708
20
8.8981428
11
52.2528708
21
8.9582428
0
LINE
8
DEFAULT_255_2_778
10
52.2128708
20
9.0873428
11
50.8206708
21
8.9661428
0
LINE
8
DEFAULT_255_2_778
10
50.8206708
20
8.9661428
11
50.8537708
21
8.6161428
0
LINE
8
DEFAULT_255_2_778
10
50.8537708
20
8.6161428
11
50.9066708
21
8.5687428
0
LINE
8
DEFAULT_255_2_778
10
50.9066708
20
8.5687428
11
52.2837708
21
8.6886428
0
LINE
8
DEFAULT_255_2_778
10
51.9890708
20
6.8486428
11
51.9625708
21
6.7804428
0
LINE
8
DEFAULT_255_2_778
10
51.9625708
20
6.7804428
11
51.9340708
21
6.7129428
0
LINE
8
DEFAULT_255_2_778
10
51.9340708
20
6.7129428
11
51.9041708
21
6.6460428
0
LINE
8
DEFAULT_255_2_778
10
51.9041708
20
6.6460428
11
51.8411708
21
6.5134428
0
LINE
8
DEFAULT_255_2_778
10
51.8411708
20
6.5134428
11
51.7744708
21
6.3827428
0
LINE
8
DEFAULT_255_2_778
10
51.7744708
20
6.3827428
11
51.7059708
21
6.2528428
0
LINE
8
DEFAULT_255_2_778
10
51.7059708
20
6.2528428
11
51.6381708
21
6.1224428
0
LINE
8
DEFAULT_255_2_778
10
51.5455708
20
5.8464428
11
51.5440708
21
5.8255428
0
LINE
8
DEFAULT_255_2_778
10
51.3553708
20
2.4275428
11
51.4649708
21
2.4206428
0
LINE
8
DEFAULT_255_2_778
10
51.4649708
20
2.4206428
11
51.5104708
21
2.4182428
0
LINE
8
DEFAULT_255_2_778
10
51.5104708
20
2.4182428
11
51.5453708
21
2.4166428
0
LINE
8
DEFAULT_255_2_778
10
51.5453708
20
2.4166428
11
51.5580708
21
2.4161428
0
LINE
8
DEFAULT_255_2_778
10
51.5580708
20
2.4161428
11
51.5673708
21
2.4161428
0
LINE
8
DEFAULT_255_2_778
10
51.5673708
20
2.4161428
11
51.5728708
21
2.4161428
0
LINE
8
DEFAULT_255_2_778
10
51.5728708
20
2.4161428
11
51.5746708
21
2.4163428
0
LINE
8
DEFAULT_255_2_778
10
47.6829708
20
11.6312428
11
47.6829708
21
10.0594428
0
LINE
8
DEFAULT_255_2_778
10
47.6829708
20
10.0594428
11
47.5363708
21
10.0594428
0
LINE
8
DEFAULT_255_2_778
10
49.1595708
20
9.9694428
11
49.1577708
21
9.9739428
0
LINE
8
DEFAULT_255_2_778
10
49.1577708
20
9.9739428
11
49.1543708
21
9.9853428
0
LINE
8
DEFAULT_255_2_778
10
49.1543708
20
9.9853428
11
49.1490708
21
10.0019428
0
LINE
8
DEFAULT_255_2_778
10
49.1490708
20
10.0019428
11
49.1423708
21
10.0228428
0
LINE
8
DEFAULT_255_2_778
10
49.1423708
20
10.0228428
11
49.1347708
21
10.0469428
0
LINE
8
DEFAULT_255_2_778
10
49.1347708
20
10.0469428
11
49.1259708
21
10.0731428
0
LINE
8
DEFAULT_255_2_778
10
49.1259708
20
10.0731428
11
49.1071708
21
10.1284428
0
LINE
8
DEFAULT_255_2_778
10
50.8537708
20
8.6161428
11
52.2734708
21
8.7396428
0
LINE
8
DEFAULT_255_2_778
10
52.2734708
20
8.7396428
11
52.2745708
21
8.6878428
0
LINE
8
DEFAULT_255_2_778
10
51.8025708
20
5.8911428
11
51.8043708
21
5.8972428
0
LINE
8
DEFAULT_255_2_778
10
51.8043708
20
5.8972428
11
51.8077708
21
5.9120428
0
LINE
8
DEFAULT_255_2_778
10
51.8077708
20
5.9120428
11
51.8120708
21
5.9297428
0
LINE
8
DEFAULT_255_2_778
10
51.8120708
20
5.9297428
11
51.8178708
21
5.9546428
0
LINE
8
DEFAULT_255_2_778
10
51.8178708
20
5.9546428
11
51.8252708
21
5.9874428
0
LINE
8
DEFAULT_255_2_778
10
51.8252708
20
5.9874428
11
51.8723708
21
6.1975428
0
LINE
8
DEFAULT_255_2_778
10
47.6607708
20
6.6941428
11
47.7541708
21
6.6902428
0
LINE
8
DEFAULT_255_2_778
10
49.3601708
20
6.6198428
11
49.4657708
21
6.6150428
0
LINE
8
DEFAULT_255_2_778
10
46.8148708
20
8.2295428
11
46.7632708
21
8.2279428
0
LINE
8
DEFAULT_255_2_778
10
47.7538708
20
4.3272428
11
49.5286708
21
4.3272428
0
LINE
8
DEFAULT_255_2_778
10
49.5286708
20
4.3272428
11
49.5527708
21
4.3502428
0
LINE
8
DEFAULT_255_2_778
10
49.5527708
20
4.3502428
11
47.7297708
21
4.3502428
0
LINE
8
DEFAULT_255_2_778
10
47.7297708
20
4.3502428
11
47.7538708
21
4.3272428
0
LINE
8
DEFAULT_255_2_778
10
46.4909708
20
11.2151428
11
46.6000708
21
11.2151428
0
LINE
8
DEFAULT_255_2_778
10
46.5841708
20
11.5603428
11
46.4814708
21
11.5603428
0
LINE
8
DEFAULT_255_2_778
10
46.4401708
20
12.3512428
11
41.4409708
21
12.3512428
0
LINE
8
DEFAULT_255_2_778
10
41.4300708
20
12.3760428
11
41.9814708
21
12.3760428
0
LINE
8
DEFAULT_255_2_778
10
51.8030708
20
5.8903428
11
51.7903708
21
5.8731428
0
LINE
8
DEFAULT_255_2_778
10
52.6221708
20
7.6707428
11
52.6743708
21
8.2909428
0
LINE
8
DEFAULT_255_2_778
10
52.6743708
20
8.2909428
11
52.6737708
21
8.3459428
0
LINE
8
DEFAULT_255_2_778
10
52.6737708
20
8.3459428
11
52.6735708
21
8.3636428
0
LINE
8
DEFAULT_255_2_778
10
52.6735708
20
8.3636428
11
52.6721708
21
8.4189428
0
LINE
8
DEFAULT_255_2_778
10
52.6721708
20
8.4189428
11
52.6716708
21
8.4316428
0
LINE
8
DEFAULT_255_2_778
10
52.6716708
20
8.4316428
11
52.6711708
21
8.4475428
0
LINE
8
DEFAULT_255_2_778
10
52.6711708
20
8.4475428
11
52.6703708
21
8.4671428
0
LINE
8
DEFAULT_255_2_778
10
52.6703708
20
8.4671428
11
52.6690708
21
8.4906428
0
LINE
8
DEFAULT_255_2_778
10
52.6690708
20
8.4906428
11
52.6679708
21
8.5063428
0
LINE
8
DEFAULT_255_2_778
10
51.4971708
20
11.6310428
11
49.9004708
21
9.8064428
0
LINE
8
DEFAULT_255_2_778
10
49.9004708
20
9.8064428
11
49.9530708
21
9.7900428
0
LINE
8
DEFAULT_255_2_778
10
49.9530708
20
9.7900428
11
51.5641708
21
11.6307428
0
LINE
8
DEFAULT_255_2_778
10
51.2101708
20
11.6307428
11
49.7223708
21
9.9308428
0
LINE
8
DEFAULT_255_2_778
10
49.7951708
20
9.8913428
11
49.8260708
21
9.8702428
0
LINE
8
DEFAULT_255_2_778
10
49.8260708
20
9.8702428
11
49.8520708
21
9.8501428
0
LINE
8
DEFAULT_255_2_778
10
49.8520708
20
9.8501428
11
49.8726708
21
9.8323428
0
LINE
8
DEFAULT_255_2_778
10
49.8726708
20
9.8323428
11
49.8877708
21
9.8186428
0
LINE
8
DEFAULT_255_2_778
10
49.8877708
20
9.8186428
11
49.8969708
21
9.8099428
0
LINE
8
DEFAULT_255_2_778
10
49.8969708
20
9.8099428
11
49.9004708
21
9.8064428
0
LINE
8
DEFAULT_255_2_778
10
49.9139708
20
9.5212428
11
49.9255708
21
9.5188428
0
LINE
8
DEFAULT_255_2_778
10
50.9947708
20
11.6310428
11
49.4331708
21
9.8466428
0
LINE
8
DEFAULT_255_2_778
10
50.6134708
20
11.6310428
11
49.1590708
21
9.9694428
0
LINE
8
DEFAULT_255_2_778
10
49.1590708
20
9.9694428
11
49.1754708
21
9.9615428
0
LINE
8
DEFAULT_255_2_778
10
49.1754708
20
9.9615428
11
49.1865708
21
9.9541428
0
LINE
8
DEFAULT_255_2_778
10
49.1865708
20
9.9541428
11
49.1966708
21
9.9453428
0
LINE
8
DEFAULT_255_2_778
10
49.2207708
20
9.9326428
11
50.7074708
21
11.6312428
0
LINE
8
DEFAULT_255_2_778
10
42.2407708
20
12.6250428
11
42.3002708
21
12.6822428
0
LINE
8
DEFAULT_255_2_778
10
50.5724708
20
8.2303428
11
50.5195708
21
8.2702428
0
LINE
8
DEFAULT_255_2_778
10
50.5195708
20
8.2702428
11
50.4735708
21
8.2708428
0
LINE
8
DEFAULT_255_2_778
10
49.8948708
20
3.9758428
11
49.9186708
21
3.9985428
0
LINE
8
DEFAULT_255_2_778
10
49.9186708
20
3.9985428
11
49.9176708
21
1.0215428
0
LINE
8
DEFAULT_255_2_778
10
49.9176708
20
1.0215428
11
49.8956708
21
1.0426428
0
LINE
8
DEFAULT_255_2_778
10
49.8956708
20
1.0426428
11
49.8946708
21
3.9758428
0
LINE
8
DEFAULT_255_2_778
10
52.6724708
20
8.3957428
11
52.6724708
21
8.3970428
0
LINE
8
DEFAULT_255_2_778
10
50.4216708
20
11.6312428
11
49.1064708
21
10.1287428
0
LINE
8
DEFAULT_255_2_778
10
47.7871708
20
9.9961428
11
47.8507708
21
9.8694428
0
LINE
8
DEFAULT_255_2_778
10
47.8507708
20
9.8694428
11
47.7874708
21
9.8194428
0
LINE
8
DEFAULT_255_2_778
10
47.4630708
20
10.0049428
11
47.2432708
21
10.0049428
0
LINE
8
DEFAULT_255_2_778
10
47.2432708
20
10.0049428
11
47.2432708
21
11.6312428
0
LINE
8
DEFAULT_255_2_778
10
47.5353708
20
11.6312428
11
47.5353708
21
10.0594428
0
LINE
8
DEFAULT_255_2_778
10
47.5353708
20
10.0594428
11
47.4630708
21
10.0049428
0
LINE
8
DEFAULT_255_2_778
10
47.4630708
20
10.0049428
11
47.4630708
21
11.6312428
0
LINE
8
DEFAULT_255_2_778
10
46.8619708
20
11.7344428
11
46.8619708
21
8.5922428
0
LINE
8
DEFAULT_255_2_778
10
46.8619708
20
8.5922428
11
46.8481708
21
8.5523428
0
LINE
8
DEFAULT_255_2_778
10
46.7693708
20
12.6824428
11
46.7693708
21
12.1390428
0
LINE
8
DEFAULT_255_2_778
10
46.7693708
20
12.1390428
11
46.7693708
21
12.1390428
0
LINE
8
DEFAULT_255_2_778
10
47.3850708
20
1.0429428
11
47.3630708
21
1.0217428
0
LINE
8
DEFAULT_255_2_778
10
47.3630708
20
1.0217428
11
47.3620708
21
3.9988428
0
LINE
8
DEFAULT_255_2_778
10
47.3620708
20
3.9988428
11
47.3858708
21
3.9761428
0
LINE
8
DEFAULT_255_2_778
10
47.3858708
20
3.9761428
11
47.3850708
21
1.0429428
0
LINE
8
DEFAULT_255_2_778
10
42.6428708
20
12.6184428
11
42.6436708
21
12.6668428
0
LINE
8
DEFAULT_255_2_778
10
42.6436708
20
12.6668428
11
45.2831708
21
12.6668428
0
LINE
8
DEFAULT_255_2_778
10
45.2831708
20
12.6668428
11
45.2839708
21
12.6189428
0
LINE
8
DEFAULT_255_2_778
10
42.2761708
20
12.6245428
11
42.2767708
21
12.6607428
0
LINE
8
DEFAULT_255_2_778
10
45.6504708
20
12.6250428
11
45.6498708
21
12.6605428
0
LINE
8
DEFAULT_255_2_778
10
45.6498708
20
12.6605428
11
45.6485708
21
12.6610428
0
LINE
8
DEFAULT_255_2_778
10
45.6485708
20
12.6610428
11
45.6432708
21
12.6615428
0
LINE
8
DEFAULT_255_2_778
10
45.6432708
20
12.6615428
11
45.6345708
21
12.6621428
0
LINE
8
DEFAULT_255_2_778
10
45.6345708
20
12.6621428
11
45.6223708
21
12.6626428
0
LINE
8
DEFAULT_255_2_778
10
45.6223708
20
12.6626428
11
45.5882708
21
12.6637428
0
LINE
8
DEFAULT_255_2_778
10
45.5882708
20
12.6637428
11
45.5424708
21
12.6647428
0
LINE
8
DEFAULT_255_2_778
10
45.5424708
20
12.6647428
11
45.4869708
21
12.6655428
0
LINE
8
DEFAULT_255_2_778
10
45.4869708
20
12.6655428
11
45.2831708
21
12.6666428
0
LINE
8
DEFAULT_255_2_778
10
42.2767708
20
12.6605428
11
42.2843708
21
12.6618428
0
LINE
8
DEFAULT_255_2_778
10
42.2843708
20
12.6618428
11
42.3052708
21
12.6629428
0
LINE
8
DEFAULT_255_2_778
10
42.3052708
20
12.6629428
11
42.3605708
21
12.6644428
0
LINE
8
DEFAULT_255_2_778
10
42.3605708
20
12.6644428
11
42.6434708
21
12.6666428
0
LINE
8
DEFAULT_255_2_778
10
41.9806708
20
12.6824428
11
41.9803708
21
12.3763428
0
LINE
8
DEFAULT_255_2_778
10
41.9803708
20
12.3763428
11
42.2399708
21
12.6250428
0
LINE
8
DEFAULT_255_2_778
10
42.2399708
20
12.6250428
11
42.2468708
21
12.6237428
0
LINE
8
DEFAULT_255_2_778
10
42.2468708
20
12.6237428
11
42.2685708
21
12.6226428
0
LINE
8
DEFAULT_255_2_778
10
42.5005708
20
12.6192428
11
42.6066708
21
12.6189428
0
LINE
8
DEFAULT_255_2_778
10
42.6066708
20
12.6189428
11
45.2892708
21
12.6189428
0
LINE
8
DEFAULT_255_2_778
10
45.2892708
20
12.6189428
11
45.4482708
21
12.6195428
0
LINE
8
DEFAULT_255_2_778
10
45.4482708
20
12.6195428
11
45.5313708
21
12.6205428
0
LINE
8
DEFAULT_255_2_778
10
45.5313708
20
12.6205428
11
45.5662708
21
12.6211428
0
LINE
8
DEFAULT_255_2_778
10
45.5662708
20
12.6211428
11
45.5959708
21
12.6219428
0
LINE
8
DEFAULT_255_2_778
10
45.5959708
20
12.6219428
11
45.6194708
21
12.6226428
0
LINE
8
DEFAULT_255_2_778
10
45.6194708
20
12.6226428
11
45.6366708
21
12.6234428
0
LINE
8
DEFAULT_255_2_778
10
45.6366708
20
12.6234428
11
45.6472708
21
12.6242428
0
LINE
8
DEFAULT_255_2_778
10
45.6472708
20
12.6242428
11
45.6506708
21
12.6250428
0
LINE
8
DEFAULT_255_2_778
10
46.5833708
20
11.5622428
11
46.5835708
21
11.5606428
0
LINE
8
DEFAULT_255_2_778
10
46.5835708
20
11.5606428
11
46.5841708
21
11.5558428
0
LINE
8
DEFAULT_255_2_778
10
46.5841708
20
11.5558428
11
46.5846708
21
11.5479428
0
LINE
8
DEFAULT_255_2_778
10
46.5846708
20
11.5479428
11
46.5854708
21
11.5368428
0
LINE
8
DEFAULT_255_2_778
10
46.5854708
20
11.5368428
11
46.5870708
21
11.5056428
0
LINE
8
DEFAULT_255_2_778
10
46.5870708
20
11.5056428
11
46.5891708
21
11.4630428
0
LINE
8
DEFAULT_255_2_778
10
46.5891708
20
11.4630428
11
46.5915708
21
11.4106428
0
LINE
8
DEFAULT_255_2_778
10
46.5915708
20
11.4106428
11
46.5939708
21
11.3503428
0
LINE
8
DEFAULT_255_2_778
10
46.5939708
20
11.3503428
11
46.5992708
21
11.2159428
0
LINE
8
DEFAULT_255_2_778
10
46.5992708
20
11.2159428
11
46.7084708
21
8.2258428
0
LINE
8
DEFAULT_255_2_778
10
46.7084708
20
8.2258428
11
46.7624708
21
8.2277428
0
LINE
8
DEFAULT_255_2_778
10
46.7624708
20
8.2277428
11
46.6055708
21
12.5380428
0
LINE
8
DEFAULT_255_2_778
10
46.6055708
20
12.5380428
11
46.7698708
21
12.5435428
0
ARC
8
DEFAULT_255_2_778
10
6.2262421
20
12.1701475
40
0.3652108
50
291.3600278
51
313.6570418
0
ARC
8
DEFAULT_255_2_778
10
6.2185052
20
12.1834139
40
0.3803914
50
270.0838393
51
291.7175312
0
ARC
8
DEFAULT_255_2_778
10
3.9685184
20
12.1834139
40
0.3803914
50
248.2824688
51
269.9161607
0
ARC
8
DEFAULT_255_2_778
10
3.9631827
20
12.1739143
40
0.3695944
50
226.4767694
51
248.5059908
0
ARC
8
DEFAULT_255_2_778
10
3.6677979
20
11.071358
40
0.0163878
50
176.1960516
51
201.6085957
0
ARC
8
DEFAULT_255_2_778
10
4.3886416
20
11.1123452
40
0.7382744
50
180.4807205
51
183.0980552
0
ARC
8
DEFAULT_255_2_778
10
7.8170744
20
11.1627816
40
4.1670661
50
179.9265576
51
180.778675
0
ARC
8
DEFAULT_255_2_778
10
14.4510224
20
11.1614105
40
10.8010127
50
179.4541879
51
179.9643926
0
ARC
8
DEFAULT_255_2_778
10
22.080582
20
11.0918625
40
18.4308888
50
178.9891268
51
179.4639332
0
ARC
8
DEFAULT_255_2_778
10
24.6347405
20
12.1667536
40
0.361152
50
291.3225406
51
313.8995217
0
ARC
8
DEFAULT_255_2_778
10
24.625696
20
12.1816845
40
0.3783615
50
270.0251023
51
291.7762654
0
ARC
8
DEFAULT_255_2_778
10
22.3749276
20
12.1816845
40
0.3783615
50
248.2237346
51
269.9748977
0
ARC
8
DEFAULT_255_2_778
10
22.3699862
20
12.1742212
40
0.3696022
50
226.4771101
51
248.5058729
0
ARC
8
DEFAULT_255_2_778
10
25.839699
20
12.3144488
40
0.3663933
50
111.4249971
51
133.6356964
0
ARC
8
DEFAULT_255_2_778
10
25.8471112
20
12.2995697
40
0.3829545
50
90.1420375
51
111.644163
0
ARC
8
DEFAULT_255_2_778
10
21.1533122
20
12.3000913
40
0.3824328
50
68.3409016
51
89.8577307
0
ARC
8
DEFAULT_255_2_778
10
21.1577856
20
12.3096606
40
0.3718886
50
46.5456502
51
68.4372965
0
ARC
8
DEFAULT_255_2_778
10
77.1078135
20
84.1961571
40
3.8732397
50
274.9773289
51
299.5828703
0
ARC
8
DEFAULT_255_2_778
10
78.9177361
20
81.0114671
40
0.2101791
50
299.1025388
51
349.5992229
0
ARC
8
DEFAULT_255_2_778
10
79.6580199
20
80.8682748
40
0.5438395
50
89.1673088
51
168.8412546
0
ARC
8
DEFAULT_255_2_778
10
79.6658759
20
80.8329623
40
0.5790945
50
85.3162991
51
89.9952998
0
ARC
8
DEFAULT_255_2_778
10
79.6801004
20
80.8744851
40
0.5366572
50
1.0824236
51
86.4679874
0
ARC
8
DEFAULT_255_2_778
10
79.6799125
20
77.9420428
40
0.5368504
50
273.5508283
51
358.8878678
0
ARC
8
DEFAULT_255_2_778
10
79.6658753
20
77.9833957
40
0.5791065
50
270.0047001
51
274.6836616
0
ARC
8
DEFAULT_255_2_778
10
79.6580038
20
77.9480755
40
0.543844
50
191.1698566
51
270.8343162
0
ARC
8
DEFAULT_255_2_778
10
78.9175547
20
77.8047748
40
0.2103583
50
10.3929391
51
60.8680679
0
ARC
8
DEFAULT_255_2_778
10
77.1082971
20
74.6228409
40
3.8706947
50
60.4039745
51
85.002802
0
ARC
8
DEFAULT_255_2_778
10
78.0590652
20
80.8621944
40
1.0577726
50
341.4294284
51
353.6184422
0
ARC
8
DEFAULT_255_2_778
10
77.4969029
20
80.9431843
40
1.6255532
50
352.9838335
51
354.0373966
0
ARC
8
DEFAULT_255_2_778
10
78.0002763
20
77.9396877
40
1.1180239
50
5.2208887
51
18.2991506
0
ARC
8
DEFAULT_255_2_778
10
77.3199906
20
81.4625565
40
0.1459665
50
84.6848694
51
89.9720445
0
ARC
8
DEFAULT_255_2_778
10
77.3192133
20
81.4538383
40
0.1547192
50
61.279432
51
84.6973303
0
ARC
8
DEFAULT_255_2_778
10
77.3228864
20
81.4622691
40
0.1455629
50
31.4527125
51
60.9526944
0
ARC
8
DEFAULT_255_2_778
10
77.3281763
20
81.4673897
40
0.1383875
50
0.3035752
51
30.7869269
0
ARC
8
DEFAULT_255_2_778
10
79.6665
20
79.4835658
40
1.7278429
50
268.7748396
51
270.0020483
0
ARC
8
DEFAULT_255_2_778
10
79.6623858
20
79.3682577
40
1.6124741
50
262.2471201
51
268.8333935
0
ARC
8
DEFAULT_255_2_778
10
79.5716665
20
78.7487486
40
0.9864101
50
251.7746615
51
262.614092
0
ARC
8
DEFAULT_255_2_778
10
79.6664765
20
79.5607153
40
1.8046923
50
269.9963581
51
270.9748333
0
ARC
8
DEFAULT_255_2_778
10
79.6744079
20
79.3075482
40
1.5514311
50
270.8410304
51
277.6770286
0
ARC
8
DEFAULT_255_2_778
10
79.9132049
20
78.2739153
40
0.4875015
50
287.556995
51
296.045824
0
ARC
8
DEFAULT_255_2_778
10
80.0104794
20
78.0820692
40
0.2724447
50
295.3816869
51
307.5340882
0
ARC
8
DEFAULT_255_2_778
10
80.1042661
20
77.9628435
40
0.1207743
50
306.7106291
51
327.7087178
0
ARC
8
DEFAULT_255_2_778
10
80.1453525
20
77.9353071
40
0.0713439
50
328.7755403
51
350.9216567
0
ARC
8
DEFAULT_255_2_778
10
80.1634854
20
77.9317205
40
0.0528765
50
351.6591674
51
359.894345
0
ARC
8
DEFAULT_255_2_778
10
79.3341212
20
78.0960011
40
0.2905694
50
231.0512009
51
248.6767832
0
ARC
8
DEFAULT_255_2_778
10
79.322789
20
77.8744024
40
0.2012164
50
171.7363426
51
178.9686145
0
ARC
8
DEFAULT_255_2_778
10
79.3099051
20
77.8748119
40
0.1883274
50
179.0226148
51
180.0034725
0
ARC
8
DEFAULT_255_2_778
10
79.2971266
20
77.8744163
40
0.1755494
50
179.8745961
51
190.4010829
0
ARC
8
DEFAULT_255_2_778
10
79.5664859
20
80.0906761
40
0.9625238
50
97.2412711
51
108.3563633
0
ARC
8
DEFAULT_255_2_778
10
79.6621301
20
79.4632888
40
1.5970411
50
89.8302452
51
97.8081468
0
ARC
8
DEFAULT_255_2_778
10
79.3094372
20
80.9411744
40
0.1874871
50
170.0646184
51
179.3586748
0
ARC
8
DEFAULT_255_2_778
10
79.314545
20
80.9409015
40
0.1925978
50
179.294493
51
180.004782
0
ARC
8
DEFAULT_255_2_778
10
79.3147083
20
80.9408203
40
0.1927611
50
179.9806463
51
188.2913042
0
ARC
8
DEFAULT_255_2_778
10
79.2846197
20
80.7956622
40
0.2009813
50
115.1950188
51
138.085115
0
ARC
8
DEFAULT_255_2_778
10
79.4316177
20
80.5073592
40
0.5247675
50
108.666416
51
114.5406064
0
ARC
8
DEFAULT_255_2_778
10
77.6384412
20
78.3577682
40
0.1865403
50
147.8174676
51
171.0704525
0
ARC
8
DEFAULT_255_2_778
10
77.7780126
20
78.0400109
40
0.3888448
50
78.9318234
51
79.0728466
0
ARC
8
DEFAULT_255_2_778
10
77.7791037
20
78.0458071
40
0.3829467
50
79.0687445
51
89.9908495
0
ARC
8
DEFAULT_255_2_778
10
77.7754873
20
78.0617637
40
0.3670085
50
89.4258696
51
157.4812054
0
ARC
8
DEFAULT_255_2_778
10
77.1061566
20
84.2315833
40
4.2602697
50
274.5640599
51
296.7012808
0
ARC
8
DEFAULT_255_2_778
10
79.7688434
20
80.8986448
40
0.799038
50
199.6977053
51
207.8049578
0
ARC
8
DEFAULT_255_2_778
10
79.4334344
20
80.7855675
40
0.4451911
50
188.3492187
51
200.5460743
0
ARC
8
DEFAULT_255_2_778
10
79.0530688
20
80.7781077
40
0.0599822
50
123.1576412
51
168.6395638
0
ARC
8
DEFAULT_255_2_778
10
79.0524957
20
78.0388861
40
0.059123
50
193.5609251
51
236.9616531
0
ARC
8
DEFAULT_255_2_778
10
79.0837722
20
78.0514353
40
0.0925979
50
194.8374765
51
196.5729667
0
ARC
8
DEFAULT_255_2_778
10
79.4334353
20
78.0320783
40
0.4451919
50
159.4539441
51
171.6507751
0
ARC
8
DEFAULT_255_2_778
10
79.7688094
20
77.9190162
40
0.799001
50
152.1948603
51
160.3024887
0
ARC
8
DEFAULT_255_2_778
10
77.1068478
20
74.5883028
40
4.257958
50
63.2934838
51
85.4468371
0
ARC
8
DEFAULT_255_2_778
10
80.1658912
20
80.8857221
40
0.0510706
50
0.0009355
51
2.6056217
0
ARC
8
DEFAULT_255_2_778
10
80.1485416
20
80.8833362
40
0.0685294
50
3.9390676
51
31.6768541
0
ARC
8
DEFAULT_255_2_778
10
80.1069258
20
80.855914
40
0.118355
50
32.3949809
51
53.719089
0
ARC
8
DEFAULT_255_2_778
10
80.0081244
20
80.7326297
40
0.276284
50
52.3308508
51
64.2713867
0
ARC
8
DEFAULT_255_2_778
10
79.89358
20
80.4962904
40
0.5389178
50
64.2085005
51
71.8941013
0
ARC
8
DEFAULT_255_2_778
10
79.8077552
20
80.2399592
40
0.8092309
50
71.7585859
51
77.8364981
0
ARC
8
DEFAULT_255_2_778
10
79.6747268
20
79.4750133
40
1.5865682
50
82.4764582
51
88.3237553
0
ARC
8
DEFAULT_255_2_778
10
79.6673607
20
79.2988641
40
1.762859
50
88.2519181
51
90.0064644
0
ARC
8
DEFAULT_255_2_778
10
77.222099
20
81.3648137
40
0.1362631
50
0.1300411
51
31.1121621
0
ARC
8
DEFAULT_255_2_778
10
77.2187906
20
81.3640228
40
0.1395082
50
30.6881692
51
61.4982996
0
ARC
8
DEFAULT_255_2_778
10
77.2095255
20
81.3457867
40
0.1599562
50
61.698799
51
84.8100581
0
ARC
8
DEFAULT_255_2_778
10
77.2116819
20
81.3639357
40
0.1416875
50
85.0146081
51
89.9676782
0
ARC
8
DEFAULT_255_2_778
10
77.2980494
20
75.8924094
40
0.1469099
50
42.2690998
51
66.7836833
0
ARC
8
DEFAULT_255_2_778
10
77.3062882
20
75.8986085
40
0.1366469
50
1.2341656
51
42.6692291
0
ARC
8
DEFAULT_255_2_778
10
77.3085549
20
75.8990656
40
0.1343715
50
0.0046716
51
1.0601191
0
ARC
8
DEFAULT_255_2_778
10
77.3089751
20
75.8990758
40
0.1339512
50
351.5200898
51
0.0003446
0
ARC
8
DEFAULT_255_2_778
10
77.2339442
20
75.8407134
40
0.1454788
50
11.1809464
51
51.2202622
0
ARC
8
DEFAULT_255_2_778
10
42.1690675
20
97.4292575
40
0.3665032
50
111.429754
51
133.6557066
0
ARC
8
DEFAULT_255_2_778
10
42.1756702
20
97.4169077
40
0.3804151
50
90.0313853
51
111.6758695
0
ARC
8
DEFAULT_255_2_778
10
44.4262529
20
97.4174277
40
0.3798953
50
68.3090984
51
89.9684865
0
ARC
8
DEFAULT_255_2_778
10
44.4306027
20
97.425883
40
0.370432
50
46.4636347
51
68.4509047
0
ARC
8
DEFAULT_255_2_778
10
40.9637268
20
97.2812023
40
0.3610526
50
291.3480733
51
313.9177259
0
ARC
8
DEFAULT_255_2_778
10
40.9546223
20
97.2971876
40
0.3792647
50
270.0361856
51
291.7500294
0
ARC
8
DEFAULT_255_2_778
10
45.6470014
20
97.2971884
40
0.3792655
50
248.250007
51
269.9638021
0
ARC
8
DEFAULT_255_2_778
10
45.6417987
20
97.2883493
40
0.369131
50
226.4477716
51
248.4916761
0
ARC
8
DEFAULT_255_2_778
10
18.4075783
20
97.4297039
40
0.3652047
50
111.3598672
51
133.6572635
0
ARC
8
DEFAULT_255_2_778
10
18.4153163
20
97.4164428
40
0.3803806
50
90.0835269
51
111.7178381
0
ARC
8
DEFAULT_255_2_778
10
20.6653064
20
97.4164398
40
0.3803836
50
68.2822055
51
89.9163441
0
ARC
8
DEFAULT_255_2_778
10
20.6706387
20
97.4259264
40
0.3696001
50
46.4770789
51
68.5059677
0
ARC
8
DEFAULT_255_2_778
10
17.2011722
20
97.2839672
40
0.3649718
50
291.4708226
51
313.794985
0
ARC
8
DEFAULT_255_2_778
10
17.1935886
20
97.2998809
40
0.3825589
50
270.1307764
51
291.6554014
0
ARC
8
DEFAULT_255_2_778
10
21.8873114
20
97.2997546
40
0.3824328
50
248.3409016
51
269.8577307
0
ARC
8
DEFAULT_255_2_778
10
21.8822209
20
97.288863
40
0.370432
50
226.4636347
51
248.4509047
0
ARC
8
DEFAULT_255_2_778
10
65.9291869
20
97.4301675
40
0.3654441
50
111.3971397
51
133.6883293
0
ARC
8
DEFAULT_255_2_778
10
65.9363457
20
97.4170368
40
0.3802861
50
90.0427698
51
111.6796226
0
ARC
8
DEFAULT_255_2_778
10
68.1868779
20
97.4170368
40
0.3802863
50
68.3203774
51
89.9572302
0
ARC
8
DEFAULT_255_2_778
10
68.1907059
20
97.4249477
40
0.3715212
50
46.4962617
51
68.4182695
0
ARC
8
DEFAULT_255_2_778
10
64.7246268
20
97.2812023
40
0.3610526
50
291.3480733
51
313.9177259
0
ARC
8
DEFAULT_255_2_778
10
64.7155968
20
97.2968004
40
0.3788774
50
270.0249466
51
291.7612539
0
ARC
8
DEFAULT_255_2_778
10
69.4078276
20
97.2962845
40
0.3783615
50
248.2237346
51
269.9748977
0
ARC
8
DEFAULT_255_2_778
10
69.4022926
20
97.2878903
40
0.3685185
50
226.4443577
51
248.5387138
0
ARC
8
DEFAULT_255_2_778
10
5.8267957
20
105.5365698
40
0.4822602
50
220.5694001
51
238.3530739
0
ARC
8
DEFAULT_255_2_778
10
5.8710804
20
103.5948197
40
0.5553297
50
124.9993185
51
179.6385531
0
ARC
8
DEFAULT_255_2_778
10
5.8674491
20
103.5989073
40
0.3341874
50
165.1913339
51
180.048755
0
ARC
8
DEFAULT_255_2_778
10
5.1690103
20
105.0101119
40
0.215425
50
90.6512276
51
177.0967694
0
ARC
8
DEFAULT_255_2_778
10
7.7308494
20
102.9554341
40
1.2731043
50
169.088512
51
176.9387193
0
ARC
8
DEFAULT_255_2_778
10
7.4897693
20
103.0027252
40
1.0274312
50
149.5817108
51
169.1332108
0
ARC
8
DEFAULT_255_2_778
10
7.3884648
20
103.0574675
40
0.9123638
50
138.2054392
51
149.3252198
0
ARC
8
DEFAULT_255_2_778
10
7.3202554
20
103.1204055
40
0.8195665
50
125.824291
51
138.3077696
0
ARC
8
DEFAULT_255_2_778
10
7.2308969
20
103.2443981
40
0.6667298
50
110.3479044
51
125.8345876
0
ARC
8
DEFAULT_255_2_778
10
7.1897776
20
103.3525815
40
0.551
50
91.3743723
51
110.2505833
0
ARC
8
DEFAULT_255_2_778
10
9.2464871
20
102.8628411
40
0.3722812
50
92.2976944
51
141.4938237
0
ARC
8
DEFAULT_255_2_778
10
7.1589097
20
100.2428905
40
0.3424489
50
141.8086729
51
179.8607097
0
ARC
8
DEFAULT_255_2_778
10
12.7356131
20
104.833553
40
0.6811493
50
0.081594
51
23.0113123
0
ARC
8
DEFAULT_255_2_778
10
12.7160723
20
104.8236747
40
0.7029982
50
23.1297695
51
45.5854652
0
ARC
8
DEFAULT_255_2_778
10
12.6923336
20
104.7982384
40
0.7377812
50
45.6510863
51
67.3913881
0
ARC
8
DEFAULT_255_2_778
10
12.682483
20
104.7712841
40
0.7664521
50
67.4862221
51
88.6484016
0
ARC
8
DEFAULT_255_2_778
10
5.4220836
20
105.2862873
40
0.1480359
50
29.4730376
51
89.8923393
0
ARC
8
DEFAULT_255_2_778
10
5.1678872
20
105.0048424
40
0.4316008
50
89.4458013
51
177.0408968
0
ARC
8
DEFAULT_255_2_778
10
4.3753907
20
42.640361
40
0.1446591
50
189.1236588
51
270.9787705
0
ARC
8
DEFAULT_255_2_778
10
3.8350657
20
43.767987
40
0.1467394
50
90.3920023
51
159.5638622
0
ARC
8
DEFAULT_255_2_778
10
3.8279766
20
43.7744018
40
0.137902
50
161.0331091
51
174.3658829
0
ARC
8
DEFAULT_255_2_778
10
3.8274229
20
43.7744841
40
0.1373431
50
174.3773391
51
180.000294
0
ARC
8
DEFAULT_255_2_778
10
3.8276138
20
43.7744483
40
0.137534
50
179.9853829
51
233.477354
0
ARC
8
DEFAULT_255_2_778
10
1.9680593
20
42.2874286
40
0.2126549
50
126.7032324
51
158.9752786
0
ARC
8
DEFAULT_255_2_778
10
2.4548724
20
34.0587894
40
0.1422337
50
82.3276258
51
89.9237086
0
ARC
8
DEFAULT_255_2_778
10
2.4536642
20
34.0457378
40
0.1553307
50
47.37095
51
82.5287076
0
ARC
8
DEFAULT_255_2_778
10
2.3867441
20
33.9825665
40
0.1518611
50
90.0099946
51
90.4460665
0
ARC
8
DEFAULT_255_2_778
10
2.386731
20
33.9859995
40
0.148428
50
46.3083179
51
90.0051958
0
ARC
8
DEFAULT_255_2_778
10
2.3950649
20
33.9934338
40
0.1372986
50
0.2876094
51
46.679919
0
ARC
8
DEFAULT_255_2_778
10
2.474063
20
34.0605014
40
0.2738995
50
0.1300272
51
23.2275573
0
ARC
8
DEFAULT_255_2_778
10
2.4633178
20
34.0530444
40
0.2867266
50
23.7500731
51
46.0646809
0
ARC
8
DEFAULT_255_2_778
10
2.4730602
20
31.8787575
40
0.2749026
50
313.4917395
51
359.8469181
0
ARC
8
DEFAULT_255_2_778
10
2.4561847
20
31.8961703
40
0.2991497
50
270.0079979
51
313.541219
0
ARC
8
DEFAULT_255_2_778
10
2.4562849
20
31.9362389
40
0.3392182
50
269.7934105
51
269.9901267
0
ARC
8
DEFAULT_255_2_778
10
2.4522621
20
34.0088271
40
0.333006
50
86.8163461
51
89.5526927
0
ARC
8
DEFAULT_255_2_778
10
2.4553819
20
34.0380901
40
0.3036185
50
68.4181775
51
87.0974994
0
ARC
8
DEFAULT_255_2_778
10
2.45615
20
34.042184
40
0.2995302
50
46.5187642
51
68.266759
0
ARC
8
DEFAULT_255_2_778
10
2.4582358
20
34.0583715
40
0.143247
50
0.9805935
51
45.3748825
0
ARC
8
DEFAULT_255_2_778
10
2.4606954
20
31.8794212
40
0.1407733
50
314.2137441
51
359.4308894
0
ARC
8
DEFAULT_255_2_778
10
2.4547123
20
31.8903453
40
0.1528115
50
275.9453062
51
312.9653149
0
ARC
8
DEFAULT_255_2_778
10
2.4549725
20
31.8834425
40
0.1459196
50
270.0350557
51
276.1244152
0
ARC
8
DEFAULT_255_2_778
10
1.9643775
20
67.2051495
40
0.2078199
50
180.365737
51
233.6714148
0
ARC
8
DEFAULT_255_2_778
10
1.1101443
20
97.8922474
40
0.1479811
50
31.6161799
51
90.4965767
0
ARC
8
DEFAULT_255_2_778
10
4.5503539
20
62.5851557
40
0.1799531
50
134.0824849
51
156.3919181
0
ARC
8
DEFAULT_255_2_778
10
4.5417896
20
62.5895963
40
0.1703284
50
156.6069185
51
179.8564714
0
ARC
8
DEFAULT_255_2_778
10
1.375416
20
97.9013899
40
0.1388331
50
79.8008238
51
90.0223802
0
ARC
8
DEFAULT_255_2_778
10
1.374015
20
97.8933404
40
0.1470036
50
76.5683417
51
79.8189398
0
ARC
8
DEFAULT_255_2_778
10
1.3743878
20
97.8887647
40
0.1513742
50
36.8859008
51
77.1078978
0
ARC
8
DEFAULT_255_2_778
10
1.9687455
20
67.2041742
40
0.0308838
50
180.095101
51
188.5276582
0
ARC
8
DEFAULT_255_2_778
10
1.9744296
20
67.2052125
40
0.0366594
50
188.8151299
51
232.0039511
0
ARC
8
DEFAULT_255_2_778
10
2.7500416
20
12.3141588
40
0.3684789
50
46.247362
51
68.6382679
0
ARC
8
DEFAULT_255_2_778
10
2.7434143
20
12.2963181
40
0.3875081
50
68.6865613
51
89.9803916
0
ARC
8
DEFAULT_255_2_778
10
2.743547
20
12.2912029
40
0.3926233
50
90.0000024
51
90.2313242
0
ARC
8
DEFAULT_255_2_778
10
13.632588
20
12.8246539
40
0.142731
50
263.4626686
51
269.9493275
0
ARC
8
DEFAULT_255_2_778
10
13.6334747
20
12.8356813
40
0.1537881
50
229.9709252
51
263.6022348
0
ARC
8
DEFAULT_255_2_778
10
13.6284774
20
12.8257542
40
0.1429955
50
187.3652739
51
228.9457579
0
ARC
8
DEFAULT_255_2_778
10
12.3482979
20
12.6609522
40
1.1477482
50
7.33184
51
79.8501425
0
ARC
8
DEFAULT_255_2_778
10
12.3175227
20
12.5834358
40
1.2295873
50
79.0750435
51
90.0261369
0
ARC
8
DEFAULT_255_2_778
10
12.3137896
20
12.6040995
40
1.2089276
50
89.8496567
51
122.8277711
0
ARC
8
DEFAULT_255_2_778
10
12.2596977
20
12.674529
40
1.1204449
50
122.4558626
51
173.1882123
0
ARC
8
DEFAULT_255_2_778
10
11.005348
20
12.8257533
40
0.1429936
50
311.0539304
51
352.6349924
0
ARC
8
DEFAULT_255_2_778
10
11.0093011
20
12.8219751
40
0.1375491
50
296.2612632
51
310.8458186
0
ARC
8
DEFAULT_255_2_778
10
11.0008258
20
12.8369135
40
0.1546989
50
273.523063
51
296.6282439
0
ARC
8
DEFAULT_255_2_778
10
11.001136
20
12.8313539
40
0.1491309
50
270.009902
51
273.535348
0
ARC
8
DEFAULT_255_2_778
10
41.59774
20
12.5261646
40
0.1560722
50
90.7629642
51
132.6682285
0
ARC
8
DEFAULT_255_2_778
10
40.4747727
20
12.166821
40
0.3618105
50
291.4294038
51
313.9239693
0
ARC
8
DEFAULT_255_2_778
10
40.4662052
20
12.1834139
40
0.3803914
50
270.0838393
51
291.7175312
0
ARC
8
DEFAULT_255_2_778
10
38.2162184
20
12.1834139
40
0.3803914
50
248.2824688
51
269.9161607
0
ARC
8
DEFAULT_255_2_778
10
38.2102935
20
12.1729901
40
0.3685187
50
226.444236
51
248.5385698
0
ARC
8
DEFAULT_255_2_778
10
36.9948073
20
12.3013186
40
0.3809047
50
68.2973627
51
89.9165901
0
ARC
8
DEFAULT_255_2_778
10
37.0009119
20
12.3127179
40
0.3680588
50
46.415187
51
68.5241113
0
ARC
8
DEFAULT_255_2_778
10
56.611583
20
11.1979087
40
0.3625149
50
90.0142899
51
140.4741035
0
LINE
8
DEFAULT_255_2_778
10
56.6114925
20
11.5604236
11
56.6121618
21
11.560423
0
ARC
8
DEFAULT_255_2_778
10
77.368511
20
97.8503407
40
0.1435838
50
1.2300511
51
90.2590522
0
ARC
8
DEFAULT_255_2_778
10
77.3685756
20
81.7520392
40
0.1435179
50
269.7150534
51
358.7957631
0
ARC
8
DEFAULT_255_2_778
10
4.8274617
20
46.3012335
40
0.1470001
50
359.9958972
51
4.4753191
0
ARC
8
DEFAULT_255_2_778
10
4.8422121
20
46.3031342
40
0.1321485
50
4.1527677
51
23.2140897
0
ARC
8
DEFAULT_255_2_778
10
4.8302486
20
46.2947288
40
0.1464876
50
24.3911871
51
46.3500657
0
ARC
8
DEFAULT_255_2_778
10
4.5437168
20
47.0113798
40
0.1725311
50
203.3046714
51
226.5034724
0
ARC
8
DEFAULT_255_2_778
10
4.540215
20
47.0104632
40
0.1689532
50
180.0475429
51
203.4890024
0
ARC
8
DEFAULT_255_2_778
10
12.347962
20
12.5989872
40
0.9849607
50
1.9337146
51
78.5509774
0
ARC
8
DEFAULT_255_2_778
10
12.3173555
20
12.5277113
40
1.0610119
50
77.6950547
51
90.0374624
0
ARC
8
DEFAULT_255_2_778
10
12.3133669
20
12.5474655
40
1.0412627
50
89.8186945
51
124.2656935
0
ARC
8
DEFAULT_255_2_778
10
12.262872
20
12.608769
40
0.9621962
50
123.8360639
51
178.6032517
0
ARC
8
DEFAULT_255_2_778
10
12.70249
20
104.0086676
40
0.7143891
50
275.4497303
51
358.9617481
0
ARC
8
DEFAULT_255_2_778
10
12.6835389
20
104.0652127
40
0.7725962
50
270.9509907
51
276.4505886
0
ARC
8
DEFAULT_255_2_778
10
7.1755727
20
102.8412298
40
0.3591955
50
89.7943778
51
178.7568036
0
ARC
8
DEFAULT_255_2_778
10
13.6324742
20
96.7685302
40
0.1498928
50
90.0047256
51
90.9499294
0
ARC
8
DEFAULT_255_2_778
10
13.6329894
20
96.7624968
40
0.1559344
50
91.1024517
51
116.5205076
0
ARC
8
DEFAULT_255_2_778
10
13.6395509
20
96.7555584
40
0.1650959
50
117.4829016
51
129.6239047
0
ARC
8
DEFAULT_255_2_778
10
13.6281775
20
96.7748917
40
0.1429956
50
131.0542579
51
172.6347206
0
ARC
8
DEFAULT_255_2_778
10
12.348055
20
96.9394791
40
1.1476643
50
280.4544618
51
352.6784241
0
ARC
8
DEFAULT_255_2_778
10
12.3181217
20
97.0102449
40
1.2227995
50
269.9788838
51
281.2320969
0
ARC
8
DEFAULT_255_2_778
10
12.3177266
20
97.0310417
40
1.2435961
50
266.9363282
51
269.9974367
0
ARC
8
DEFAULT_255_2_778
10
12.3119311
20
96.9912817
40
1.2035888
50
235.5679107
51
267.1106664
0
ARC
8
DEFAULT_255_2_778
10
12.2540694
20
96.9220855
40
1.1138326
50
180.3429721
51
236.0102307
0
ARC
8
DEFAULT_255_2_778
10
12.190672
20
96.9154813
40
1.0504152
50
179.8231807
51
180.0034446
0
ARC
8
DEFAULT_255_2_778
10
6.6456762
20
97.9085734
40
0.1009857
50
359.9713956
51
7.4776488
0
ARC
8
DEFAULT_255_2_778
10
6.6800225
20
97.9156902
40
0.066056
50
5.2336561
51
43.2170671
0
ARC
8
DEFAULT_255_2_778
10
6.6817279
20
97.9062632
40
0.0717203
50
49.6518084
51
85.2766287
0
ARC
8
DEFAULT_255_2_778
10
6.6734114
20
97.8636708
40
0.1149523
50
82.8929525
51
90.0246967
0
ARC
8
DEFAULT_255_2_778
10
0.368407
20
97.8293112
40
0.1421143
50
90.3407482
51
95.3596102
0
ARC
8
DEFAULT_255_2_778
10
0.3687913
20
97.8223632
40
0.149068
50
95.2572202
51
132.3545069
0
ARC
8
DEFAULT_255_2_778
10
0.3649249
20
97.827904
40
0.1423712
50
132.7069413
51
179.3887075
0
ARC
8
DEFAULT_255_2_778
10
12.3941138
20
96.9856004
40
0.9386326
50
0.0001317
51
2.0222825
0
ARC
8
DEFAULT_255_2_778
10
12.3621686
20
96.9948452
40
0.970622
50
294.6286915
51
359.4543981
0
ARC
8
DEFAULT_255_2_778
10
12.3181556
20
97.0612852
40
1.049432
50
271.7235583
51
295.3013985
0
ARC
8
DEFAULT_255_2_778
10
12.3170508
20
97.0721184
40
1.0602938
50
269.9999801
51
271.765624
0
ARC
8
DEFAULT_255_2_778
10
12.3144715
20
97.0547601
40
1.0429387
50
231.9991283
51
270.1416826
0
ARC
8
DEFAULT_255_2_778
10
12.267042
20
96.996235
40
0.9676207
50
193.7205541
51
232.0786033
0
ARC
8
DEFAULT_255_2_778
10
12.23638
20
96.9857538
40
0.9353523
50
180.0093284
51
193.5423281
0
ARC
8
DEFAULT_255_2_778
10
12.2333877
20
96.9855953
40
0.93236
50
173.8634821
51
179.9996159
0
ARC
8
DEFAULT_255_2_778
10
12.240154
20
96.9847132
40
0.9391817
50
164.333785
51
173.8541032
0
ARC
8
DEFAULT_255_2_778
10
76.4526577
20
96.8925648
40
0.1794431
50
269.7778079
51
358.8051681
0
LINE
8
DEFAULT_255_2_778
10
3.6652618
20
11.410623
11
3.6525618
21
11.065323
0
LINE
8
DEFAULT_255_2_778
10
3.6525618
20
11.417023
11
3.6576618
21
11.628123
0
LINE
8
DEFAULT_255_2_778
10
3.6576618
20
11.628123
11
3.6613618
21
11.741923
0
LINE
8
DEFAULT_255_2_778
10
3.6613618
20
11.741923
11
3.6393618
21
11.733423
0
LINE
8
DEFAULT_255_2_778
10
3.6393618
20
11.733423
11
3.6264618
21
11.014823
0
LINE
8
DEFAULT_255_2_778
10
3.6264618
20
11.014823
11
6.5757618
21
11.014823
0
LINE
8
DEFAULT_255_2_778
10
6.5757618
20
11.014823
11
6.5593618
21
11.984223
0
LINE
8
DEFAULT_255_2_778
10
3.6610618
20
11.741923
11
3.3668618
21
12.029223
0
LINE
8
DEFAULT_255_2_778
10
3.6391618
20
11.733423
11
2.7011618
21
12.632523
0
LINE
8
DEFAULT_255_2_778
10
6.2187618
20
11.803323
11
3.9677618
21
11.803323
0
LINE
8
DEFAULT_255_2_778
10
2.7117618
20
12.656823
11
3.3665618
21
12.029023
0
LINE
8
DEFAULT_255_2_778
10
3.3665618
20
12.029023
11
3.5803618
21
12.029023
0
LINE
8
DEFAULT_255_2_778
10
6.5627618
20
11.782423
11
7.4747618
21
12.656823
0
LINE
8
DEFAULT_255_2_778
10
7.4747618
20
12.656823
11
7.5792618
21
12.656823
0
LINE
8
DEFAULT_255_2_778
10
7.5792618
20
12.656823
11
7.5798618
21
12.681923
0
LINE
8
DEFAULT_255_2_778
10
7.1800618
20
12.579023
11
6.4780618
21
11.906223
0
LINE
8
DEFAULT_255_2_778
10
6.5759618
20
11.032523
11
3.6449618
21
11.032523
0
LINE
8
DEFAULT_255_2_778
10
3.6449618
20
11.032523
11
3.6520618
21
11.423123
0
LINE
8
DEFAULT_255_2_778
10
24.9732618
20
11.786123
11
25.8812618
21
12.657923
0
LINE
8
DEFAULT_255_2_778
10
25.8812618
20
12.657923
11
25.8921618
21
12.632723
0
LINE
8
DEFAULT_255_2_778
10
25.8921618
20
12.632723
11
24.9724618
21
11.750923
0
LINE
8
DEFAULT_255_2_778
10
22.0279618
20
11.750923
11
21.1082618
21
12.632723
0
LINE
8
DEFAULT_255_2_778
10
21.1190618
20
12.657923
11
22.0271618
21
11.786123
0
LINE
8
DEFAULT_255_2_778
10
24.9864618
20
11.032823
11
22.0141618
21
11.032823
0
LINE
8
DEFAULT_255_2_778
10
24.6261618
20
11.803523
11
22.3750618
21
11.803523
0
LINE
8
DEFAULT_255_2_778
10
22.0310618
20
11.987723
11
22.0146618
21
11.014823
0
LINE
8
DEFAULT_255_2_778
10
22.0146618
20
11.014823
11
24.9862618
21
11.014823
0
LINE
8
DEFAULT_255_2_778
10
24.9862618
20
11.014823
11
24.9698618
21
11.987723
0
LINE
8
DEFAULT_255_2_778
10
22.1157618
20
11.906523
11
21.4138618
21
12.579323
0
LINE
8
DEFAULT_255_2_778
10
25.5870618
20
12.579323
11
24.8851618
21
11.906523
0
LINE
8
DEFAULT_255_2_778
10
22.1154618
20
11.906223
11
22.3747618
21
11.803323
0
LINE
8
DEFAULT_255_2_778
10
80.2166618
20
80.884623
11
80.2166618
21
77.931623
0
LINE
8
DEFAULT_255_2_778
10
79.1136618
20
80.774323
11
79.1236618
21
80.912723
0
LINE
8
DEFAULT_255_2_778
10
79.1236618
20
80.912723
11
79.1236618
21
77.903323
0
LINE
8
DEFAULT_255_2_778
10
79.1236618
20
77.903323
11
79.1181618
21
77.994923
0
LINE
8
DEFAULT_255_2_778
10
79.1181618
20
77.994923
11
79.1136618
21
78.041423
0
LINE
8
DEFAULT_255_2_778
10
78.8495618
20
78.079823
11
79.0202618
21
78.390923
0
LINE
8
DEFAULT_255_2_778
10
79.0202618
20
78.390923
11
79.0202618
21
80.424823
0
LINE
8
DEFAULT_255_2_778
10
79.0202618
20
80.424823
11
78.8495618
21
80.736023
0
LINE
8
DEFAULT_255_2_778
10
77.0578618
20
81.425723
11
77.2776618
21
81.422023
0
LINE
8
DEFAULT_255_2_778
10
79.2631618
20
77.811823
11
79.2631618
21
77.719423
0
LINE
8
DEFAULT_255_2_778
10
79.2631618
20
77.719423
11
79.2628618
21
77.677623
0
LINE
8
DEFAULT_255_2_778
10
79.2628618
20
77.677623
11
79.2628618
21
77.641123
0
LINE
8
DEFAULT_255_2_778
10
79.2628618
20
77.641123
11
79.2628618
21
77.611523
0
LINE
8
DEFAULT_255_2_778
10
79.2628618
20
77.611523
11
79.2631618
21
77.589823
0
LINE
8
DEFAULT_255_2_778
10
79.2631618
20
77.589823
11
79.2633618
21
77.576823
0
LINE
8
DEFAULT_255_2_778
10
79.2633618
20
77.576823
11
79.2631618
21
77.573123
0
LINE
8
DEFAULT_255_2_778
10
79.6663618
20
77.404323
11
79.6663618
21
77.756023
0
LINE
8
DEFAULT_255_2_778
10
79.8816618
20
77.770023
11
79.9774618
21
77.786923
0
LINE
8
DEFAULT_255_2_778
10
79.9774618
20
77.786923
11
80.0602618
21
77.809123
0
LINE
8
DEFAULT_255_2_778
10
79.2631618
20
77.812023
11
79.2284618
21
77.825323
0
LINE
8
DEFAULT_255_2_778
10
79.1514618
20
77.870023
11
79.1424618
21
77.878223
0
LINE
8
DEFAULT_255_2_778
10
79.1424618
20
77.878223
11
79.1236618
21
77.903323
0
LINE
8
DEFAULT_255_2_778
10
79.2633618
20
81.242923
11
79.2636618
21
81.239223
0
LINE
8
DEFAULT_255_2_778
10
79.2636618
20
81.239223
11
79.2633618
21
81.226223
0
LINE
8
DEFAULT_255_2_778
10
79.2633618
20
81.226223
11
79.2631618
21
81.204523
0
LINE
8
DEFAULT_255_2_778
10
79.2631618
20
81.204523
11
79.2631618
21
81.174923
0
LINE
8
DEFAULT_255_2_778
10
79.2631618
20
81.174923
11
79.2631618
21
81.138423
0
LINE
8
DEFAULT_255_2_778
10
79.2631618
20
81.138423
11
79.2633618
21
81.096623
0
LINE
8
DEFAULT_255_2_778
10
79.2633618
20
81.096623
11
79.2633618
21
81.004223
0
LINE
8
DEFAULT_255_2_778
10
79.1239618
20
80.913023
11
79.1350618
21
80.929923
0
LINE
8
DEFAULT_255_2_778
10
79.1990618
20
80.977523
11
79.2136618
21
80.984723
0
LINE
8
DEFAULT_255_2_778
10
77.4885618
20
78.468723
11
77.4805618
21
78.457123
0
LINE
8
DEFAULT_255_2_778
10
77.4541618
20
78.386723
11
77.4631618
21
78.458723
0
LINE
8
DEFAULT_255_2_778
10
77.4631618
20
78.458723
11
77.4644618
21
78.470323
0
LINE
8
DEFAULT_255_2_778
10
77.4395618
20
76.750023
11
77.4432618
21
76.800523
0
LINE
8
DEFAULT_255_2_778
10
79.0204618
20
80.425623
11
79.0620618
21
80.525923
0
LINE
8
DEFAULT_255_2_778
10
78.9929618
20
80.720923
11
78.9905618
21
80.758723
0
LINE
8
DEFAULT_255_2_778
10
78.9905618
20
80.758723
11
78.9942618
21
80.789923
0
LINE
8
DEFAULT_255_2_778
10
78.9942618
20
78.027723
11
78.9905618
21
78.058923
0
LINE
8
DEFAULT_255_2_778
10
78.9905618
20
78.058923
11
78.9929618
21
78.096723
0
LINE
8
DEFAULT_255_2_778
10
79.0620618
20
78.291723
11
79.0204618
21
78.392023
0
LINE
8
DEFAULT_255_2_778
10
79.9782618
20
81.031023
11
79.8824618
21
81.047923
0
LINE
8
DEFAULT_255_2_778
10
79.6671618
20
81.061723
11
79.6671618
21
81.413323
0
LINE
8
DEFAULT_255_2_778
10
77.4671618
20
80.351523
11
77.4671618
21
81.469423
0
LINE
8
DEFAULT_255_2_778
10
77.4671618
20
81.469423
11
77.3583618
21
81.365123
0
LINE
8
DEFAULT_255_2_778
10
76.6328618
20
81.609923
11
76.5542618
21
81.609923
0
LINE
8
DEFAULT_255_2_778
10
76.5542618
20
81.609923
11
76.4997618
21
81.505623
0
LINE
8
DEFAULT_255_2_778
10
76.4997618
20
81.505623
11
77.2117618
21
81.505623
0
LINE
8
DEFAULT_255_2_778
10
77.2117618
20
81.505623
11
77.3192618
21
81.608523
0
LINE
8
DEFAULT_255_2_778
10
77.5128618
20
81.785023
11
77.3686618
21
81.785023
0
LINE
8
DEFAULT_255_2_778
10
77.3686618
20
81.785023
11
76.6328618
21
81.772623
0
LINE
8
DEFAULT_255_2_778
10
77.4673618
20
78.261323
11
77.4673618
21
76.580923
0
LINE
8
DEFAULT_255_2_778
10
77.4673618
20
76.580923
11
77.4612618
21
76.229823
0
LINE
8
DEFAULT_255_2_778
10
77.4612618
20
76.229823
11
77.4131618
21
76.091523
0
LINE
8
DEFAULT_255_2_778
10
77.1668618
20
74.390423
11
77.3771618
21
75.825823
0
LINE
8
DEFAULT_255_2_778
10
77.3771618
20
75.825823
11
77.3784618
21
75.852023
0
LINE
8
DEFAULT_255_2_778
10
77.3784618
20
75.852023
11
77.3766618
21
75.868923
0
LINE
8
DEFAULT_255_2_778
10
77.3059618
20
75.835623
11
77.3774618
21
75.826123
0
LINE
8
DEFAULT_255_2_778
10
77.3774618
20
75.826123
11
77.4414618
21
75.879323
0
LINE
8
DEFAULT_255_2_778
10
77.4414618
20
75.879323
11
77.2154618
21
74.337323
0
LINE
8
DEFAULT_255_2_778
10
77.2154618
20
74.337323
11
77.1776618
21
74.379123
0
LINE
8
DEFAULT_255_2_778
10
77.3438618
20
76.091723
11
77.4136618
21
76.091723
0
LINE
8
DEFAULT_255_2_778
10
77.4136618
20
76.091723
11
77.3588618
21
76.144123
0
LINE
8
DEFAULT_255_2_778
10
44.7783618
20
98.391623
11
44.7749618
21
98.567523
0
LINE
8
DEFAULT_255_2_778
10
41.8266618
20
98.567523
11
41.8232618
21
98.391623
0
LINE
8
DEFAULT_255_2_778
10
44.7736618
20
97.823523
11
44.7839618
21
98.391623
0
LINE
8
DEFAULT_255_2_778
10
41.8174618
20
98.391623
11
41.8277618
21
97.823523
0
LINE
8
DEFAULT_255_2_778
10
45.6940618
20
96.968123
11
45.6829618
21
96.942523
0
LINE
8
DEFAULT_255_2_778
10
40.9069618
20
96.968123
11
40.9180618
21
96.942523
0
LINE
8
DEFAULT_255_2_778
10
41.8134618
20
97.836023
11
41.8004618
21
98.586123
0
LINE
8
DEFAULT_255_2_778
10
41.8004618
20
98.586123
11
44.8005618
21
98.586123
0
LINE
8
DEFAULT_255_2_778
10
44.8005618
20
98.586123
11
44.7876618
21
97.836023
0
LINE
8
DEFAULT_255_2_778
10
44.7810618
20
98.567523
11
41.8200618
21
98.567523
0
LINE
8
DEFAULT_255_2_778
10
42.1751618
20
97.797123
11
44.4262618
21
97.797123
0
LINE
8
DEFAULT_255_2_778
10
45.3874618
20
97.021123
11
44.6855618
21
97.693923
0
LINE
8
DEFAULT_255_2_778
10
41.9160618
20
97.693923
11
41.2141618
21
97.021123
0
LINE
8
DEFAULT_255_2_778
10
41.8314618
20
97.612923
11
41.8277618
21
97.814323
0
LINE
8
DEFAULT_255_2_778
10
41.8277618
20
97.814323
11
40.9183618
21
96.942523
0
LINE
8
DEFAULT_255_2_778
10
40.9183618
20
96.942523
11
40.6683618
21
96.942523
0
LINE
8
DEFAULT_255_2_778
10
40.6683618
20
96.942523
11
40.6677618
21
96.918123
0
LINE
8
DEFAULT_255_2_778
10
45.9335618
20
96.942223
11
45.6835618
21
96.942223
0
LINE
8
DEFAULT_255_2_778
10
45.6835618
20
96.942223
11
44.7741618
21
97.814023
0
LINE
8
DEFAULT_255_2_778
10
44.7741618
20
97.814023
11
44.7704618
21
97.612723
0
LINE
8
DEFAULT_255_2_778
10
21.0095618
20
97.612723
11
21.0132618
21
97.814023
0
LINE
8
DEFAULT_255_2_778
10
18.0708618
20
97.612723
11
18.0670618
21
97.814023
0
LINE
8
DEFAULT_255_2_778
10
21.0264618
20
98.567023
11
18.0538618
21
98.567023
0
LINE
8
DEFAULT_255_2_778
10
18.4147618
20
97.796523
11
20.6658618
21
97.796523
0
LINE
8
DEFAULT_255_2_778
10
21.6270618
20
97.020523
11
20.9251618
21
97.693423
0
LINE
8
DEFAULT_255_2_778
10
18.1557618
20
97.693423
11
17.4537618
21
97.020523
0
LINE
8
DEFAULT_255_2_778
10
17.1995618
20
97.017623
11
17.2106618
21
96.992223
0
LINE
8
DEFAULT_255_2_778
10
21.0195618
20
97.842823
11
21.9339618
21
96.967323
0
LINE
8
DEFAULT_255_2_778
10
18.0678618
20
97.850323
11
18.0670618
21
97.814523
0
LINE
8
DEFAULT_255_2_778
10
18.0670618
20
97.814523
11
17.2101618
21
96.993023
0
LINE
8
DEFAULT_255_2_778
10
17.2101618
20
96.993023
11
16.9082618
21
96.993023
0
LINE
8
DEFAULT_255_2_778
10
16.9082618
20
96.993023
11
16.9068618
21
96.918423
0
LINE
8
DEFAULT_255_2_778
10
21.9223618
20
96.942723
11
21.0129618
21
97.814523
0
LINE
8
DEFAULT_255_2_778
10
21.0129618
20
97.814523
11
21.0256618
21
98.586123
0
LINE
8
DEFAULT_255_2_778
10
21.0256618
20
98.586123
11
18.0546618
21
98.586123
0
LINE
8
DEFAULT_255_2_778
10
65.9360618
20
97.797123
11
68.1871618
21
97.797123
0
LINE
8
DEFAULT_255_2_778
10
69.1483618
20
97.021123
11
68.4464618
21
97.693923
0
LINE
8
DEFAULT_255_2_778
10
65.6770618
20
97.693923
11
64.9750618
21
97.021123
0
LINE
8
DEFAULT_255_2_778
10
65.2460618
20
97.485723
11
65.2497618
21
97.284323
0
LINE
8
DEFAULT_255_2_778
10
65.5629618
20
97.824323
11
65.5629618
21
98.585523
0
LINE
8
DEFAULT_255_2_778
10
69.1734618
20
97.237723
11
69.1626618
21
97.212323
0
LINE
8
DEFAULT_255_2_778
10
64.6795618
20
96.942223
11
65.2462618
21
97.485723
0
LINE
8
DEFAULT_255_2_778
10
65.2462618
20
97.485723
11
65.5889618
21
97.805823
0
LINE
8
DEFAULT_255_2_778
10
65.5889618
20
97.805823
11
65.5923618
21
97.612723
0
LINE
8
DEFAULT_255_2_778
10
68.4860618
20
97.852923
11
68.4974618
21
98.585823
0
LINE
8
DEFAULT_255_2_778
10
68.4974618
20
98.585823
11
65.5566618
21
98.585823
0
LINE
8
DEFAULT_255_2_778
10
69.6520618
20
96.918123
11
69.3449618
21
97.212623
0
LINE
8
DEFAULT_255_2_778
10
69.3449618
20
97.212623
11
69.1626618
21
97.212623
0
LINE
8
DEFAULT_255_2_778
10
69.1626618
20
97.212623
11
68.8287618
21
97.532823
0
LINE
8
DEFAULT_255_2_778
10
68.8287618
20
97.532823
11
68.4860618
21
97.852923
0
LINE
8
DEFAULT_255_2_778
10
68.4860618
20
97.852923
11
68.4826618
21
97.659523
0
LINE
8
DEFAULT_255_2_778
10
6.9112618
20
97.901623
11
6.8805618
21
97.902123
0
LINE
8
DEFAULT_255_2_778
10
6.8805618
20
97.902123
11
6.8183618
21
97.901923
0
LINE
8
DEFAULT_255_2_778
10
12.6963618
20
105.537523
11
12.6973618
21
105.534023
0
LINE
8
DEFAULT_255_2_778
10
12.6973618
20
105.534023
11
12.6984618
21
105.524023
0
LINE
8
DEFAULT_255_2_778
10
12.6984618
20
105.524023
11
12.6992618
21
105.507323
0
LINE
8
DEFAULT_255_2_778
10
12.6992618
20
105.507323
11
12.6997618
21
105.484023
0
LINE
8
DEFAULT_255_2_778
10
12.6997618
20
105.484023
11
12.7002618
21
105.454423
0
LINE
8
DEFAULT_255_2_778
10
12.7002618
20
105.454423
11
12.7005618
21
105.418923
0
LINE
8
DEFAULT_255_2_778
10
12.7005618
20
105.418923
11
12.7005618
21
105.377923
0
LINE
8
DEFAULT_255_2_778
10
12.7005618
20
105.377923
11
12.7002618
21
105.331623
0
LINE
8
DEFAULT_255_2_778
10
12.7002618
20
105.331623
11
12.6992618
21
105.225323
0
LINE
8
DEFAULT_255_2_778
10
12.6992618
20
105.225323
11
12.6973618
21
105.103823
0
LINE
8
DEFAULT_255_2_778
10
12.6973618
20
105.103823
11
12.6949618
21
104.971823
0
LINE
8
DEFAULT_255_2_778
10
12.6949618
20
104.971823
11
12.6918618
21
104.834723
0
LINE
8
DEFAULT_255_2_778
10
12.6918618
20
104.834723
11
5.5665618
21
104.995323
0
LINE
8
DEFAULT_255_2_778
10
8.3261618
20
103.219723
11
8.3256618
21
103.218123
0
LINE
8
DEFAULT_255_2_778
10
8.3256618
20
103.218123
11
8.3251618
21
103.213123
0
LINE
8
DEFAULT_255_2_778
10
8.3251618
20
103.213123
11
8.3246618
21
103.204623
0
LINE
8
DEFAULT_255_2_778
10
8.3246618
20
103.204623
11
8.3243618
21
103.193023
0
LINE
8
DEFAULT_255_2_778
10
8.3243618
20
103.193023
11
8.3240618
21
103.178223
0
LINE
8
DEFAULT_255_2_778
10
8.3240618
20
103.178223
11
8.3238618
21
103.160423
0
LINE
8
DEFAULT_255_2_778
10
8.3238618
20
103.160423
11
8.3238618
21
103.116823
0
LINE
8
DEFAULT_255_2_778
10
8.3238618
20
103.116823
11
8.3238618
21
103.063623
0
LINE
8
DEFAULT_255_2_778
10
8.3238618
20
103.063623
11
8.3243618
21
103.002823
0
LINE
8
DEFAULT_255_2_778
10
8.3243618
20
103.002823
11
8.3251618
21
102.936623
0
LINE
8
DEFAULT_255_2_778
10
8.3251618
20
102.936623
11
8.3261618
21
102.868123
0
LINE
8
DEFAULT_255_2_778
10
8.3261618
20
102.868123
11
8.5198618
21
102.937123
0
LINE
8
DEFAULT_255_2_778
10
8.5198618
20
102.937123
11
8.6145618
21
102.971023
0
LINE
8
DEFAULT_255_2_778
10
8.6145618
20
102.971023
11
8.7064618
21
103.003823
0
LINE
8
DEFAULT_255_2_778
10
8.7064618
20
103.003823
11
8.7931618
21
103.035023
0
LINE
8
DEFAULT_255_2_778
10
8.7931618
20
103.035023
11
8.8336618
21
103.049623
0
LINE
8
DEFAULT_255_2_778
10
8.8336618
20
103.049623
11
8.8709618
21
103.063123
0
LINE
8
DEFAULT_255_2_778
10
8.8709618
20
103.063123
11
8.9040618
21
103.075023
0
LINE
8
DEFAULT_255_2_778
10
8.9040618
20
103.075023
11
8.9307618
21
103.084823
0
LINE
8
DEFAULT_255_2_778
10
8.9307618
20
103.084823
11
8.9410618
21
103.088523
0
LINE
8
DEFAULT_255_2_778
10
8.9410618
20
103.088523
11
8.9487618
21
103.091423
0
LINE
8
DEFAULT_255_2_778
10
8.9487618
20
103.091423
11
8.9537618
21
103.093223
0
LINE
8
DEFAULT_255_2_778
10
8.9537618
20
103.093223
11
8.9556618
21
103.094023
0
LINE
8
DEFAULT_255_2_778
10
5.5504618
20
105.358923
11
5.5512618
21
105.355723
0
LINE
8
DEFAULT_255_2_778
10
5.5512618
20
105.355723
11
5.5538618
21
105.345623
0
LINE
8
DEFAULT_255_2_778
10
5.5538618
20
105.345623
11
5.5697618
21
105.305723
0
LINE
8
DEFAULT_255_2_778
10
5.5697618
20
105.305723
11
5.5538618
21
105.293523
0
LINE
8
DEFAULT_255_2_778
10
5.5538618
20
105.293523
11
5.4604618
21
105.222923
0
LINE
8
DEFAULT_255_2_778
10
5.1800618
20
105.225323
11
5.1670618
21
105.225023
0
LINE
8
DEFAULT_255_2_778
10
5.1670618
20
105.225023
11
5.1641618
21
105.286123
0
LINE
8
DEFAULT_255_2_778
10
5.1641618
20
105.286123
11
5.1615618
21
105.342223
0
LINE
8
DEFAULT_255_2_778
10
5.1615618
20
105.342223
11
5.1580618
21
105.388023
0
LINE
8
DEFAULT_255_2_778
10
5.1580618
20
105.388023
11
5.1549618
21
105.419723
0
LINE
8
DEFAULT_255_2_778
10
5.1549618
20
105.419723
11
5.1554618
21
105.431623
0
LINE
8
DEFAULT_255_2_778
10
5.1554618
20
105.431623
11
5.1580618
21
105.435923
0
LINE
8
DEFAULT_255_2_778
10
7.1723618
20
103.902923
11
7.1744618
21
103.765823
0
LINE
8
DEFAULT_255_2_778
10
7.1744618
20
103.765823
11
7.1760618
21
103.633823
0
LINE
8
DEFAULT_255_2_778
10
7.1760618
20
103.633823
11
7.1771618
21
103.512323
0
LINE
8
DEFAULT_255_2_778
10
7.1771618
20
103.512323
11
7.1773618
21
103.406023
0
LINE
8
DEFAULT_255_2_778
10
7.1773618
20
103.406023
11
7.1773618
21
103.359723
0
LINE
8
DEFAULT_255_2_778
10
7.1773618
20
103.359723
11
7.1771618
21
103.318723
0
LINE
8
DEFAULT_255_2_778
10
7.1771618
20
103.318723
11
7.1765618
21
103.283223
0
LINE
8
DEFAULT_255_2_778
10
7.1765618
20
103.283223
11
7.1760618
21
103.253623
0
LINE
8
DEFAULT_255_2_778
10
7.1760618
20
103.253623
11
7.1752618
21
103.230323
0
LINE
8
DEFAULT_255_2_778
10
7.1752618
20
103.230323
11
7.1744618
21
103.213623
0
LINE
8
DEFAULT_255_2_778
10
7.1744618
20
103.213623
11
7.1734618
21
103.203623
0
LINE
8
DEFAULT_255_2_778
10
7.1734618
20
103.203623
11
7.1723618
21
103.200123
0
LINE
8
DEFAULT_255_2_778
10
7.1723618
20
103.200123
11
7.1718618
21
103.198523
0
LINE
8
DEFAULT_255_2_778
10
7.1718618
20
103.198523
11
7.1712618
21
103.193523
0
LINE
8
DEFAULT_255_2_778
10
7.1712618
20
103.193523
11
7.1707618
21
103.185123
0
LINE
8
DEFAULT_255_2_778
10
7.1707618
20
103.185123
11
7.1704618
21
103.173423
0
LINE
8
DEFAULT_255_2_778
10
7.1704618
20
103.173423
11
7.1702618
21
103.158623
0
LINE
8
DEFAULT_255_2_778
10
7.1702618
20
103.158623
11
7.1699618
21
103.140923
0
LINE
8
DEFAULT_255_2_778
10
7.1699618
20
103.140923
11
7.1696618
21
103.097223
0
LINE
8
DEFAULT_255_2_778
10
7.1696618
20
103.097223
11
7.1699618
21
103.044023
0
LINE
8
DEFAULT_255_2_778
10
7.1699618
20
103.044023
11
7.1704618
21
102.983223
0
LINE
8
DEFAULT_255_2_778
10
7.1704618
20
102.983223
11
7.1712618
21
102.917023
0
LINE
8
DEFAULT_255_2_778
10
7.1712618
20
102.917023
11
7.1723618
21
102.848523
0
LINE
8
DEFAULT_255_2_778
10
7.1723618
20
102.848523
11
7.1723618
21
101.398323
0
LINE
8
DEFAULT_255_2_778
10
7.1723618
20
101.398323
11
7.0916618
21
101.133723
0
LINE
8
DEFAULT_255_2_778
10
7.0916618
20
101.133723
11
7.0516618
21
101.002223
0
LINE
8
DEFAULT_255_2_778
10
7.0516618
20
101.002223
11
7.0120618
21
100.872123
0
LINE
8
DEFAULT_255_2_778
10
7.0120618
20
100.872123
11
6.9731618
21
100.744323
0
LINE
8
DEFAULT_255_2_778
10
6.9731618
20
100.744323
11
6.9543618
21
100.682123
0
LINE
8
DEFAULT_255_2_778
10
6.9543618
20
100.682123
11
6.9360618
21
100.621523
0
LINE
8
DEFAULT_255_2_778
10
6.9360618
20
100.621523
11
6.9186618
21
100.564123
0
LINE
8
DEFAULT_255_2_778
10
6.9186618
20
100.564123
11
6.9027618
21
100.512023
0
LINE
8
DEFAULT_255_2_778
10
6.9027618
20
100.512023
11
6.8958618
21
100.489523
0
LINE
8
DEFAULT_255_2_778
10
6.8958618
20
100.489523
11
6.8902618
21
100.471023
0
LINE
8
DEFAULT_255_2_778
10
6.8902618
20
100.471023
11
6.8865618
21
100.458523
0
LINE
8
DEFAULT_255_2_778
10
6.8865618
20
100.458523
11
6.8852618
21
100.454023
0
LINE
8
DEFAULT_255_2_778
10
5.5332618
20
103.598623
11
5.5332618
21
97.978323
0
LINE
8
DEFAULT_255_2_778
10
5.1665618
20
105.225523
11
5.1665618
21
97.978323
0
LINE
8
DEFAULT_255_2_778
10
4.7357618
20
97.978323
11
4.9538618
21
105.021023
0
LINE
8
DEFAULT_255_2_778
10
4.9538618
20
105.021023
11
4.7357618
21
105.027323
0
LINE
8
DEFAULT_255_2_778
10
4.7357618
20
105.027323
11
4.5175618
21
97.978623
0
LINE
8
DEFAULT_255_2_778
10
5.5329618
20
103.598923
11
5.3149618
21
103.598923
0
LINE
8
DEFAULT_255_2_778
10
5.3149618
20
103.598923
11
5.3149618
21
97.978623
0
LINE
8
DEFAULT_255_2_778
10
6.4561618
20
102.849023
11
6.4595618
21
103.023423
0
LINE
8
DEFAULT_255_2_778
10
7.1765618
20
103.903423
11
12.6960618
21
103.995723
0
LINE
8
DEFAULT_255_2_778
10
12.6960618
20
103.995723
11
13.4165618
21
103.995723
0
LINE
8
DEFAULT_255_2_778
10
13.4165618
20
103.995723
11
13.4165618
21
104.834523
0
LINE
8
DEFAULT_255_2_778
10
13.4165618
20
104.834523
11
12.6960618
21
104.834523
0
LINE
8
DEFAULT_255_2_778
10
12.6960618
20
104.834523
11
12.6960618
21
103.995723
0
LINE
8
DEFAULT_255_2_778
10
12.6960618
20
103.995723
11
12.6981618
21
103.858723
0
LINE
8
DEFAULT_255_2_778
10
12.6981618
20
103.858723
11
12.6997618
21
103.726723
0
LINE
8
DEFAULT_255_2_778
10
12.6997618
20
103.726723
11
12.7008618
21
103.605223
0
LINE
8
DEFAULT_255_2_778
10
12.7008618
20
103.605223
11
12.7010618
21
103.498823
0
LINE
8
DEFAULT_255_2_778
10
12.7010618
20
103.498823
11
12.7010618
21
103.452523
0
LINE
8
DEFAULT_255_2_778
10
12.7010618
20
103.452523
11
12.7008618
21
103.411523
0
LINE
8
DEFAULT_255_2_778
10
12.7008618
20
103.411523
11
12.7002618
21
103.376123
0
LINE
8
DEFAULT_255_2_778
10
12.7002618
20
103.376123
11
12.6997618
21
103.346423
0
LINE
8
DEFAULT_255_2_778
10
12.6997618
20
103.346423
11
12.6989618
21
103.323223
0
LINE
8
DEFAULT_255_2_778
10
12.6989618
20
103.323223
11
12.6981618
21
103.306523
0
LINE
8
DEFAULT_255_2_778
10
12.6981618
20
103.306523
11
12.6971618
21
103.296423
0
LINE
8
DEFAULT_255_2_778
10
12.6971618
20
103.296423
11
12.6960618
21
103.293023
0
LINE
8
DEFAULT_255_2_778
10
8.9551618
20
103.094623
11
6.8897618
21
100.454623
0
LINE
8
DEFAULT_255_2_778
10
6.4561618
20
97.978823
11
6.4561618
21
102.848823
0
LINE
8
DEFAULT_255_2_778
10
6.4561618
20
102.848823
11
7.1765618
21
102.848823
0
LINE
8
DEFAULT_255_2_778
10
7.1765618
20
102.848823
11
8.3259618
21
102.868123
0
LINE
8
DEFAULT_255_2_778
10
8.3259618
20
102.868123
11
7.1765618
21
101.398823
0
LINE
8
DEFAULT_255_2_778
10
7.1765618
20
101.398823
11
6.8162618
21
101.398823
0
LINE
8
DEFAULT_255_2_778
10
12.7005618
20
105.537523
11
10.3539618
21
105.590123
0
LINE
8
DEFAULT_255_2_778
10
10.3539618
20
105.590123
11
7.9012618
21
105.645423
0
LINE
8
DEFAULT_255_2_778
10
7.9012618
20
105.645423
11
5.5837618
21
105.697823
0
LINE
8
DEFAULT_255_2_778
10
5.5837618
20
105.697823
11
5.5332618
21
102.926823
0
LINE
8
DEFAULT_255_2_778
10
5.4215618
20
105.434523
11
5.4218618
21
105.433523
0
LINE
8
DEFAULT_255_2_778
10
5.4218618
20
105.433523
11
5.4223618
21
105.430323
0
LINE
8
DEFAULT_255_2_778
10
5.4223618
20
105.430323
11
5.4231618
21
105.425323
0
LINE
8
DEFAULT_255_2_778
10
5.4231618
20
105.425323
11
5.4242618
21
105.418123
0
LINE
8
DEFAULT_255_2_778
10
5.4242618
20
105.418123
11
5.4255618
21
105.409123
0
LINE
8
DEFAULT_255_2_778
10
5.4255618
20
105.409123
11
5.4271618
21
105.398323
0
LINE
8
DEFAULT_255_2_778
10
5.4271618
20
105.398323
11
5.4311618
21
105.371823
0
LINE
8
DEFAULT_255_2_778
10
5.4311618
20
105.371823
11
5.4361618
21
105.339623
0
LINE
8
DEFAULT_255_2_778
10
5.4361618
20
105.339623
11
5.4427618
21
105.303023
0
LINE
8
DEFAULT_255_2_778
10
5.4427618
20
105.303023
11
5.4509618
21
105.263623
0
LINE
8
DEFAULT_255_2_778
10
5.4509618
20
105.263623
11
5.4607618
21
105.223123
0
LINE
8
DEFAULT_255_2_778
10
5.4607618
20
105.223123
11
5.1800618
21
105.225523
0
LINE
8
DEFAULT_255_2_778
10
5.1800618
20
105.225523
11
5.1808618
21
105.374723
0
LINE
8
DEFAULT_255_2_778
10
5.1808618
20
105.374723
11
5.1808618
21
105.400923
0
LINE
8
DEFAULT_255_2_778
10
5.1808618
20
105.400923
11
5.1808618
21
105.411523
0
LINE
8
DEFAULT_255_2_778
10
5.1808618
20
105.411523
11
5.1808618
21
105.420323
0
LINE
8
DEFAULT_255_2_778
10
5.1808618
20
105.420323
11
5.1808618
21
105.427123
0
LINE
8
DEFAULT_255_2_778
10
5.1808618
20
105.427123
11
5.1808618
21
105.432223
0
LINE
8
DEFAULT_255_2_778
10
5.1808618
20
105.432223
11
5.1805618
21
105.435323
0
LINE
8
DEFAULT_255_2_778
10
5.1805618
20
105.435323
11
5.1802618
21
105.436423
0
LINE
8
DEFAULT_255_2_778
10
5.5750618
20
105.327123
11
5.5509618
21
105.359123
0
LINE
8
DEFAULT_255_2_778
10
5.4223618
20
105.434323
11
5.1802618
21
105.436423
0
LINE
8
DEFAULT_255_2_778
10
5.1802618
20
105.436423
11
5.1720618
21
105.436423
0
LINE
8
DEFAULT_255_2_778
10
1.9137618
20
42.365323
11
1.8838618
21
42.402623
0
LINE
8
DEFAULT_255_2_778
10
1.8838618
20
42.402623
11
1.8711618
21
42.418523
0
LINE
8
DEFAULT_255_2_778
10
1.8711618
20
42.418523
11
1.8603618
21
42.432023
0
LINE
8
DEFAULT_255_2_778
10
1.8603618
20
42.432023
11
1.8518618
21
42.442823
0
LINE
8
DEFAULT_255_2_778
10
1.8518618
20
42.442823
11
1.8457618
21
42.451023
0
LINE
8
DEFAULT_255_2_778
10
1.8457618
20
42.451023
11
1.8420618
21
42.456023
0
LINE
8
DEFAULT_255_2_778
10
1.8420618
20
42.456023
11
1.8409618
21
42.457923
0
LINE
8
DEFAULT_255_2_778
10
4.9741618
20
42.495723
11
4.3778618
21
42.495723
0
LINE
8
DEFAULT_255_2_778
10
4.2325618
20
42.617423
11
4.0476618
21
43.918423
0
LINE
8
DEFAULT_255_2_778
10
4.0476618
20
43.918423
11
3.8340618
21
43.914723
0
LINE
8
DEFAULT_255_2_778
10
3.7457618
20
43.663923
11
2.0097618
21
42.363723
0
LINE
8
DEFAULT_255_2_778
10
3.7462618
20
43.885123
11
1.8409618
21
42.457923
0
LINE
8
DEFAULT_255_2_778
10
1.1054618
20
31.596723
11
1.1541618
21
31.643323
0
LINE
8
DEFAULT_255_2_778
10
1.1541618
20
31.643323
11
1.2530618
21
31.737523
0
LINE
8
DEFAULT_255_2_778
10
1.3147618
20
34.028323
11
1.2544618
21
34.200823
0
LINE
8
DEFAULT_255_2_778
10
1.2544618
20
34.200823
11
2.4550618
21
34.201023
0
LINE
8
DEFAULT_255_2_778
10
2.4550618
20
34.341523
11
2.4550618
21
34.201023
0
LINE
8
DEFAULT_255_2_778
10
2.4550618
20
34.201023
11
2.3855618
21
34.134423
0
LINE
8
DEFAULT_255_2_778
10
1.1059618
20
34.341823
11
1.1544618
21
34.295523
0
LINE
8
DEFAULT_255_2_778
10
1.1544618
20
34.295523
11
1.2525618
21
34.201323
0
LINE
8
DEFAULT_255_2_778
10
2.4550618
20
31.597023
11
1.1057618
21
31.597023
0
LINE
8
DEFAULT_255_2_778
10
1.1057618
20
34.341823
11
2.4548618
21
34.341823
0
LINE
8
DEFAULT_255_2_778
10
2.6622618
20
34.259523
11
2.5588618
21
34.160323
0
LINE
8
DEFAULT_255_2_778
10
2.6014618
20
34.060823
11
2.7479618
21
34.060823
0
LINE
8
DEFAULT_255_2_778
10
2.7479618
20
34.060823
11
2.7479618
21
31.878023
0
LINE
8
DEFAULT_255_2_778
10
2.7479618
20
31.878023
11
2.6014618
21
31.878023
0
LINE
8
DEFAULT_255_2_778
10
2.6014618
20
31.878023
11
2.6014618
21
34.060823
0
LINE
8
DEFAULT_255_2_778
10
2.6014618
20
34.060823
11
2.5318618
21
33.994123
0
LINE
8
DEFAULT_255_2_778
10
2.5318618
20
33.994123
11
2.5318618
21
31.944723
0
LINE
8
DEFAULT_255_2_778
10
2.5318618
20
31.944723
11
2.6014618
21
31.878023
0
LINE
8
DEFAULT_255_2_778
10
2.4550618
20
31.737523
11
1.2533618
21
31.737823
0
LINE
8
DEFAULT_255_2_778
10
1.2533618
20
31.737823
11
1.2940618
21
31.850223
0
LINE
8
DEFAULT_255_2_778
10
1.2940618
20
31.850223
11
1.3168618
21
31.914823
0
LINE
8
DEFAULT_255_2_778
10
1.3168618
20
31.914823
11
1.3168618
21
34.024023
0
LINE
8
DEFAULT_255_2_778
10
36.9490618
20
12.632523
11
25.8924618
21
12.632523
0
LINE
8
DEFAULT_255_2_778
10
36.9948618
20
12.682223
11
25.8463618
21
12.682223
0
LINE
8
DEFAULT_255_2_778
10
1.8412618
20
67.037723
11
4.0124618
21
65.411523
0
LINE
8
DEFAULT_255_2_778
10
4.0124618
20
65.411523
11
4.2325618
21
65.411523
0
LINE
8
DEFAULT_255_2_778
10
4.2325618
20
65.411523
11
4.4005618
21
67.236423
0
LINE
8
DEFAULT_255_2_778
10
4.2185618
20
67.236423
11
4.2185618
21
65.420523
0
LINE
8
DEFAULT_255_2_778
10
4.2185618
20
65.420523
11
4.2185618
21
65.411523
0
LINE
8
DEFAULT_255_2_778
10
6.9096618
20
98.040223
11
6.8167618
21
98.040223
0
LINE
8
DEFAULT_255_2_778
10
0.8030618
20
67.239323
11
1.1057618
21
67.236423
0
LINE
8
DEFAULT_255_2_778
10
1.1057618
20
67.236423
11
4.9744618
21
67.236423
0
LINE
8
DEFAULT_255_2_778
10
4.9744618
20
67.236423
11
4.9744618
21
63.240923
0
LINE
8
DEFAULT_255_2_778
10
4.9744618
20
63.240923
11
4.4251618
21
62.714423
0
LINE
8
DEFAULT_255_2_778
10
4.3714618
20
62.590023
11
4.3717618
21
47.010623
0
LINE
8
DEFAULT_255_2_778
10
4.8090618
20
63.082223
11
4.5532618
21
63.082223
0
LINE
8
DEFAULT_255_2_778
10
4.5532618
20
63.082223
11
4.2013618
21
62.745323
0
LINE
8
DEFAULT_255_2_778
10
4.2013618
20
62.745323
11
4.2013618
21
46.855523
0
LINE
8
DEFAULT_255_2_778
10
4.2013618
20
46.855523
11
4.5532618
21
46.518723
0
LINE
8
DEFAULT_255_2_778
10
4.5532618
20
46.518723
11
4.8090618
21
46.518723
0
LINE
8
DEFAULT_255_2_778
10
69.4076618
20
96.918423
11
76.4201618
21
96.918423
0
LINE
8
DEFAULT_255_2_778
10
76.4201618
20
96.918423
11
76.4201618
21
81.426223
0
LINE
8
DEFAULT_255_2_778
10
76.4201618
20
81.426223
11
77.0575618
21
81.426223
0
LINE
8
DEFAULT_255_2_778
10
77.0575618
20
81.426223
11
77.0575618
21
77.794623
0
LINE
8
DEFAULT_255_2_778
10
77.0575618
20
77.794623
11
77.2774618
21
77.794623
0
LINE
8
DEFAULT_255_2_778
10
77.2774618
20
77.794623
11
77.2774618
21
81.422523
0
LINE
8
DEFAULT_255_2_778
10
77.2774618
20
81.422523
11
77.4427618
21
81.264123
0
LINE
8
DEFAULT_255_2_778
10
77.4427618
20
81.264123
11
77.4427618
21
76.800523
0
LINE
8
DEFAULT_255_2_778
10
77.4427618
20
76.800523
11
77.2795618
21
76.811423
0
LINE
8
DEFAULT_255_2_778
10
77.2795618
20
76.811423
11
77.2766618
21
76.764623
0
LINE
8
DEFAULT_255_2_778
10
77.2766618
20
76.764623
11
77.2747618
21
76.782523
0
LINE
8
DEFAULT_255_2_778
10
77.2747618
20
76.782523
11
77.2781618
21
76.797123
0
LINE
8
DEFAULT_255_2_778
10
77.2781618
20
76.797123
11
77.2795618
21
76.811723
0
LINE
8
DEFAULT_255_2_778
10
77.2795618
20
76.811723
11
77.2779618
21
77.142923
0
LINE
8
DEFAULT_255_2_778
10
77.2779618
20
77.142923
11
77.2774618
21
77.794823
0
LINE
8
DEFAULT_255_2_778
10
3.7084618
20
11.905923
11
3.0048618
21
12.580323
0
LINE
8
DEFAULT_255_2_778
10
2.7419618
20
12.683823
11
1.1057618
21
12.683823
0
LINE
8
DEFAULT_255_2_778
10
1.1057618
20
12.683823
11
1.1057618
21
42.363723
0
LINE
8
DEFAULT_255_2_778
10
43.5657618
20
8.607123
11
0.2164618
21
8.607123
0
LINE
8
DEFAULT_255_2_778
10
21.1545618
20
12.681923
11
13.6324618
21
12.681923
0
LINE
8
DEFAULT_255_2_778
10
11.0011618
20
12.682223
11
7.4393618
21
12.682223
0
LINE
8
DEFAULT_255_2_778
10
46.7690618
20
12.682223
11
41.5956618
21
12.682223
0
LINE
8
DEFAULT_255_2_778
10
41.4919618
20
12.640923
11
40.7257618
21
11.906223
0
LINE
8
DEFAULT_255_2_778
10
37.9563618
20
11.905923
11
37.2546618
21
12.579023
0
LINE
8
DEFAULT_255_2_778
10
40.7723618
20
11.032323
11
37.8550618
21
11.032323
0
LINE
8
DEFAULT_255_2_778
10
40.7561618
20
11.934823
11
40.7715618
21
11.014323
0
LINE
8
DEFAULT_255_2_778
10
40.7715618
20
11.014323
11
37.8555618
21
11.014323
0
LINE
8
DEFAULT_255_2_778
10
37.8555618
20
11.014323
11
37.8719618
21
11.987123
0
LINE
8
DEFAULT_255_2_778
10
40.4667618
20
11.803323
11
38.2156618
21
11.803323
0
LINE
8
DEFAULT_255_2_778
10
40.7596618
20
11.733423
11
41.4290618
21
12.376123
0
LINE
8
DEFAULT_255_2_778
10
41.4290618
20
12.376123
11
41.4398618
21
12.351223
0
LINE
8
DEFAULT_255_2_778
10
41.4398618
20
12.351223
11
40.7588618
21
11.698523
0
LINE
8
DEFAULT_255_2_778
10
37.8687618
20
11.750923
11
36.9490618
21
12.632723
0
LINE
8
DEFAULT_255_2_778
10
36.9490618
20
12.632723
11
36.9599618
21
12.657923
0
LINE
8
DEFAULT_255_2_778
10
36.9599618
20
12.657923
11
37.8679618
21
11.786123
0
LINE
8
DEFAULT_255_2_778
10
51.7882618
20
5.874023
11
56.3319618
21
11.428623
0
LINE
8
DEFAULT_255_2_778
10
56.6121618
20
11.560423
11
67.7330618
21
11.560423
0
LINE
8
DEFAULT_255_2_778
10
67.7330618
20
11.560423
11
67.9378618
21
11.937923
0
LINE
8
DEFAULT_255_2_778
10
77.3678618
20
81.608523
11
76.6320618
21
81.596123
0
LINE
8
DEFAULT_255_2_778
10
76.6320618
20
81.596123
11
76.6320618
21
98.006423
0
LINE
8
DEFAULT_255_2_778
10
76.6320618
20
98.006423
11
77.3678618
21
97.993923
0
LINE
8
DEFAULT_255_2_778
10
77.5120618
20
97.853423
11
77.5120618
21
81.749023
0
LINE
8
DEFAULT_255_2_778
10
77.3678618
20
81.608523
11
77.3681618
21
81.609323
0
LINE
8
DEFAULT_255_2_778
10
77.3681618
20
81.609323
11
77.3681618
21
81.612023
0
LINE
8
DEFAULT_255_2_778
10
77.3681618
20
81.612023
11
77.3684618
21
81.616223
0
LINE
8
DEFAULT_255_2_778
10
77.3684618
20
81.616223
11
77.3686618
21
81.622023
0
LINE
8
DEFAULT_255_2_778
10
77.3686618
20
81.622023
11
77.3686618
21
81.629423
0
LINE
8
DEFAULT_255_2_778
10
77.3686618
20
81.629423
11
77.3686618
21
81.638423
0
LINE
8
DEFAULT_255_2_778
10
77.3686618
20
81.638423
11
77.3686618
21
81.660423
0
LINE
8
DEFAULT_255_2_778
10
77.3686618
20
81.660423
11
77.3686618
21
81.687123
0
LINE
8
DEFAULT_255_2_778
10
77.3686618
20
81.687123
11
77.3686618
21
81.717623
0
LINE
8
DEFAULT_255_2_778
10
77.3686618
20
81.717623
11
77.3684618
21
81.750623
0
LINE
8
DEFAULT_255_2_778
10
77.3684618
20
81.750623
11
77.3678618
21
81.784823
0
LINE
8
DEFAULT_255_2_778
10
77.3678618
20
81.784823
11
77.3678618
21
97.818223
0
LINE
8
DEFAULT_255_2_778
10
77.3678618
20
97.818223
11
77.3684618
21
97.852423
0
LINE
8
DEFAULT_255_2_778
10
77.3684618
20
97.852423
11
77.3686618
21
97.885423
0
LINE
8
DEFAULT_255_2_778
10
77.3686618
20
97.885423
11
77.3686618
21
97.915923
0
LINE
8
DEFAULT_255_2_778
10
77.3686618
20
97.915923
11
77.3686618
21
97.942623
0
LINE
8
DEFAULT_255_2_778
10
77.3686618
20
97.942623
11
77.3686618
21
97.964623
0
LINE
8
DEFAULT_255_2_778
10
77.3686618
20
97.964623
11
77.3686618
21
97.973623
0
LINE
8
DEFAULT_255_2_778
10
77.3686618
20
97.973623
11
77.3686618
21
97.981023
0
LINE
8
DEFAULT_255_2_778
10
77.3686618
20
97.981023
11
77.3684618
21
97.986823
0
LINE
8
DEFAULT_255_2_778
10
77.3684618
20
97.986823
11
77.3681618
21
97.991023
0
LINE
8
DEFAULT_255_2_778
10
77.3681618
20
97.991023
11
77.3681618
21
97.993723
0
LINE
8
DEFAULT_255_2_778
10
77.3681618
20
97.993723
11
77.3678618
21
97.994523
0
LINE
8
DEFAULT_255_2_778
10
76.5535618
20
98.040823
11
76.5535618
21
96.746423
0
LINE
8
DEFAULT_255_2_778
10
76.3436618
20
96.918923
11
76.3436618
21
97.199423
0
LINE
8
DEFAULT_255_2_778
10
1.8409618
20
67.037723
11
1.8415618
21
67.038523
0
LINE
8
DEFAULT_255_2_778
10
1.8415618
20
67.038523
11
1.8431618
21
67.040623
0
LINE
8
DEFAULT_255_2_778
10
1.8431618
20
67.040623
11
1.8457618
21
67.044023
0
LINE
8
DEFAULT_255_2_778
10
1.8457618
20
67.044023
11
1.8494618
21
67.048523
0
LINE
8
DEFAULT_255_2_778
10
1.8494618
20
67.048523
11
1.8539618
21
67.054323
0
LINE
8
DEFAULT_255_2_778
10
1.8539618
20
67.054323
11
1.8595618
21
67.061223
0
LINE
8
DEFAULT_255_2_778
10
1.8595618
20
67.061223
11
1.8732618
21
67.078423
0
LINE
8
DEFAULT_255_2_778
10
1.8732618
20
67.078423
11
1.8902618
21
67.099323
0
LINE
8
DEFAULT_255_2_778
10
1.8902618
20
67.099323
11
1.9095618
21
67.123123
0
LINE
8
DEFAULT_255_2_778
10
1.9095618
20
67.123123
11
1.9306618
21
67.149123
0
LINE
8
DEFAULT_255_2_778
10
1.9306618
20
67.149123
11
1.9526618
21
67.176123
0
LINE
8
DEFAULT_255_2_778
10
1.9526618
20
67.176123
11
4.2182618
21
65.479023
0
LINE
8
DEFAULT_255_2_778
10
0.8030618
20
42.361123
11
1.1057618
21
42.364023
0
LINE
8
DEFAULT_255_2_778
10
1.1057618
20
42.364023
11
4.9744618
21
42.364023
0
LINE
8
DEFAULT_255_2_778
10
4.9744618
20
42.364023
11
4.9744618
21
46.301223
0
LINE
8
DEFAULT_255_2_778
10
4.9313618
20
46.400723
11
4.4249618
21
46.886223
0
LINE
8
DEFAULT_255_2_778
10
18.0824618
20
12.657323
11
21.1193618
21
12.657323
0
LINE
8
DEFAULT_255_2_778
10
21.1193618
20
12.657323
11
21.1084618
21
12.632223
0
LINE
8
DEFAULT_255_2_778
10
21.1084618
20
12.632223
11
13.3323618
21
12.632223
0
LINE
8
DEFAULT_255_2_778
10
11.3009618
20
12.632223
11
7.4853618
21
12.632223
0
LINE
8
DEFAULT_255_2_778
10
7.4853618
20
12.632223
11
6.5619618
21
11.746923
0
LINE
8
DEFAULT_255_2_778
10
77.4385618
20
76.746323
11
67.9376618
21
11.933423
0
LINE
8
DEFAULT_255_2_778
10
67.9376618
20
11.933423
11
67.7960618
21
12.089523
0
LINE
8
DEFAULT_255_2_778
10
67.7960618
20
12.089523
11
77.2774618
21
76.768023
0
LINE
8
DEFAULT_255_2_778
10
77.2774618
20
76.768023
11
77.4385618
21
76.746323
0
LINE
8
DEFAULT_255_2_778
10
0.2164618
20
10.153923
11
3.1498618
21
9.450923
0
LINE
8
DEFAULT_255_2_778
10
3.1498618
20
9.450923
11
43.7655618
21
9.450923
0
LINE
8
DEFAULT_255_2_778
10
43.7655618
20
9.450923
11
46.5169618
21
10.202823
0
LINE
8
DEFAULT_255_2_778
10
46.5169618
20
10.202823
11
46.4386618
21
12.350923
0
LINE
8
DEFAULT_255_2_778
10
46.4386618
20
12.350923
11
46.5992618
21
12.681923
0
LINE
8
DEFAULT_255_2_778
10
0.2164618
20
12.632223
11
2.7011618
21
12.632223
0
LINE
8
DEFAULT_255_2_778
10
2.7011618
20
12.632223
11
2.7117618
21
12.656823
0
LINE
8
DEFAULT_255_2_778
10
2.7117618
20
12.656823
11
0.2164618
21
12.656823
0
LINE
8
DEFAULT_255_2_778
10
12.6963618
20
103.292723
11
7.1768618
21
103.200423
0
LINE
8
DEFAULT_255_2_778
10
6.8164618
20
102.849023
11
6.8164618
21
96.918723
0
LINE
8
DEFAULT_255_2_778
10
1.8886618
20
97.978323
11
1.8886618
21
98.040023
0
LINE
8
DEFAULT_255_2_778
10
1.7563618
20
67.236123
11
1.7563618
21
67.203623
0
LINE
8
DEFAULT_255_2_778
10
1.7563618
20
67.203623
11
1.9380618
21
67.203623
0
LINE
8
DEFAULT_255_2_778
10
1.9380618
20
67.203623
11
1.9380618
21
67.236123
0
LINE
8
DEFAULT_255_2_778
10
1.1054618
20
67.236423
11
1.1054618
21
97.978323
0
LINE
8
DEFAULT_255_2_778
10
0.8046618
20
42.362623
11
0.2220618
21
42.033823
0
LINE
8
DEFAULT_255_2_778
10
0.2220618
20
42.033823
11
0.2220618
21
12.686723
0
LINE
8
DEFAULT_255_2_778
10
0.2220618
20
12.686723
11
1.1054618
21
12.683323
0
LINE
8
DEFAULT_255_2_778
10
0.2164618
20
12.694623
11
0.2164618
21
8.255723
0
LINE
8
DEFAULT_255_2_778
10
0.2164618
20
8.255723
11
43.8110618
21
8.255723
0
LINE
8
DEFAULT_255_2_778
10
17.1944618
20
96.918423
11
13.6324618
21
96.918423
0
LINE
8
DEFAULT_255_2_778
10
11.1402618
20
96.918723
11
6.7466618
21
96.918723
0
LINE
8
DEFAULT_255_2_778
10
6.7466618
20
96.918723
11
6.7466618
21
97.908523
0
LINE
8
DEFAULT_255_2_778
10
6.6733618
20
97.978623
11
1.1057618
21
97.978623
0
LINE
8
DEFAULT_255_2_778
10
1.1057618
20
97.978623
11
0.3675618
21
97.971423
0
LINE
8
DEFAULT_255_2_778
10
0.2225618
20
97.829423
11
0.2225618
21
67.566623
0
LINE
8
DEFAULT_255_2_778
10
0.2225618
20
67.566623
11
0.8048618
21
67.238023
0
LINE
8
DEFAULT_255_2_778
10
22.2803618
20
96.948023
11
22.2348618
21
96.947023
0
LINE
8
DEFAULT_255_2_778
10
22.2348618
20
96.947023
11
22.2009618
21
96.945923
0
LINE
8
DEFAULT_255_2_778
10
22.2009618
20
96.945923
11
22.1887618
21
96.945423
0
LINE
8
DEFAULT_255_2_778
10
22.1887618
20
96.945423
11
22.1800618
21
96.944923
0
LINE
8
DEFAULT_255_2_778
10
22.1800618
20
96.944923
11
22.1747618
21
96.944323
0
LINE
8
DEFAULT_255_2_778
10
22.1747618
20
96.944323
11
22.1728618
21
96.943823
0
LINE
8
DEFAULT_255_2_778
10
22.1728618
20
96.943823
11
22.1728618
21
96.942723
0
LINE
8
DEFAULT_255_2_778
10
22.1728618
20
96.942723
11
21.9228618
21
96.942723
0
LINE
8
DEFAULT_255_2_778
10
21.9228618
20
96.942723
11
21.9339618
21
96.968423
0
LINE
8
DEFAULT_255_2_778
10
21.9339618
20
96.968423
11
40.9075618
21
96.968423
0
LINE
8
DEFAULT_255_2_778
10
40.9075618
20
96.968423
11
41.8073618
21
97.830223
0
LINE
8
DEFAULT_255_2_778
10
44.7945618
20
97.830223
11
45.6943618
21
96.968423
0
LINE
8
DEFAULT_255_2_778
10
45.6943618
20
96.968423
11
64.6678618
21
96.968423
0
LINE
8
DEFAULT_255_2_778
10
64.6678618
20
96.968423
11
64.6790618
21
96.942723
0
LINE
8
DEFAULT_255_2_778
10
64.6790618
20
96.942723
11
64.4289618
21
96.942723
0
LINE
8
DEFAULT_255_2_778
10
18.0612618
20
98.586123
11
18.0612618
21
97.843923
0
LINE
8
DEFAULT_255_2_778
10
18.0612618
20
97.843923
11
17.1995618
21
97.018723
0
LINE
8
DEFAULT_255_2_778
10
17.1995618
20
97.018723
11
13.3321618
21
97.018723
0
LINE
8
DEFAULT_255_2_778
10
11.3358618
20
97.238323
11
6.8947618
21
97.238323
0
LINE
8
DEFAULT_255_2_778
10
6.8947618
20
97.238323
11
6.8947618
21
97.255523
0
LINE
8
DEFAULT_255_2_778
10
77.5118618
20
97.818223
11
77.3676618
21
97.818223
0
LINE
8
DEFAULT_255_2_778
10
77.3676618
20
97.818223
11
76.6318618
21
97.830723
0
LINE
8
DEFAULT_255_2_778
10
4.5304618
20
98.391923
11
0.2164618
21
98.391923
0
LINE
8
DEFAULT_255_2_778
10
6.9159618
20
98.391923
11
6.8167618
21
98.391923
0
LINE
8
DEFAULT_255_2_778
10
76.4201618
20
96.536923
11
76.6320618
21
96.537423
0
LINE
8
DEFAULT_255_2_778
10
76.4519618
20
96.713123
11
76.4201618
21
96.712623
0
LINE
8
DEFAULT_255_2_778
10
68.4911618
20
97.891323
11
69.1732618
21
97.238023
0
LINE
8
DEFAULT_255_2_778
10
69.1732618
20
97.238023
11
76.3230618
21
97.238023
0
LINE
8
DEFAULT_255_2_778
10
76.3230618
20
97.238023
11
76.3434618
21
97.198923
0
LINE
8
DEFAULT_255_2_778
10
76.3434618
20
97.198923
11
75.2792618
21
97.198923
0
LINE
8
DEFAULT_255_2_778
10
75.2792618
20
97.198923
11
75.1385618
21
96.918423
0
LINE
8
DEFAULT_255_2_778
10
7.3117618
20
100.993223
11
77.4472618
21
100.993223
0
LINE
8
DEFAULT_255_2_778
10
77.4472618
20
100.993223
11
77.4472618
21
98.040223
0
LINE
8
DEFAULT_255_2_778
10
77.4472618
20
98.040223
11
77.2046618
21
98.040223
0
LINE
8
DEFAULT_255_2_778
10
77.2046618
20
98.040223
11
77.2046618
21
99.496823
0
LINE
8
DEFAULT_255_2_778
10
0.2164618
20
100.993223
11
4.6109618
21
100.993223
0
LINE
8
DEFAULT_255_2_778
10
4.6217618
20
101.344923
11
0.2164618
21
101.344923
0
LINE
8
DEFAULT_255_2_778
10
0.2164618
20
101.344923
11
0.2164618
21
97.829423
0
LINE
8
DEFAULT_255_2_778
10
77.4499618
20
100.983223
11
77.4446618
21
101.344923
0
LINE
8
DEFAULT_255_2_778
10
77.4446618
20
101.344923
11
7.5866618
21
101.344923
0
LINE
8
DEFAULT_255_2_778
10
76.3230618
20
97.238323
11
76.3230618
21
98.040223
0
LINE
8
DEFAULT_255_2_778
10
76.3230618
20
98.040223
11
77.1855618
21
98.040223
0
LINE
8
DEFAULT_255_2_778
10
77.1855618
20
98.040223
11
77.1855618
21
99.501323
0
LINE
8
DEFAULT_255_2_778
10
77.1855618
20
99.501323
11
74.4812618
21
100.149523
0
LINE
8
DEFAULT_255_2_778
10
74.4812618
20
100.149523
11
9.8234618
21
100.149523
0
LINE
8
DEFAULT_255_2_778
10
9.8234618
20
100.149523
11
6.9352618
21
99.457323
0
LINE
8
DEFAULT_255_2_778
10
6.9352618
20
99.457323
11
6.8947618
21
97.238323
0
ENDSEC
0
EOF