0
SECTION
2
HEADER
9
$MEASUREMENT
70
1
0
ENDSEC
0
SECTION
2
TABLES
0
TABLE
2
LTYPE
0
LTYPE
72
65
70
64
2
CONTINUOUS
3
______
73
0
40
0
0
ENDTAB
0
TABLE
2
LAYER
0
LAYER
2
DEFAULT_255_2_778
70
0
62
255
6
CONTINUOUS
0
LAYER
2
DEFAULT_255_1_388
70
0
62
255
6
CONTINUOUS
0
ENDTAB
0
ENDSEC
0
SECTION
2
ENTITIES
0
ARC
8
DEFAULT_255_2_778
10
3.5700693
20
139.3052021
40
0.7914215
50
129.1312896
51
180.1450914
0
ARC
8
DEFAULT_255_2_778
10
3.5703345
20
139.3056893
40
0.7912112
50
89.854026
51
129.1684493
0
ARC
8
DEFAULT_255_2_778
10
25.7993937
20
139.3053758
40
0.7915249
50
39.4792447
51
90.147911
0
ARC
8
DEFAULT_255_2_778
10
25.7999935
20
139.3052224
40
0.7911595
50
359.8533901
51
39.5154338
0
ARC
8
DEFAULT_255_2_778
10
25.7996693
20
-1.9863501
40
0.7914836
50
309.4761667
51
0.1482649
0
ARC
8
DEFAULT_255_2_778
10
25.799398
20
-1.9867812
40
0.7913235
50
269.8517415
51
309.511178
0
ARC
8
DEFAULT_255_2_778
10
3.570342
20
-1.986723
40
0.7913815
50
219.1282118
51
270.1454017
0
ARC
8
DEFAULT_255_2_778
10
3.5700247
20
-1.9863406
40
0.7913769
50
179.8524075
51
219.1641908
0
LINE
8
DEFAULT_255_2_778
10
3.5723503
20
140.096898
11
25.7973503
21
140.096898
0
LINE
8
DEFAULT_255_2_778
10
26.5911503
20
139.303198
11
26.5911503
21
-1.984302
0
LINE
8
DEFAULT_255_2_778
10
25.7973503
20
-2.778102
11
3.5723503
21
-2.778102
0
LINE
8
DEFAULT_255_2_778
10
2.7786503
20
-1.984302
11
2.7786503
21
139.303198
0
LINE
8
DEFAULT_255_1_388
10
9.7695618
20
-0.0145334
11
9.6358343
21
0.0198021
0
LINE
8
DEFAULT_255_1_388
10
9.6358343
20
0.0198021
11
9.702698
21
0.6757898
0
LINE
8
DEFAULT_255_1_388
10
9.702698
20
0.6757898
11
10.3767571
21
0.6757898
0
LINE
8
DEFAULT_255_1_388
10
10.3767571
20
0.6757898
11
10.3767571
21
0.5212803
0
LINE
8
DEFAULT_255_1_388
10
10.3767571
20
0.5212803
11
9.8445577
21
0.5212803
0
LINE
8
DEFAULT_255_1_388
10
9.8445577
20
0.5212803
11
9.8048008
21
0.1625652
0
LINE
8
DEFAULT_255_1_388
10
9.5888489
20
-0.2937348
11
9.7469727
21
-0.2937348
0
LINE
8
DEFAULT_255_1_388
10
9.8138365
20
0.0216092
11
9.7695618
21
-0.0145334
0
ARC
8
DEFAULT_255_1_388
10
10.0134622
20
-0.1951759
40
0.4141476
50
93.7181681
51
120.253934
0
ARC
8
DEFAULT_255_1_388
10
10.0240674
20
-0.2860716
40
0.5055616
50
89.9660471
51
94.2495185
0
ARC
8
DEFAULT_255_1_388
10
10.0286496
20
-0.2197846
40
0.4392953
50
73.8045384
51
90.5585736
0
ARC
8
DEFAULT_255_1_388
10
10.0550754
20
-0.123248
40
0.3392225
50
41.3071072
51
73.543002
0
ARC
8
DEFAULT_255_1_388
10
10.0082574
20
-0.1635539
40
0.4009977
50
13.5075837
51
41.2174839
0
ARC
8
DEFAULT_255_1_388
10
9.8235671
20
-0.2119093
40
0.5918864
50
1.1330171
51
13.8830737
0
ARC
8
DEFAULT_255_1_388
10
9.6639317
20
-0.2204478
40
0.7516787
50
359.9925091
51
1.5431298
0
ARC
8
DEFAULT_255_1_388
10
9.8083932
20
-0.2250973
40
0.6072343
50
347.8572712
51
0.4294349
0
ARC
8
DEFAULT_255_1_388
10
10.0053066
20
-0.2697102
40
0.4053482
50
323.6727442
51
348.1674594
0
ARC
8
DEFAULT_255_1_388
10
10.0384031
20
-0.2898825
40
0.3667495
50
316.8171818
51
323.1486802
0
ARC
8
DEFAULT_255_1_388
10
10.0453155
20
-0.2940388
40
0.358869
50
281.839603
51
316.5458142
0
ARC
8
DEFAULT_255_1_388
10
10.0030442
20
-0.1190637
40
0.5388223
50
269.5770964
51
282.4214641
0
ARC
8
DEFAULT_255_1_388
10
9.9950363
20
-0.143107
40
0.5147801
50
256.2425863
51
270.4486481
0
ARC
8
DEFAULT_255_1_388
10
9.9613891
20
-0.2780876
40
0.3756708
50
228.9024379
51
256.33135
0
ARC
8
DEFAULT_255_1_388
10
9.9530871
20
-0.2911946
40
0.360344
50
193.7536029
51
228.5272638
0
ARC
8
DEFAULT_255_1_388
10
10.0923436
20
-0.2503537
40
0.5053599
50
184.9244437
51
194.4976052
0
ARC
8
DEFAULT_255_1_388
10
10.1140077
20
-0.2463278
40
0.3700839
50
187.3596909
51
198.6733728
0
ARC
8
DEFAULT_255_1_388
10
9.9959321
20
-0.2872627
40
0.2451195
50
198.4453795
51
217.7945479
0
ARC
8
DEFAULT_255_1_388
10
9.9626493
20
-0.3108437
40
0.2043754
50
218.2887146
51
228.5613203
0
ARC
8
DEFAULT_255_1_388
10
9.97365
20
-0.2960098
40
0.2227819
50
228.9652423
51
258.1237049
0
ARC
8
DEFAULT_255_1_388
10
9.9967937
20
-0.1969036
40
0.3245374
50
257.7260585
51
270.4013717
0
ARC
8
DEFAULT_255_1_388
10
10.0018435
20
-0.2469745
40
0.2744726
50
269.4204315
51
286.420998
0
ARC
8
DEFAULT_255_1_388
10
10.0185491
20
-0.3076295
40
0.2115721
50
286.7250065
51
320.6004665
0
ARC
8
DEFAULT_255_1_388
10
9.9754407
20
-0.2726473
40
0.2670878
50
320.6712228
51
344.5440474
0
ARC
8
DEFAULT_255_1_388
10
9.845312
20
-0.2344606
40
0.4026927
50
344.241448
51
356.735803
0
ARC
8
DEFAULT_255_1_388
10
9.7049428
20
-0.2228344
40
0.5435085
50
356.3547471
51
0.0507222
0
ARC
8
DEFAULT_255_1_388
10
9.8551693
20
-0.2193188
40
0.3932934
50
359.5579289
51
12.9534322
0
ARC
8
DEFAULT_255_1_388
10
9.9738533
20
-0.1905414
40
0.2711827
50
12.6489751
51
41.608121
0
ARC
8
DEFAULT_255_1_388
10
9.9997693
20
-0.1685054
40
0.2371737
50
41.7851122
51
85.9892156
0
ARC
8
DEFAULT_255_1_388
10
9.9859003
20
-0.2600262
40
0.3295244
50
84.6965848
51
90.0672125
0
ARC
8
DEFAULT_255_1_388
10
9.983257
20
-0.3351882
40
0.4046926
50
89.6804991
51
99.161352
0
ARC
8
DEFAULT_255_1_388
10
9.9601579
20
-0.1971152
40
0.2647044
50
98.9836248
51
113.8905702
0
ARC
8
DEFAULT_255_1_388
10
9.9343254
20
-0.1361882
40
0.1985386
50
114.195234
51
127.3641866
0
LINE
8
DEFAULT_255_1_388
10
11.4230848
20
0.138169
11
11.4230848
21
-0.0786865
0
LINE
8
DEFAULT_255_1_388
10
10.592709
20
-0.1012756
11
10.592709
21
0.1219048
0
LINE
8
DEFAULT_255_1_388
10
11.2559253
20
-0.1238647
11
11.2559253
21
0.1499153
0
LINE
8
DEFAULT_255_1_388
10
10.7598685
20
0.1625652
11
10.7598685
21
-0.1048898
0
ARC
8
DEFAULT_255_1_388
10
10.0453182
20
-0.0841882
40
1.3777776
50
353.8440855
51
0.2287917
0
ARC
8
DEFAULT_255_1_388
10
10.5672199
20
-0.1424586
40
0.852639
50
344.4934746
51
353.9763743
0
ARC
8
DEFAULT_255_1_388
10
10.9039006
20
-0.2381809
40
0.5026273
50
329.2803599
51
344.7473406
0
ARC
8
DEFAULT_255_1_388
10
11.0154502
20
-0.2993962
40
0.3754848
50
324.9361395
51
328.6153007
0
ARC
8
DEFAULT_255_1_388
10
11.0580152
20
-0.3291414
40
0.3235566
50
280.5801797
51
324.9173226
0
ARC
8
DEFAULT_255_1_388
10
11.012878
20
-0.1411764
40
0.5167077
50
269.5979457
51
281.6732777
0
ARC
8
DEFAULT_255_1_388
10
11.0047684
20
-0.1546887
40
0.5032026
50
256.6228565
51
270.5105488
0
ARC
8
DEFAULT_255_1_388
10
10.9595427
20
-0.3288655
40
0.3233092
50
215.8618351
51
257.2787793
0
ARC
8
DEFAULT_255_1_388
10
11.0744134
20
-0.2517894
40
0.4615831
50
197.9695203
51
215.2622745
0
ARC
8
DEFAULT_255_1_388
10
11.3539809
20
-0.1574359
40
0.7566307
50
187.8816486
51
198.2346584
0
ARC
8
DEFAULT_255_1_388
10
11.7993048
20
-0.0931547
40
1.2065653
50
180.8977266
51
188.0054894
0
ARC
8
DEFAULT_255_1_388
10
12.1043261
20
-0.08166
40
1.5117443
50
180.7434591
51
181.152202
0
ARC
8
DEFAULT_255_1_388
10
11.9368257
20
0.1273371
40
1.3441277
50
173.7674302
51
180.2315596
0
ARC
8
DEFAULT_255_1_388
10
11.4286126
20
0.1847779
40
0.8326847
50
164.3058537
51
173.9000553
0
ARC
8
DEFAULT_255_1_388
10
11.1010126
20
0.2791652
40
0.4917711
50
148.7922028
51
164.5682288
0
ARC
8
DEFAULT_255_1_388
10
10.9940864
20
0.3388457
40
0.3694204
50
144.5883979
51
148.1161588
0
ARC
8
DEFAULT_255_1_388
10
10.9553609
20
0.3658667
40
0.322202
50
101.6440149
51
144.5142619
0
ARC
8
DEFAULT_255_1_388
10
11.0031801
20
0.1758337
40
0.5180451
50
89.528284
51
102.5820197
0
ARC
8
DEFAULT_255_1_388
10
11.0120793
20
0.1714376
40
0.5224441
50
77.0437914
51
90.508231
0
ARC
8
DEFAULT_255_1_388
10
11.0573047
20
0.3562272
40
0.3322297
50
48.2777708
51
77.4996087
0
ARC
8
DEFAULT_255_1_388
10
11.0654787
20
0.3707557
40
0.315966
50
36.3141586
51
47.6307332
0
ARC
8
DEFAULT_255_1_388
10
10.9677509
20
0.3049159
40
0.4337313
50
18.2931065
51
35.6770203
0
ARC
8
DEFAULT_255_1_388
10
10.681635
20
0.2067107
40
0.7362203
50
8.0246996
51
18.5605636
0
ARC
8
DEFAULT_255_1_388
10
10.2132705
20
0.1375432
40
1.2096583
50
1.127539
51
8.1718423
0
ARC
8
DEFAULT_255_1_388
10
9.8483839
20
0.1232374
40
1.5747719
50
0.5432713
51
1.38669
0
ARC
8
DEFAULT_255_1_388
10
10.0541217
20
0.1539163
40
1.2018103
50
359.8092569
51
4.9408001
0
ARC
8
DEFAULT_255_1_388
10
10.5277799
20
0.19619
40
0.7262727
50
4.8364937
51
12.2906017
0
ARC
8
DEFAULT_255_1_388
10
10.8377263
20
0.2652485
40
0.4087324
50
12.0806994
51
23.8171225
0
ARC
8
DEFAULT_255_1_388
10
10.9697659
20
0.3211508
40
0.2653719
50
24.2874621
51
31.3934353
0
ARC
8
DEFAULT_255_1_388
10
11.0288095
20
0.3597822
40
0.1948607
50
30.7407708
51
82.4658033
0
ARC
8
DEFAULT_255_1_388
10
11.0085756
20
0.2604017
40
0.2961198
50
81.1057101
51
90.2187368
0
ARC
8
DEFAULT_255_1_388
10
11.0045568
20
0.2894421
40
0.2670929
50
89.380395
51
105.6763916
0
ARC
8
DEFAULT_255_1_388
10
10.983929
20
0.364432
40
0.1893189
50
105.7980655
51
149.7387869
0
ARC
8
DEFAULT_255_1_388
10
11.103643
20
0.2924719
40
0.3289892
50
149.4208441
51
163.628295
0
ARC
8
DEFAULT_255_1_388
10
11.338866
20
0.2207345
40
0.5749004
50
163.3764549
51
172.141138
0
ARC
8
DEFAULT_255_1_388
10
11.7101381
20
0.1675582
40
0.9499585
50
172.0258462
51
178.0705453
0
ARC
8
DEFAULT_255_1_388
10
12.0522934
20
0.1513682
40
1.2924734
50
177.8639301
51
179.5036263
0
ARC
8
DEFAULT_255_1_388
10
11.9303953
20
-0.1089849
40
1.170534
50
179.7995545
51
185.246089
0
ARC
8
DEFAULT_255_1_388
10
11.4755546
20
-0.1520596
40
0.7136613
50
185.1411911
51
193.0082205
0
ARC
8
DEFAULT_255_1_388
10
11.1781806
20
-0.2223559
40
0.4080987
50
192.7897338
51
205.2507384
0
ARC
8
DEFAULT_255_1_388
10
11.0604016
20
-0.2749462
40
0.2791522
50
205.8001921
51
211.2545876
0
ARC
8
DEFAULT_255_1_388
10
11.0015555
20
-0.3143868
40
0.2084074
50
210.3789935
51
238.4007996
0
ARC
8
DEFAULT_255_1_388
10
10.9993641
20
-0.3091214
40
0.2117943
50
239.6521916
51
265.9793852
0
ARC
8
DEFAULT_255_1_388
10
11.008949
20
-0.2334642
40
0.2879689
50
265.1324455
51
270.0603288
0
ARC
8
DEFAULT_255_1_388
10
11.0121867
20
-0.2699582
40
0.2514919
50
269.3314378
51
287.2180039
0
ARC
8
DEFAULT_255_1_388
10
11.027695
20
-0.3265709
40
0.1928357
50
287.7957942
51
329.0808983
0
ARC
8
DEFAULT_255_1_388
10
10.9199707
20
-0.2593349
40
0.319808
50
328.6635261
51
343.3325043
0
ARC
8
DEFAULT_255_1_388
10
10.6755165
20
-0.1831805
40
0.5758408
50
343.0498092
51
351.9392499
0
ARC
8
DEFAULT_255_1_388
10
10.2854487
20
-0.1256795
40
0.9701202
50
351.8071632
51
357.7957897
0
ARC
8
DEFAULT_255_1_388
10
9.9219964
20
-0.1068276
40
1.3340376
50
357.5870923
51
359.2682493
0
LINE
8
DEFAULT_255_1_388
10
12.2633997
20
0.6766934
11
12.2932173
21
0.6766934
0
LINE
8
DEFAULT_255_1_388
10
12.2932173
20
0.6766934
11
12.2932173
21
0.5348338
0
LINE
8
DEFAULT_255_1_388
10
12.2932173
20
0.5348338
11
12.2624961
21
0.5348338
0
LINE
8
DEFAULT_255_1_388
10
11.6471688
20
-0.1392253
11
11.6471688
21
-0.0750722
0
LINE
8
DEFAULT_255_1_388
10
11.8152317
20
-0.0967578
11
11.8152317
21
-0.1582001
0
ARC
8
DEFAULT_255_1_388
10
12.2683853
20
-0.0274174
40
0.562282
50
90.6001079
51
104.5146616
0
ARC
8
DEFAULT_255_1_388
10
12.2246812
20
0.13511
40
0.3939917
50
104.2855758
51
133.8630124
0
ARC
8
DEFAULT_255_1_388
10
12.2431065
20
0.1229243
40
0.4155734
50
134.5304124
51
161.6210222
0
ARC
8
DEFAULT_255_1_388
10
12.4290997
20
0.0573421
40
0.6127682
50
161.2850533
51
174.2074364
0
ARC
8
DEFAULT_255_1_388
10
12.5880564
20
0.0354437
40
0.7731446
50
173.7817938
51
174.9251711
0
ARC
8
DEFAULT_255_1_388
10
12.0754758
20
-0.120073
40
0.3412588
50
95.8332067
51
138.995412
0
ARC
8
DEFAULT_255_1_388
10
12.1006038
20
-0.2639305
40
0.4870358
50
89.8755506
51
97.0540979
0
ARC
8
DEFAULT_255_1_388
10
12.1059427
20
-0.1699159
40
0.3930432
50
71.6407016
51
90.6240821
0
ARC
8
DEFAULT_255_1_388
10
12.1228821
20
-0.1075567
40
0.3285421
50
39.6368051
51
71.0190743
0
ARC
8
DEFAULT_255_1_388
10
12.0512728
20
-0.1694414
40
0.4231706
50
10.6588054
51
39.9044509
0
ARC
8
DEFAULT_255_1_388
10
11.8771274
20
-0.2072777
40
0.60133
50
359.6827842
51
11.1326896
0
ARC
8
DEFAULT_255_1_388
10
11.872661
20
-0.2152285
40
0.6058047
50
347.2485908
51
0.4371098
0
ARC
8
DEFAULT_255_1_388
10
12.0602395
20
-0.2603621
40
0.4128987
50
318.1408565
51
347.6118497
0
ARC
8
DEFAULT_255_1_388
10
12.0967992
20
-0.2904097
40
0.3656244
50
275.6342406
51
317.824739
0
ARC
8
DEFAULT_255_1_388
10
12.0719513
20
-0.1442173
40
0.513655
50
269.8872513
51
276.7916069
0
ARC
8
DEFAULT_255_1_388
10
12.0657705
20
-0.2595819
40
0.398323
50
246.9139443
51
270.7436787
0
ARC
8
DEFAULT_255_1_388
10
12.0664901
20
-0.2755956
40
0.3839368
50
218.1665534
51
245.8780431
0
ARC
8
DEFAULT_255_1_388
10
12.1654273
20
-0.1928097
40
0.5128958
50
191.4115343
51
218.6077624
0
ARC
8
DEFAULT_255_1_388
10
12.383459
20
-0.1439223
40
0.7363054
50
179.6344971
51
191.7836758
0
ARC
8
DEFAULT_255_1_388
10
13.0114464
20
-0.0675505
40
1.3642984
50
171.4523743
51
180.3158856
0
ARC
8
DEFAULT_255_1_388
10
12.5170191
20
0.0093895
40
0.8639311
50
157.9802296
51
171.6246761
0
ARC
8
DEFAULT_255_1_388
10
12.2679542
20
0.1087038
40
0.5958004
50
141.4299236
51
157.8541251
0
ARC
8
DEFAULT_255_1_388
10
12.1957625
20
0.1597746
40
0.5075416
50
102.871586
51
140.8564533
0
ARC
8
DEFAULT_255_1_388
10
12.2686178
20
-0.1147057
40
0.7914163
50
90.377773
51
103.5868422
0
ARC
8
DEFAULT_255_1_388
10
12.0730699
20
-0.1827457
40
0.2667015
50
89.8751238
51
126.2072139
0
ARC
8
DEFAULT_255_1_388
10
12.078217
20
-0.2001153
40
0.2838229
50
124.9742447
51
144.8960197
0
ARC
8
DEFAULT_255_1_388
10
12.0584415
20
-0.1840019
40
0.2583845
50
145.2974778
51
160.2660922
0
ARC
8
DEFAULT_255_1_388
10
12.4040903
20
-0.1617849
40
0.5888695
50
179.6512124
51
190.285571
0
ARC
8
DEFAULT_255_1_388
10
12.2135383
20
-0.1977032
40
0.3949683
50
190.0944895
51
207.5099647
0
ARC
8
DEFAULT_255_1_388
10
12.1498965
20
-0.2279823
40
0.3245464
50
207.9585471
51
216.325377
0
ARC
8
DEFAULT_255_1_388
10
12.1116602
20
-0.2594288
40
0.2751259
50
215.7661336
51
232.5457193
0
ARC
8
DEFAULT_255_1_388
10
12.0685718
20
-0.3141727
40
0.2054668
50
232.8005815
51
270.6605497
0
ARC
8
DEFAULT_255_1_388
10
12.0737142
20
-0.2732147
40
0.2464268
50
269.3550767
51
288.474612
0
ARC
8
DEFAULT_255_1_388
10
12.0841649
20
-0.3125279
40
0.2058436
50
289.1831976
51
322.9685307
0
ARC
8
DEFAULT_255_1_388
10
12.0153751
20
-0.2582721
40
0.2934408
50
322.6007085
51
346.5183319
0
ARC
8
DEFAULT_255_1_388
10
11.8851507
20
-0.2250566
40
0.4278249
50
346.2584622
51
358.7739592
0
ARC
8
DEFAULT_255_1_388
10
11.7700082
20
-0.2188171
40
0.5430876
50
358.3757628
51
0.0082477
0
ARC
8
DEFAULT_255_1_388
10
11.85569
20
-0.2157144
40
0.4574157
50
359.6211417
51
11.28403
0
ARC
8
DEFAULT_255_1_388
10
11.9993507
20
-0.1857465
40
0.3106708
50
11.0483152
51
31.8145585
0
ARC
8
DEFAULT_255_1_388
10
12.0341212
20
-0.1668955
40
0.2711963
50
32.3028554
51
38.0820598
0
ARC
8
DEFAULT_255_1_388
10
12.0814445
20
-0.1240283
40
0.2075566
50
36.8249851
51
85.741667
0
ARC
8
DEFAULT_255_1_388
10
12.0738857
20
-0.1803935
40
0.2643487
50
85.0150021
51
90.050843
0
LINE
8
DEFAULT_255_1_388
10
13.4850188
20
0.1499153
11
13.4850188
21
0.1011229
0
LINE
8
DEFAULT_255_1_388
10
12.8751128
20
-0.6407036
11
12.8425845
21
-0.6407036
0
LINE
8
DEFAULT_255_1_388
10
12.8425845
20
-0.6407036
11
12.8425845
21
-0.4997475
0
LINE
8
DEFAULT_255_1_388
10
12.8425845
20
-0.4997475
11
12.8778235
21
-0.4997475
0
LINE
8
DEFAULT_255_1_388
10
13.3178594
20
0.117387
11
13.3178594
21
0.1842508
0
ARC
8
DEFAULT_255_1_388
10
13.0035686
20
0.2012877
40
0.4089973
50
297.4036461
51
320.0168133
0
ARC
8
DEFAULT_255_1_388
10
13.0361866
20
0.1386072
40
0.3383378
50
270.2631886
51
297.3852322
0
ARC
8
DEFAULT_255_1_388
10
13.0323542
20
0.1923343
40
0.3920983
50
269.9969069
51
270.7871389
0
ARC
8
DEFAULT_255_1_388
10
13.0294866
20
0.1905737
40
0.3903482
50
254.5997295
51
270.4178147
0
ARC
8
DEFAULT_255_1_388
10
13.0134397
20
0.1270693
40
0.3248657
50
236.4717231
51
254.3539376
0
ARC
8
DEFAULT_255_1_388
10
13.0310129
20
0.1506999
40
0.3542746
50
208.4727261
51
236.2134628
0
ARC
8
DEFAULT_255_1_388
10
13.1028892
20
0.1946676
40
0.4384402
50
204.3450776
51
209.0455365
0
ARC
8
DEFAULT_255_1_388
10
13.1793268
20
0.22708
40
0.5214459
50
183.9375459
51
204.1275509
0
ARC
8
DEFAULT_255_1_388
10
13.2815574
20
0.2380863
40
0.6242037
50
179.9652726
51
184.3010611
0
ARC
8
DEFAULT_255_1_388
10
13.254512
20
0.2418004
40
0.5971675
50
166.7585952
51
180.3200491
0
ARC
8
DEFAULT_255_1_388
10
13.1592928
20
0.2624979
40
0.4997418
50
154.6954866
51
166.5679151
0
ARC
8
DEFAULT_255_1_388
10
13.0633168
20
0.3108411
40
0.3923208
50
136.3325251
51
155.0871367
0
ARC
8
DEFAULT_255_1_388
10
13.0317087
20
0.3379271
40
0.3507618
50
121.2365985
51
135.9680081
0
ARC
8
DEFAULT_255_1_388
10
13.0475152
20
0.3086541
40
0.3839917
50
96.8454764
51
120.9881329
0
ARC
8
DEFAULT_255_1_388
10
13.0638958
20
0.2033942
40
0.4904679
50
89.887204
51
97.2797758
0
ARC
8
DEFAULT_255_1_388
10
13.0697931
20
0.2751652
40
0.418725
50
70.6505767
51
90.6748382
0
ARC
8
DEFAULT_255_1_388
10
13.0845628
20
0.3329091
40
0.3593866
50
36.7493297
51
69.8220487
0
ARC
8
DEFAULT_255_1_388
10
12.9721975
20
0.2453446
40
0.5018201
50
15.3958155
51
37.0841102
0
ARC
8
DEFAULT_255_1_388
10
12.732626
20
0.1755111
40
0.7513436
50
3.9487796
51
15.6798517
0
ARC
8
DEFAULT_255_1_388
10
12.4624902
20
0.151181
40
1.0225293
50
359.9290791
51
4.266464
0
ARC
8
DEFAULT_255_1_388
10
11.9443819
20
0.0936372
40
1.5406551
50
352.8365702
51
0.2783851
0
ARC
8
DEFAULT_255_1_388
10
12.539205
20
0.0163664
40
0.9408425
50
341.8359339
51
352.9884057
0
ARC
8
DEFAULT_255_1_388
10
12.9013037
20
-0.1056856
40
0.5587481
50
322.8579243
51
342.1527461
0
ARC
8
DEFAULT_255_1_388
10
12.9984729
20
-0.171965
40
0.4413099
50
319.3348471
51
322.100194
0
ARC
8
DEFAULT_255_1_388
10
12.963666
20
-0.1370186
40
0.4904992
50
285.954114
51
318.8878716
0
ARC
8
DEFAULT_255_1_388
10
12.8819098
20
0.1228865
40
0.7628991
50
272.9280841
51
286.4924389
0
ARC
8
DEFAULT_255_1_388
10
12.8605402
20
0.376324
40
1.017132
50
270.8209173
51
273.4010121
0
ARC
8
DEFAULT_255_1_388
10
12.8705425
20
0.1715073
40
0.6712943
50
270.6214576
51
281.4062333
0
ARC
8
DEFAULT_255_1_388
10
12.9189149
20
-0.059775
40
0.4350167
50
281.1852583
51
299.0622058
0
ARC
8
DEFAULT_255_1_388
10
12.9609394
20
-0.1408862
40
0.3437146
50
299.5068171
51
313.1200142
0
ARC
8
DEFAULT_255_1_388
10
12.9634132
20
-0.1498041
40
0.3355418
50
313.8525725
51
338.5989631
0
ARC
8
DEFAULT_255_1_388
10
12.780726
20
-0.0747424
40
0.5330317
50
338.2523315
51
351.2431701
0
ARC
8
DEFAULT_255_1_388
10
12.5095011
20
-0.0286506
40
0.8081235
50
350.940933
51
357.6690137
0
ARC
8
DEFAULT_255_1_388
10
13.0596891
20
0.1966048
40
0.2581236
50
269.9447107
51
306.8249644
0
ARC
8
DEFAULT_255_1_388
10
13.0330193
20
0.244206
40
0.3122948
50
305.5071046
51
327.0773808
0
ARC
8
DEFAULT_255_1_388
10
13.0463244
20
0.2335445
40
0.2953369
50
327.4106457
51
336.8396801
0
ARC
8
DEFAULT_255_1_388
10
12.6982958
20
0.1878932
40
0.6195743
50
359.663158
51
10.1176387
0
ARC
8
DEFAULT_255_1_388
10
12.8955721
20
0.2243922
40
0.4189561
50
9.9431549
51
26.7699242
0
ARC
8
DEFAULT_255_1_388
10
12.9627707
20
0.2553796
40
0.3450125
50
27.2018067
51
34.6833639
0
ARC
8
DEFAULT_255_1_388
10
13.017832
20
0.296756
40
0.2762035
50
34.124913
51
50.30709
0
ARC
8
DEFAULT_255_1_388
10
13.0680803
20
0.3568741
40
0.1978518
50
50.3850304
51
90.6705051
0
ARC
8
DEFAULT_255_1_388
10
13.0628196
20
0.3226074
40
0.2321235
50
89.2729817
51
111.9140267
0
ARC
8
DEFAULT_255_1_388
10
13.0606284
20
0.3384308
40
0.2166604
50
112.9381864
51
142.5320936
0
ARC
8
DEFAULT_255_1_388
10
13.1220773
20
0.2885392
40
0.2957902
50
142.1024021
51
166.3835244
0
ARC
8
DEFAULT_255_1_388
10
13.2549743
20
0.2542213
40
0.4330361
50
166.1100968
51
178.6653563
0
ARC
8
DEFAULT_255_1_388
10
13.3731668
20
0.2476061
40
0.5513642
50
178.2641888
51
180.010994
0
ARC
8
DEFAULT_255_1_388
10
13.282617
20
0.2444136
40
0.4608248
50
179.6162225
51
191.8786013
0
ARC
8
DEFAULT_255_1_388
10
13.145348
20
0.214059
40
0.3202502
50
191.6192934
51
215.2970746
0
ARC
8
DEFAULT_255_1_388
10
13.1214135
20
0.1997963
40
0.2924827
50
215.7258926
51
216.5355437
0
ARC
8
DEFAULT_255_1_388
10
13.0625755
20
0.1524919
40
0.2170661
50
215.7486606
51
239.9728403
0
ARC
8
DEFAULT_255_1_388
10
13.0546921
20
0.1467838
40
0.208217
50
241.065081
51
269.280972
0
ARC
8
DEFAULT_255_1_388
10
13.0594079
20
0.2023327
40
0.2638514
50
268.4083352
51
270.0069622
0
LINE
8
DEFAULT_255_1_388
10
14.0804678
20
-0.0127263
11
14.0804678
21
-0.1491645
0
LINE
8
DEFAULT_255_1_388
10
14.0804678
20
-0.1491645
11
13.6395284
21
-0.1491645
0
LINE
8
DEFAULT_255_1_388
10
13.6395284
20
-0.1491645
11
13.6395284
21
-0.0127263
0
LINE
8
DEFAULT_255_1_388
10
13.6395284
20
-0.0127263
11
14.0804678
21
-0.0127263
0
LINE
8
DEFAULT_255_1_388
10
14.4554471
20
0.6757898
11
14.4554471
21
-0.6398
0
LINE
8
DEFAULT_255_1_388
10
14.4554471
20
-0.6398
11
14.2819627
21
-0.6398
0
LINE
8
DEFAULT_255_1_388
10
14.2819627
20
-0.6398
11
14.2819627
21
0.6757898
0
LINE
8
DEFAULT_255_1_388
10
14.2819627
20
0.6757898
11
14.4554471
21
0.6757898
0
LINE
8
DEFAULT_255_1_388
10
15.2288982
20
-0.6398
11
14.7725982
21
-0.6398
0
LINE
8
DEFAULT_255_1_388
10
14.7725982
20
-0.6398
11
14.7725982
21
0.6757898
0
LINE
8
DEFAULT_255_1_388
10
14.7725982
20
0.6757898
11
15.2026949
21
0.6757898
0
LINE
8
DEFAULT_255_1_388
10
15.2352232
20
-0.0244726
11
14.9460826
21
-0.0244726
0
LINE
8
DEFAULT_255_1_388
10
14.9460826
20
-0.0244726
11
14.9460826
21
-0.4979404
0
LINE
8
DEFAULT_255_1_388
10
14.9460826
20
-0.4979404
11
15.2325125
21
-0.4979404
0
LINE
8
DEFAULT_255_1_388
10
14.9460826
20
0.5330267
11
14.9460826
21
0.1146763
0
LINE
8
DEFAULT_255_1_388
10
14.9460826
20
0.1146763
11
15.2081163
21
0.1146763
0
LINE
8
DEFAULT_255_1_388
10
15.2026949
20
0.5330267
11
14.9460826
21
0.5330267
0
ARC
8
DEFAULT_255_1_388
10
15.2069369
20
-0.1530176
40
0.8288183
50
82.1256322
51
90.2932506
0
ARC
8
DEFAULT_255_1_388
10
15.2506944
20
0.152759
40
0.5199321
50
69.9044202
51
82.2857574
0
ARC
8
DEFAULT_255_1_388
10
15.3148937
20
0.3262993
40
0.3348993
50
51.1840204
51
70.018125
0
ARC
8
DEFAULT_255_1_388
10
15.3435769
20
0.3679945
40
0.2844579
50
12.1018086
51
50.421322
0
ARC
8
DEFAULT_255_1_388
10
15.187864
20
0.3288937
40
0.4449429
50
359.5252354
51
12.8212369
0
ARC
8
DEFAULT_255_1_388
10
15.365607
20
0.3210943
40
0.2672162
50
323.4907456
51
0.8818258
0
ARC
8
DEFAULT_255_1_388
10
15.3185483
20
0.3574523
40
0.3266736
50
298.6824053
51
323.2758285
0
ARC
8
DEFAULT_255_1_388
10
15.2778774
20
0.4250509
40
0.4055105
50
293.1994739
51
299.139634
0
ARC
8
DEFAULT_255_1_388
10
15.3535724
20
-0.2595349
40
0.3229926
50
54.0009997
51
74.9168635
0
ARC
8
DEFAULT_255_1_388
10
15.3666651
20
-0.2373489
40
0.2973581
50
36.3578854
51
53.5293172
0
ARC
8
DEFAULT_255_1_388
10
15.3524019
20
-0.247515
40
0.3148715
50
4.8189348
51
36.3090187
0
ARC
8
DEFAULT_255_1_388
10
15.2647043
20
-0.2598617
40
0.4033265
50
359.9373213
51
5.5201284
0
ARC
8
DEFAULT_255_1_388
10
15.2282373
20
-0.2644267
40
0.4398126
50
344.7479357
51
0.5372278
0
ARC
8
DEFAULT_255_1_388
10
15.3397272
20
-0.2944795
40
0.3243441
50
311.1785587
51
344.6887681
0
ARC
8
DEFAULT_255_1_388
10
15.3068815
20
-0.2535916
40
0.3767511
50
286.0417804
51
310.8440924
0
ARC
8
DEFAULT_255_1_388
10
15.2498224
20
-0.0683115
40
0.5705957
50
274.1044074
51
286.4070149
0
ARC
8
DEFAULT_255_1_388
10
15.229944
20
0.1434901
40
0.7832907
50
269.9235077
51
274.4458593
0
ARC
8
DEFAULT_255_1_388
10
15.2351158
20
-0.1196538
40
0.3782955
50
269.6057074
51
281.3740795
0
ARC
8
DEFAULT_255_1_388
10
15.2610656
20
-0.2426431
40
0.2526069
50
281.105298
51
302.5134029
0
ARC
8
DEFAULT_255_1_388
10
15.2776044
20
-0.2723056
40
0.2187131
50
303.0365425
51
311.8818034
0
ARC
8
DEFAULT_255_1_388
10
15.2856221
20
-0.2818398
40
0.2062624
50
311.9916937
51
351.7143773
0
ARC
8
DEFAULT_255_1_388
10
15.1937246
20
-0.2632729
40
0.2999202
50
350.7343295
51
0.2221526
0
ARC
8
DEFAULT_255_1_388
10
15.1816334
20
-0.256913
40
0.3120525
50
359.045729
51
17.2295312
0
ARC
8
DEFAULT_255_1_388
10
15.2985364
20
-0.2221845
40
0.1901144
50
17.6685208
51
78.9940245
0
ARC
8
DEFAULT_255_1_388
10
15.2403725
20
-0.4309989
40
0.4065575
50
76.565218
51
90.7103392
0
LINE
8
DEFAULT_255_1_388
10
15.2353322
20
-0.0244726
11
15.2352232
21
-0.0244726
0
ARC
8
DEFAULT_255_1_388
10
15.2106551
20
0.4842949
40
0.3696273
50
269.6064514
51
281.4533785
0
ARC
8
DEFAULT_255_1_388
10
15.2357192
20
0.3660283
40
0.2487412
50
281.2044438
51
302.5143998
0
ARC
8
DEFAULT_255_1_388
10
15.2511446
20
0.3382576
40
0.2170405
50
303.0211308
51
309.8378766
0
ARC
8
DEFAULT_255_1_388
10
15.2717563
20
0.3151486
40
0.1860946
50
309.5229446
51
356.9509628
0
ARC
8
DEFAULT_255_1_388
10
15.1971689
20
0.3258831
40
0.2612347
50
355.4699226
51
0.0498632
0
ARC
8
DEFAULT_255_1_388
10
15.1657362
20
0.3283789
40
0.2926762
50
359.5558955
51
11.2092924
0
ARC
8
DEFAULT_255_1_388
10
15.273433
20
0.3506667
40
0.1827036
50
10.9185717
51
31.322519
0
ARC
8
DEFAULT_255_1_388
10
15.3055878
20
0.3685571
40
0.1459418
50
31.8850633
51
52.1415586
0
ARC
8
DEFAULT_255_1_388
10
15.2747307
20
0.3249674
40
0.1993088
50
52.8283418
51
71.9850132
0
ARC
8
DEFAULT_255_1_388
10
15.2324468
20
0.2005158
40
0.3307407
50
71.686634
51
82.8453416
0
ARC
8
DEFAULT_255_1_388
10
15.2055115
20
-0.0030108
40
0.536039
50
82.6981895
51
90.1730083
0
ARC
8
DEFAULT_255_1_388
10
15.2029947
20
0.0848836
40
0.4481429
50
89.8851568
51
90.0383283
0
LINE
8
DEFAULT_255_1_388
10
16.430639
20
0.6821148
11
16.430639
21
-0.6398
0
LINE
8
DEFAULT_255_1_388
10
16.430639
20
-0.6398
11
16.262576
21
-0.6398
0
LINE
8
DEFAULT_255_1_388
10
16.262576
20
-0.6398
11
16.262576
21
0.474295
0
LINE
8
DEFAULT_255_1_388
10
16.262576
20
0.474295
11
15.9255464
21
0.3505066
0
LINE
8
DEFAULT_255_1_388
10
15.9255464
20
0.3505066
11
15.9255464
21
0.5023055
0
LINE
8
DEFAULT_255_1_388
10
15.9255464
20
0.5023055
11
16.4044356
21
0.6821148
0
LINE
8
DEFAULT_255_1_388
10
16.4044356
20
0.6821148
11
16.430639
21
0.6821148
0
LINE
8
DEFAULT_255_1_388
10
17.5465411
20
0.6766934
11
17.5763587
21
0.6766934
0
LINE
8
DEFAULT_255_1_388
10
17.5763587
20
0.6766934
11
17.5763587
21
0.5348338
0
LINE
8
DEFAULT_255_1_388
10
17.5763587
20
0.5348338
11
17.5456375
21
0.5348338
0
LINE
8
DEFAULT_255_1_388
10
16.9303101
20
-0.1392253
11
16.9303101
21
-0.0750722
0
LINE
8
DEFAULT_255_1_388
10
17.0983731
20
-0.0967578
11
17.0983731
21
-0.1582001
0
ARC
8
DEFAULT_255_1_388
10
17.5515267
20
-0.0274174
40
0.562282
50
90.6001079
51
104.5146616
0
ARC
8
DEFAULT_255_1_388
10
17.5078226
20
0.13511
40
0.3939917
50
104.2855758
51
133.8630124
0
ARC
8
DEFAULT_255_1_388
10
17.5262479
20
0.1229243
40
0.4155734
50
134.5304124
51
161.6210222
0
ARC
8
DEFAULT_255_1_388
10
17.7122411
20
0.0573421
40
0.6127682
50
161.2850533
51
174.2074364
0
ARC
8
DEFAULT_255_1_388
10
17.8711978
20
0.0354437
40
0.7731446
50
173.7817938
51
174.9251711
0
ARC
8
DEFAULT_255_1_388
10
17.3586171
20
-0.120073
40
0.3412588
50
95.8332067
51
138.995412
0
ARC
8
DEFAULT_255_1_388
10
17.3837452
20
-0.2639305
40
0.4870358
50
89.8755506
51
97.0540979
0
ARC
8
DEFAULT_255_1_388
10
17.3890841
20
-0.1699159
40
0.3930432
50
71.6407016
51
90.6240821
0
ARC
8
DEFAULT_255_1_388
10
17.4060234
20
-0.1075567
40
0.3285421
50
39.6368051
51
71.0190743
0
ARC
8
DEFAULT_255_1_388
10
17.3344142
20
-0.1694414
40
0.4231706
50
10.6588054
51
39.9044509
0
ARC
8
DEFAULT_255_1_388
10
17.1602687
20
-0.2072777
40
0.60133
50
359.6827842
51
11.1326896
0
ARC
8
DEFAULT_255_1_388
10
17.1558023
20
-0.2152285
40
0.6058047
50
347.2485908
51
0.4371098
0
ARC
8
DEFAULT_255_1_388
10
17.3433809
20
-0.2603621
40
0.4128987
50
318.1408565
51
347.6118497
0
ARC
8
DEFAULT_255_1_388
10
17.3799405
20
-0.2904097
40
0.3656244
50
275.6342406
51
317.824739
0
ARC
8
DEFAULT_255_1_388
10
17.3550926
20
-0.1442173
40
0.513655
50
269.8872513
51
276.7916069
0
ARC
8
DEFAULT_255_1_388
10
17.3489119
20
-0.2595819
40
0.398323
50
246.9139443
51
270.7436787
0
ARC
8
DEFAULT_255_1_388
10
17.3496315
20
-0.2755956
40
0.3839368
50
218.1665534
51
245.8780431
0
ARC
8
DEFAULT_255_1_388
10
17.4485687
20
-0.1928097
40
0.5128958
50
191.4115343
51
218.6077624
0
ARC
8
DEFAULT_255_1_388
10
17.6666003
20
-0.1439223
40
0.7363054
50
179.6344971
51
191.7836758
0
ARC
8
DEFAULT_255_1_388
10
18.2945878
20
-0.0675505
40
1.3642984
50
171.4523743
51
180.3158856
0
ARC
8
DEFAULT_255_1_388
10
17.8001605
20
0.0093895
40
0.8639311
50
157.9802296
51
171.6246761
0
ARC
8
DEFAULT_255_1_388
10
17.5510955
20
0.1087038
40
0.5958004
50
141.4299236
51
157.8541251
0
ARC
8
DEFAULT_255_1_388
10
17.4789039
20
0.1597746
40
0.5075416
50
102.871586
51
140.8564533
0
ARC
8
DEFAULT_255_1_388
10
17.5517591
20
-0.1147057
40
0.7914163
50
90.377773
51
103.5868422
0
ARC
8
DEFAULT_255_1_388
10
17.3562113
20
-0.1827457
40
0.2667015
50
89.8751238
51
126.2072139
0
ARC
8
DEFAULT_255_1_388
10
17.3613584
20
-0.2001153
40
0.2838229
50
124.9742447
51
144.8960197
0
ARC
8
DEFAULT_255_1_388
10
17.3415829
20
-0.1840019
40
0.2583845
50
145.2974778
51
160.2660922
0
ARC
8
DEFAULT_255_1_388
10
17.6872317
20
-0.1617849
40
0.5888695
50
179.6512124
51
190.285571
0
ARC
8
DEFAULT_255_1_388
10
17.4966797
20
-0.1977032
40
0.3949683
50
190.0944895
51
207.5099647
0
ARC
8
DEFAULT_255_1_388
10
17.4330378
20
-0.2279823
40
0.3245464
50
207.9585471
51
216.325377
0
ARC
8
DEFAULT_255_1_388
10
17.3948015
20
-0.2594288
40
0.2751259
50
215.7661336
51
232.5457193
0
ARC
8
DEFAULT_255_1_388
10
17.3517131
20
-0.3141727
40
0.2054668
50
232.8005815
51
270.6605497
0
ARC
8
DEFAULT_255_1_388
10
17.3568556
20
-0.2732147
40
0.2464268
50
269.3550767
51
288.474612
0
ARC
8
DEFAULT_255_1_388
10
17.3673063
20
-0.3125279
40
0.2058436
50
289.1831976
51
322.9685307
0
ARC
8
DEFAULT_255_1_388
10
17.2985164
20
-0.2582721
40
0.2934408
50
322.6007085
51
346.5183319
0
ARC
8
DEFAULT_255_1_388
10
17.168292
20
-0.2250566
40
0.4278249
50
346.2584622
51
358.7739592
0
ARC
8
DEFAULT_255_1_388
10
17.0531496
20
-0.2188171
40
0.5430876
50
358.3757628
51
0.0082477
0
ARC
8
DEFAULT_255_1_388
10
17.1388314
20
-0.2157144
40
0.4574157
50
359.6211417
51
11.28403
0
ARC
8
DEFAULT_255_1_388
10
17.282492
20
-0.1857465
40
0.3106708
50
11.0483152
51
31.8145585
0
ARC
8
DEFAULT_255_1_388
10
17.3172625
20
-0.1668955
40
0.2711963
50
32.3028554
51
38.0820598
0
ARC
8
DEFAULT_255_1_388
10
17.3645858
20
-0.1240283
40
0.2075566
50
36.8249851
51
85.741667
0
ARC
8
DEFAULT_255_1_388
10
17.3570271
20
-0.1803935
40
0.2643487
50
85.0150021
51
90.050843
0
LINE
8
DEFAULT_255_1_388
10
18.7284034
20
0.0830516
11
18.7284034
21
-0.0588081
0
LINE
8
DEFAULT_255_1_388
10
18.7284034
20
-0.0588081
11
18.1763255
21
-0.0588081
0
LINE
8
DEFAULT_255_1_388
10
18.1763255
20
-0.0588081
11
18.1763255
21
-0.6398
0
LINE
8
DEFAULT_255_1_388
10
18.1763255
20
-0.6398
11
18.0028411
21
-0.6398
0
LINE
8
DEFAULT_255_1_388
10
18.0028411
20
-0.6398
11
18.0028411
21
0.6757898
0
LINE
8
DEFAULT_255_1_388
10
18.0028411
20
0.6757898
11
18.8178563
21
0.6757898
0
LINE
8
DEFAULT_255_1_388
10
18.8178563
20
0.6757898
11
18.8178563
21
0.5330267
0
LINE
8
DEFAULT_255_1_388
10
18.8178563
20
0.5330267
11
18.1763255
21
0.5330267
0
LINE
8
DEFAULT_255_1_388
10
18.1763255
20
0.5330267
11
18.1763255
21
0.0830516
0
LINE
8
DEFAULT_255_1_388
10
18.1763255
20
0.0830516
11
18.7284034
21
0.0830516
0
LINE
8
DEFAULT_255_2_778
10
11.0359959
20
136.6231531
11
10.9838959
21
136.9604531
0
LINE
8
DEFAULT_255_2_778
10
10.9838959
20
136.9604531
11
10.4068959
21
136.9604531
0
LINE
8
DEFAULT_255_2_778
10
10.4068959
20
136.9604531
11
10.2364959
21
136.6231531
0
LINE
8
DEFAULT_255_2_778
10
10.2364959
20
136.6231531
11
9.8694959
21
136.6231531
0
LINE
8
DEFAULT_255_2_778
10
9.8694959
20
136.6231531
11
10.7531959
21
138.2606531
0
LINE
8
DEFAULT_255_2_778
10
10.7531959
20
138.2606531
11
11.0608959
21
138.2606531
0
LINE
8
DEFAULT_255_2_778
10
11.0608959
20
138.2606531
11
11.3754959
21
136.6231531
0
LINE
8
DEFAULT_255_2_778
10
11.3754959
20
136.6231531
11
11.0357959
21
136.6231531
0
LINE
8
DEFAULT_255_2_778
10
11.0357959
20
136.6231531
11
11.0359959
21
136.6231531
0
LINE
8
DEFAULT_255_2_778
10
10.8486959
20
137.8434531
11
10.5430959
21
137.2338531
0
LINE
8
DEFAULT_255_2_778
10
10.5430959
20
137.2338531
11
10.9418959
21
137.2338531
0
LINE
8
DEFAULT_255_2_778
10
10.9418959
20
137.2338531
11
10.8486959
21
137.8434531
0
LINE
8
DEFAULT_255_2_778
10
10.8486959
20
137.8434531
11
10.8486959
21
137.8434531
0
LINE
8
DEFAULT_255_2_778
10
12.1615594
20
138.3506646
11
11.8593594
21
136.6229646
0
LINE
8
DEFAULT_255_2_778
10
11.8593594
20
136.6229646
11
11.5368594
21
136.6229646
0
LINE
8
DEFAULT_255_2_778
10
11.5368594
20
136.6229646
11
11.8400594
21
138.3506646
0
LINE
8
DEFAULT_255_2_778
10
11.8400594
20
138.3506646
11
12.1615594
21
138.3506646
0
LINE
8
DEFAULT_255_2_778
10
12.1615594
20
138.3506646
11
12.1615594
21
138.3506646
0
LINE
8
DEFAULT_255_2_778
10
12.7717594
20
138.3506646
11
12.4695594
21
136.6229646
0
LINE
8
DEFAULT_255_2_778
10
12.4695594
20
136.6229646
11
12.1470594
21
136.6229646
0
LINE
8
DEFAULT_255_2_778
10
12.1470594
20
136.6229646
11
12.4502594
21
138.3506646
0
LINE
8
DEFAULT_255_2_778
10
12.4502594
20
138.3506646
11
12.7717594
21
138.3506646
0
LINE
8
DEFAULT_255_2_778
10
12.7717594
20
138.3506646
11
12.7717594
21
138.3506646
0
ARC
8
DEFAULT_255_2_778
10
13.3180767
20
137.1387764
40
0.5383522
50
238.763891
51
270.7055166
0
ARC
8
DEFAULT_255_2_778
10
13.2867625
20
137.083452
40
0.4748131
50
204.061185
51
238.5328679
0
ARC
8
DEFAULT_255_2_778
10
13.3693681
20
137.1230331
40
0.5663841
50
179.4896096
51
204.3103027
0
ARC
8
DEFAULT_255_2_778
10
13.4933843
20
137.1275727
40
0.6903781
50
175.123126
51
179.9580366
0
ARC
8
DEFAULT_255_2_778
10
13.5850479
20
137.1625152
40
0.7790728
50
149.5392097
51
174.9446897
0
ARC
8
DEFAULT_255_2_778
10
13.459184
20
137.2460212
40
0.628301
50
120.7003982
51
150.2846053
0
ARC
8
DEFAULT_255_2_778
10
13.4196851
20
137.3057024
40
0.556829
50
89.4236852
51
120.3409826
0
ARC
8
DEFAULT_255_2_778
10
13.4252352
20
137.2069671
40
0.6555361
50
88.4553682
51
89.9955718
0
ARC
8
DEFAULT_255_2_778
10
13.4481363
20
137.3911369
40
0.4711572
50
58.4514404
51
90.636095
0
ARC
8
DEFAULT_255_2_778
10
13.4744403
20
137.4545423
40
0.403504
50
35.6058989
51
56.9235594
0
ARC
8
DEFAULT_255_2_778
10
13.3641882
20
137.3807058
40
0.5361477
50
0.6851965
51
35.1616077
0
ARC
8
DEFAULT_255_2_778
10
13.1616313
20
137.3603229
40
0.7391521
50
359.9888194
51
2.0774415
0
ARC
8
DEFAULT_255_2_778
10
13.0480025
20
137.3620249
40
0.852783
50
353.383538
51
359.8759623
0
ARC
8
DEFAULT_255_2_778
10
13.534221
20
137.1096119
40
0.4107176
50
177.8018731
51
179.9839782
0
ARC
8
DEFAULT_255_2_778
10
13.3756217
20
137.098124
40
0.2523852
50
177.3650374
51
219.8309448
0
ARC
8
DEFAULT_255_2_778
10
13.3462068
20
137.0848401
40
0.2214564
50
222.0668323
51
271.55222
0
ARC
8
DEFAULT_255_2_778
10
13.3632002
20
137.2896289
40
0.4263057
50
268.5221572
51
269.9980687
0
ARC
8
DEFAULT_255_2_778
10
13.3616001
20
137.2600217
40
0.3967017
50
270.2290309
51
318.5203973
0
ARC
8
DEFAULT_255_2_778
10
13.4310056
20
137.0767979
40
0.4555006
50
292.4982989
51
325.2807674
0
ARC
8
DEFAULT_255_2_778
10
13.3411907
20
137.2553545
40
0.6549996
50
269.6158853
51
293.7802026
0
ARC
8
DEFAULT_255_2_778
10
13.3368026
20
137.342233
40
0.7418635
50
269.0811303
51
269.9997673
0
ARC
8
DEFAULT_255_2_778
10
13.4205249
20
137.3351977
40
0.2651417
50
88.6426435
51
89.9971979
0
ARC
8
DEFAULT_255_2_778
10
13.4187009
20
137.3704788
40
0.2298681
50
89.5421073
51
130.5025885
0
ARC
8
DEFAULT_255_2_778
10
13.5174398
20
137.2703327
40
0.370282
50
132.0556576
51
154.4346079
0
ARC
8
DEFAULT_255_2_778
10
13.9187288
20
137.0527869
40
0.8264843
50
152.8348001
51
159.2008974
0
ARC
8
DEFAULT_255_2_778
10
13.283715
20
137.4237268
40
0.3137404
50
351.1327381
51
359.8552777
0
ARC
8
DEFAULT_255_2_778
10
13.3301744
20
137.4233274
40
0.2672803
50
359.9157472
51
8.073482
0
ARC
8
DEFAULT_255_2_778
10
13.4328726
20
137.4386276
40
0.1634528
50
7.8192239
51
49.4174523
0
ARC
8
DEFAULT_255_2_778
10
13.4309336
20
137.4254377
40
0.174876
50
51.746929
51
91.3525911
0
LINE
8
DEFAULT_255_2_778
10
12.8055056
20
137.186265
11
12.8090056
21
137.231165
0
LINE
8
DEFAULT_255_2_778
10
13.8951056
20
137.263765
11
13.8768056
21
137.125365
0
LINE
8
DEFAULT_255_2_778
10
13.8768056
20
137.125365
11
13.1238056
21
137.125365
0
LINE
8
DEFAULT_255_2_778
10
13.6588056
20
136.997265
11
13.8054056
21
136.817365
0
LINE
8
DEFAULT_255_2_778
10
13.3249056
20
136.600465
11
13.3247056
21
136.600465
0
LINE
8
DEFAULT_255_2_778
10
13.1461056
20
137.346265
11
13.5868056
21
137.346265
0
LINE
8
DEFAULT_255_2_778
10
13.5868056
20
137.346265
11
13.5937056
21
137.375365
0
LINE
8
DEFAULT_255_2_778
10
13.4268056
20
137.600265
11
13.4268056
21
137.600265
0
ARC
8
DEFAULT_255_2_778
10
14.7973588
20
137.4188783
40
0.4439397
50
89.8554796
51
141.1589213
0
ARC
8
DEFAULT_255_2_778
10
14.7984572
20
137.357943
40
0.5048737
50
88.7717605
51
89.9975792
0
ARC
8
DEFAULT_255_2_778
10
14.8178417
20
137.5468406
40
0.315976
50
50.4893295
51
91.5528058
0
ARC
8
DEFAULT_255_2_778
10
14.8339359
20
137.5812178
40
0.2793745
50
33.8414583
51
48.5499238
0
ARC
8
DEFAULT_255_2_778
10
14.731985
20
137.5223286
40
0.3969262
50
4.3932888
51
32.7062485
0
ARC
8
DEFAULT_255_2_778
10
14.4819065
20
137.4869301
40
0.6491822
50
359.8769204
51
5.8177478
0
ARC
8
DEFAULT_255_2_778
10
14.2701804
20
137.4878881
40
0.8609097
50
353.9399056
51
359.8434284
0
ARC
8
DEFAULT_255_2_778
10
14.4164047
20
137.4535967
40
0.3954956
50
352.2407688
51
359.7520116
0
ARC
8
DEFAULT_255_2_778
10
14.5201997
20
137.4524041
40
0.2916973
50
359.8980094
51
5.448398
0
ARC
8
DEFAULT_255_2_778
10
14.6814536
20
137.4695865
40
0.129553
50
4.6550554
51
97.2610773
0
ARC
8
DEFAULT_255_2_778
10
14.655996
20
137.3438531
40
0.2544097
50
87.9539208
51
89.9945997
0
ARC
8
DEFAULT_255_2_778
10
14.6629447
20
137.3282668
40
0.2700847
50
91.4691634
51
141.078713
0
ARC
8
DEFAULT_255_2_778
10
14.7966376
20
137.1864301
40
0.4639576
50
137.8219849
51
140.394746
0
ARC
8
DEFAULT_255_2_778
10
16.9661161
20
137.233211
40
1.026426
50
77.5141066
51
90.4821212
0
ARC
8
DEFAULT_255_2_778
10
17.0845798
20
137.7424611
40
0.5036389
50
52.814306
51
78.1469212
0
ARC
8
DEFAULT_255_2_778
10
17.1732245
20
137.8707438
40
0.3479303
50
357.5432245
51
51.6759047
0
ARC
8
DEFAULT_255_2_778
10
16.9814613
20
137.8561938
40
0.5393738
50
356.248244
51
359.9613012
0
ARC
8
DEFAULT_255_2_778
10
17.128092
20
137.8435882
40
0.3922439
50
295.0867564
51
356.6841236
0
ARC
8
DEFAULT_255_2_778
10
16.9599154
20
138.1063279
40
0.7026958
50
292.6018649
51
298.4245718
0
ARC
8
DEFAULT_255_2_778
10
17.1412835
20
137.193675
40
0.2784307
50
29.5992916
51
71.4243751
0
ARC
8
DEFAULT_255_2_778
10
17.0686219
20
137.1514727
40
0.3624559
50
358.8250622
51
29.7265593
0
ARC
8
DEFAULT_255_2_778
10
16.932071
20
137.1443262
40
0.4989307
50
356.3312443
51
359.9671937
0
ARC
8
DEFAULT_255_2_778
10
16.9581925
20
137.1255387
40
0.4719696
50
307.6792206
51
358.4048608
0
ARC
8
DEFAULT_255_2_778
10
16.8807048
20
137.2463643
40
0.6150877
50
279.1080464
51
306.5123219
0
ARC
8
DEFAULT_255_2_778
10
16.7961448
20
137.6684116
40
1.0453321
50
269.63465
51
280.0226117
0
ARC
8
DEFAULT_255_2_778
10
16.8094212
20
137.2335308
40
0.3407431
50
267.9747348
51
304.6141501
0
ARC
8
DEFAULT_255_2_778
10
16.8661516
20
137.1473067
40
0.2375665
50
305.166569
51
352.3059676
0
ARC
8
DEFAULT_255_2_778
10
16.775822
20
137.1683166
40
0.3300111
50
350.7906063
51
359.6837465
0
ARC
8
DEFAULT_255_2_778
10
16.9356152
20
137.1739465
40
0.170376
50
357.4933304
51
35.754963
0
ARC
8
DEFAULT_255_2_778
10
16.9423472
20
137.1596963
40
0.1739313
50
40.8670445
51
88.9145542
0
ARC
8
DEFAULT_255_2_778
10
16.9113357
20
136.9744792
40
0.360752
50
84.5431107
51
87.5464559
0
ARC
8
DEFAULT_255_2_778
10
16.8864523
20
137.9465688
40
0.3741259
50
268.9933192
51
299.9063201
0
ARC
8
DEFAULT_255_2_778
10
16.9296435
20
137.8537438
40
0.2722705
50
301.7671328
51
305.0688299
0
ARC
8
DEFAULT_255_2_778
10
16.9572403
20
137.8176463
40
0.2268776
50
304.6024496
51
352.3134516
0
ARC
8
DEFAULT_255_2_778
10
16.9035208
20
137.8283322
40
0.2815642
50
351.6205962
51
359.745937
0
ARC
8
DEFAULT_255_2_778
10
17.0391775
20
137.8344083
40
0.1460884
50
357.1260689
51
87.9509322
0
ARC
8
DEFAULT_255_2_778
10
16.9733166
20
137.5550677
40
0.4312349
50
80.5121161
51
90.1776895
0
ARC
8
DEFAULT_255_2_778
10
18.304359
20
136.8832308
40
0.6634375
50
79.3314563
51
88.7113465
0
ARC
8
DEFAULT_255_2_778
10
18.3079683
20
137.1166839
40
0.4299655
50
88.4925657
51
89.9946723
0
ARC
8
DEFAULT_255_2_778
10
18.2982438
20
137.2367608
40
0.3100425
50
88.1952228
51
143.885382
0
ARC
8
DEFAULT_255_2_778
10
18.4077805
20
137.4817129
40
0.3980768
50
117.0828142
51
147.9763761
0
ARC
8
DEFAULT_255_2_778
10
18.3544747
20
137.5650295
40
0.2997784
50
89.5977622
51
115.2613452
0
ARC
8
DEFAULT_255_2_778
10
18.3464621
20
137.3928482
40
0.4720608
50
75.0830674
51
88.7719532
0
ARC
8
DEFAULT_255_2_778
10
19.3883565
20
136.7100588
40
0.303463
50
178.9513385
51
196.6911244
0
ARC
8
DEFAULT_255_2_778
10
19.5567182
20
136.7154238
40
0.4717738
50
177.8405456
51
179.9770623
0
ARC
8
DEFAULT_255_2_778
10
18.7787325
20
137.0200947
40
0.4198561
50
270.5473861
51
316.8967404
0
ARC
8
DEFAULT_255_2_778
10
18.7827705
20
137.0304581
40
0.4302003
50
268.5226571
51
269.9964175
0
ARC
8
DEFAULT_255_2_778
10
18.7647216
20
136.9785252
40
0.3781887
50
226.455184
51
271.0541416
0
ARC
8
DEFAULT_255_2_778
10
18.7161161
20
136.9331869
40
0.311866
50
179.0506747
51
227.1894377
0
ARC
8
DEFAULT_255_2_778
10
18.7977006
20
136.9382683
40
0.3934079
50
177.4603384
51
179.9875271
0
ARC
8
DEFAULT_255_2_778
10
18.7677222
20
136.9542892
40
0.3630457
50
122.3464314
51
179.7772632
0
ARC
8
DEFAULT_255_2_778
10
18.9127921
20
136.7271577
40
0.6325515
50
98.6956815
51
122.4402135
0
ARC
8
DEFAULT_255_2_778
10
18.9977072
20
136.2721789
40
1.0952432
50
89.6404969
51
99.4883828
0
ARC
8
DEFAULT_255_2_778
10
18.91142
20
137.487456
40
0.2635833
50
349.2520325
51
359.7979352
0
ARC
8
DEFAULT_255_2_778
10
18.9485896
20
137.4866836
40
0.2264121
50
359.9602232
51
5.7075699
0
ARC
8
DEFAULT_255_2_778
10
19.0517084
20
137.5008244
40
0.1224577
50
3.9221136
51
47.9806675
0
ARC
8
DEFAULT_255_2_778
10
19.0461009
20
137.4834028
40
0.1393558
50
51.0640414
51
91.6537281
0
ARC
8
DEFAULT_255_2_778
10
19.0343864
20
137.3492856
40
0.2735232
50
88.3883484
51
89.9950272
0
ARC
8
DEFAULT_255_2_778
10
19.0289472
20
137.4271996
40
0.1956856
50
88.4002709
51
125.6558116
0
ARC
8
DEFAULT_255_2_778
10
19.0229477
20
137.4454867
40
0.1774238
50
127.5242925
51
170.6536699
0
ARC
8
DEFAULT_255_2_778
10
18.8789596
20
137.4592573
40
0.3527561
50
122.7014157
51
177.7346919
0
ARC
8
DEFAULT_255_2_778
10
19.030198
20
137.2542043
40
0.6072396
50
91.7146868
51
124.2570002
0
ARC
8
DEFAULT_255_2_778
10
19.05893
20
136.9973064
40
0.865138
50
89.9735854
51
93.1077226
0
ARC
8
DEFAULT_255_2_778
10
19.0592938
20
136.940756
40
0.9216883
50
89.4414218
51
89.9978259
0
ARC
8
DEFAULT_255_2_778
10
19.0704714
20
137.3422068
40
0.5201984
50
63.6868659
51
90.2414521
0
ARC
8
DEFAULT_255_2_778
10
19.1244671
20
137.4701249
40
0.3816898
50
44.805062
51
62.4405121
0
ARC
8
DEFAULT_255_2_778
10
19.1511934
20
137.4943957
40
0.3456276
50
358.4368244
51
45.0725574
0
ARC
8
DEFAULT_255_2_778
10
18.9988451
20
137.4857092
40
0.4978477
50
354.0151208
51
359.9146153
0
ARC
8
DEFAULT_255_2_778
10
19.916384
20
136.7634006
40
0.5223437
50
178.2666392
51
179.9853875
0
ARC
8
DEFAULT_255_2_778
10
19.7189724
20
136.7555635
40
0.3250299
50
178.5948625
51
200.018038
0
ARC
8
DEFAULT_255_2_778
10
18.8607749
20
137.1444835
40
0.2979407
50
268.1351457
51
269.9967975
0
ARC
8
DEFAULT_255_2_778
10
18.8555143
20
137.1419809
40
0.2954847
50
271.0168715
51
323.4470831
0
ARC
8
DEFAULT_255_2_778
10
19.0185177
20
136.7824003
40
0.3950093
50
89.6139406
51
115.9632081
0
ARC
8
DEFAULT_255_2_778
10
18.9568146
20
136.9235476
40
0.2411766
50
117.4642621
51
142.4598629
0
ARC
8
DEFAULT_255_2_778
10
18.9147894
20
136.9604762
40
0.1853888
50
143.595728
51
174.110017
0
ARC
8
DEFAULT_255_2_778
10
18.8922711
20
136.9549244
40
0.1637466
50
171.368069
51
179.7835889
0
ARC
8
DEFAULT_255_2_778
10
18.8267207
20
136.9518088
40
0.098266
50
177.8221965
51
224.0379617
0
ARC
8
DEFAULT_255_2_778
10
18.8464576
20
136.9768517
40
0.1299333
50
225.9269812
51
272.0384171
0
ARC
8
DEFAULT_255_2_778
10
20.216987
20
137.5119976
40
0.3515032
50
37.8132465
51
89.9360651
0
ARC
8
DEFAULT_255_2_778
10
20.0346749
20
137.0217418
40
0.4267183
50
285.291584
51
321.0175046
0
ARC
8
DEFAULT_255_2_778
10
20.0570669
20
136.9755225
40
0.3763475
50
269.8450062
51
283.8588709
0
ARC
8
DEFAULT_255_2_778
10
20.0560587
20
137.0082286
40
0.4090522
50
268.5880369
51
269.9986183
0
ARC
8
DEFAULT_255_2_778
10
20.0420305
20
136.9550487
40
0.3557701
50
236.3475668
51
270.6359501
0
ARC
8
DEFAULT_255_2_778
10
20.0598141
20
136.9665321
40
0.3752788
50
201.8435891
51
235.058908
0
ARC
8
DEFAULT_255_2_778
10
20.3322211
20
137.0855871
40
0.6724873
50
181.1917384
51
202.6233367
0
ARC
8
DEFAULT_255_2_778
10
20.6351677
20
137.1186339
40
0.9764219
50
180.0156472
51
182.7609519
0
ARC
8
DEFAULT_255_2_778
10
20.5470549
20
137.1192658
40
0.8883095
50
174.2087211
51
180.0579587
0
ARC
8
DEFAULT_255_2_778
10
20.6346038
20
137.1321468
40
0.9727968
50
152.6606942
51
172.4775279
0
ARC
8
DEFAULT_255_2_778
10
20.4685375
20
137.2066269
40
0.7911386
50
151.1967159
51
151.9287309
0
ARC
8
DEFAULT_255_2_778
10
20.2724416
20
137.3306657
40
0.559722
50
125.8155177
51
152.6517649
0
ARC
8
DEFAULT_255_2_778
10
20.1926864
20
137.4251789
40
0.4365104
50
121.2895022
51
124.5859333
0
ARC
8
DEFAULT_255_2_778
10
20.2005174
20
137.4108255
40
0.4528439
50
89.3885498
51
121.1930117
0
ARC
8
DEFAULT_255_2_778
10
20.205315
20
137.3290492
40
0.5345942
50
88.6747242
51
89.9962477
0
ARC
8
DEFAULT_255_2_778
10
21.0229427
20
137.0916181
40
1.044966
50
173.5557888
51
179.5636493
0
ARC
8
DEFAULT_255_2_778
10
20.5582157
20
137.098589
40
0.5802095
50
179.9025124
51
183.3187157
0
ARC
8
DEFAULT_255_2_778
10
20.270534
20
137.069649
40
0.2915917
50
180.9134286
51
207.6247443
0
ARC
8
DEFAULT_255_2_778
10
20.135005
20
137.0052881
40
0.1417894
50
209.9763709
51
272.172214
0
ARC
8
DEFAULT_255_2_778
10
20.1512082
20
137.1290383
40
0.2656585
50
267.6638236
51
269.9934853
0
ARC
8
DEFAULT_255_2_778
10
20.1452669
20
137.1328962
40
0.2695812
50
271.2564257
51
323.4819236
0
ARC
8
DEFAULT_255_2_778
10
20.0042443
20
137.2717425
40
0.4663623
50
320.0808185
51
322.7722781
0
ARC
8
DEFAULT_255_2_778
10
20.2905955
20
137.4180938
40
0.1811681
50
17.7085133
51
91.4917236
0
ARC
8
DEFAULT_255_2_778
10
20.2776466
20
137.3173302
40
0.2819906
50
88.3270304
51
89.9962875
0
ARC
8
DEFAULT_255_2_778
10
20.2751839
20
137.3654886
40
0.2338453
50
89.3920923
51
141.8934507
0
ARC
8
DEFAULT_255_2_778
10
20.4150372
20
137.2558724
40
0.411538
50
141.9009784
51
164.0634131
0
ARC
8
DEFAULT_255_2_778
10
20.9401614
20
137.0881385
40
0.9626867
50
163.0454941
51
172.7936709
0
LINE
8
DEFAULT_255_2_778
10
14.1790793
20
137.8402006
11
14.4788793
21
137.8413006
0
LINE
8
DEFAULT_255_2_778
10
14.4788793
20
137.8413006
11
14.4515793
21
137.6973006
0
LINE
8
DEFAULT_255_2_778
10
15.1262793
20
137.3970006
11
14.9968793
21
136.6231006
0
LINE
8
DEFAULT_255_2_778
10
14.9968793
20
136.6231006
11
14.6764793
21
136.6231006
0
LINE
8
DEFAULT_255_2_778
10
14.6764793
20
136.6231006
11
14.8082793
21
137.4002006
0
LINE
8
DEFAULT_255_2_778
10
14.4391793
20
137.4822006
11
14.2856793
21
136.6229006
0
LINE
8
DEFAULT_255_2_778
10
14.2856793
20
136.6229006
11
13.9652793
21
136.6229006
0
LINE
8
DEFAULT_255_2_778
10
13.9652793
20
136.6229006
11
14.1787793
21
137.8400006
0
LINE
8
DEFAULT_255_2_778
10
14.1787793
20
137.8400006
11
14.1790793
21
137.8402006
0
LINE
8
DEFAULT_255_2_778
10
16.0157793
20
137.4553006
11
15.9692793
21
137.1933006
0
LINE
8
DEFAULT_255_2_778
10
15.9692793
20
137.1933006
11
15.3466793
21
137.1933006
0
LINE
8
DEFAULT_255_2_778
10
15.3466793
20
137.1933006
11
15.3921793
21
137.4553006
0
LINE
8
DEFAULT_255_2_778
10
15.3921793
20
137.4553006
11
16.0157793
21
137.4553006
0
LINE
8
DEFAULT_255_2_778
10
16.0157793
20
137.4553006
11
16.0157793
21
137.4553006
0
LINE
8
DEFAULT_255_2_778
10
16.7894793
20
136.6231006
11
16.1544793
21
136.6231006
0
LINE
8
DEFAULT_255_2_778
10
16.1544793
20
136.6231006
11
16.4417793
21
138.2606006
0
LINE
8
DEFAULT_255_2_778
10
16.4417793
20
138.2606006
11
16.9574793
21
138.2596006
0
LINE
8
DEFAULT_255_2_778
10
16.7894793
20
136.6231006
11
16.7894793
21
136.6231006
0
LINE
8
DEFAULT_255_2_778
10
16.9267793
20
137.3351006
11
16.6131793
21
137.3362006
0
LINE
8
DEFAULT_255_2_778
10
16.6131793
20
137.3362006
11
16.5348793
21
136.8941006
0
LINE
8
DEFAULT_255_2_778
10
16.5348793
20
136.8941006
11
16.7973793
21
136.8930006
0
LINE
8
DEFAULT_255_2_778
10
16.9267793
20
137.3349006
11
16.9267793
21
137.3351006
0
LINE
8
DEFAULT_255_2_778
10
16.7267793
20
137.9876006
11
16.6539793
21
137.5748006
0
LINE
8
DEFAULT_255_2_778
10
16.6539793
20
137.5748006
11
16.8798793
21
137.5725006
0
LINE
8
DEFAULT_255_2_778
10
16.9719793
20
137.9863006
11
16.7267793
21
137.9873006
0
LINE
8
DEFAULT_255_2_778
10
16.7267793
20
137.9873006
11
16.7267793
21
137.9876006
0
LINE
8
DEFAULT_255_2_778
10
18.4681793
20
137.8490006
11
18.4271793
21
137.5352006
0
LINE
8
DEFAULT_255_2_778
10
18.0477793
20
137.4195006
11
17.9056793
21
136.6231006
0
LINE
8
DEFAULT_255_2_778
10
17.9056793
20
136.6231006
11
17.5852793
21
136.6231006
0
LINE
8
DEFAULT_255_2_778
10
17.5852793
20
136.6231006
11
17.7987793
21
137.8402006
0
LINE
8
DEFAULT_255_2_778
10
17.7987793
20
137.8402006
11
18.0998793
21
137.8413006
0
LINE
8
DEFAULT_255_2_778
10
18.0998793
20
137.8413006
11
18.0702793
21
137.6928006
0
LINE
8
DEFAULT_255_2_778
10
18.4679793
20
137.8490006
11
18.4681793
21
137.8490006
0
LINE
8
DEFAULT_255_2_778
10
19.4122793
20
136.6229006
11
19.0976793
21
136.6229006
0
LINE
8
DEFAULT_255_2_778
10
19.0045793
20
137.3674006
11
19.1545793
21
137.3653006
0
LINE
8
DEFAULT_255_2_778
10
19.1545793
20
137.3653006
11
19.1703793
21
137.4383006
0
LINE
8
DEFAULT_255_2_778
10
18.8478793
20
137.4743006
11
18.5264793
21
137.4732006
0
LINE
8
DEFAULT_255_2_778
10
19.4939793
20
137.4338006
11
19.3997793
21
136.8512006
0
LINE
8
DEFAULT_255_2_778
10
19.3997793
20
136.8512006
11
19.3942793
21
136.7792006
0
LINE
8
DEFAULT_255_2_778
10
19.4135793
20
136.6443006
11
19.4124793
21
136.6229006
0
LINE
8
DEFAULT_255_2_778
10
19.4124793
20
136.6229006
11
19.4122793
21
136.6229006
0
LINE
8
DEFAULT_255_2_778
10
19.0928793
20
136.9660006
11
19.1325793
21
137.1764006
0
LINE
8
DEFAULT_255_2_778
10
19.1325793
20
137.1764006
11
19.0211793
21
137.1774006
0
LINE
8
DEFAULT_255_2_778
10
18.8510793
20
136.8470006
11
18.8510793
21
136.8467006
0
LINE
8
DEFAULT_255_2_778
10
20.4946793
20
137.7275006
11
20.6150793
21
138.3506006
0
LINE
8
DEFAULT_255_2_778
10
20.6150793
20
138.3506006
11
20.9364793
21
138.3506006
0
LINE
8
DEFAULT_255_2_778
10
20.9364793
20
138.3506006
11
20.6343793
21
136.6229006
0
LINE
8
DEFAULT_255_2_778
10
20.6343793
20
136.6229006
11
20.3480793
21
136.6229006
0
LINE
8
DEFAULT_255_2_778
10
20.3480793
20
136.6229006
11
20.3663793
21
136.7533006
0
LINE
8
DEFAULT_255_2_778
10
19.6632793
20
137.2089006
11
19.6701793
21
137.2595006
0
LINE
8
DEFAULT_255_2_778
10
20.2176793
20
137.8635006
11
20.2173793
21
137.8635006
0
LINE
8
DEFAULT_255_2_778
10
20.3755793
20
136.9896006
11
20.4631793
21
137.4732006
0
LINE
8
DEFAULT_255_2_778
10
19.9850793
20
137.2089006
11
19.9845793
21
137.2089006
0
LINE
8
DEFAULT_255_2_778
10
21.5304594
20
138.3506646
11
21.2282594
21
136.6229646
0
LINE
8
DEFAULT_255_2_778
10
21.2282594
20
136.6229646
11
20.9057594
21
136.6229646
0
LINE
8
DEFAULT_255_2_778
10
20.9057594
20
136.6229646
11
21.2089594
21
138.3506646
0
LINE
8
DEFAULT_255_2_778
10
21.2089594
20
138.3506646
11
21.5304594
21
138.3506646
0
LINE
8
DEFAULT_255_2_778
10
21.5304594
20
138.3506646
11
21.5304594
21
138.3506646
0
ARC
8
DEFAULT_255_2_778
10
22.0768767
20
137.1387764
40
0.5383522
50
238.763891
51
270.7055166
0
ARC
8
DEFAULT_255_2_778
10
22.0455625
20
137.083452
40
0.4748131
50
204.061185
51
238.5328679
0
ARC
8
DEFAULT_255_2_778
10
22.1281681
20
137.1230331
40
0.5663841
50
179.4896096
51
204.3103027
0
ARC
8
DEFAULT_255_2_778
10
22.2521843
20
137.1275727
40
0.6903781
50
175.123126
51
179.9580366
0
ARC
8
DEFAULT_255_2_778
10
22.3438479
20
137.1625152
40
0.7790728
50
149.5392097
51
174.9446897
0
ARC
8
DEFAULT_255_2_778
10
22.217984
20
137.2460212
40
0.628301
50
120.7003982
51
150.2846053
0
ARC
8
DEFAULT_255_2_778
10
22.1784851
20
137.3057024
40
0.556829
50
89.4236852
51
120.3409826
0
ARC
8
DEFAULT_255_2_778
10
22.1840352
20
137.2069671
40
0.6555361
50
88.4553682
51
89.9955718
0
ARC
8
DEFAULT_255_2_778
10
22.2069363
20
137.3911369
40
0.4711572
50
58.4514404
51
90.636095
0
ARC
8
DEFAULT_255_2_778
10
22.2332403
20
137.4545423
40
0.403504
50
35.6058989
51
56.9235594
0
ARC
8
DEFAULT_255_2_778
10
22.1229882
20
137.3807058
40
0.5361477
50
0.6851965
51
35.1616077
0
ARC
8
DEFAULT_255_2_778
10
21.9204313
20
137.3603229
40
0.7391521
50
359.9888194
51
2.0774415
0
ARC
8
DEFAULT_255_2_778
10
21.8068025
20
137.3620249
40
0.852783
50
353.383538
51
359.8759623
0
ARC
8
DEFAULT_255_2_778
10
22.293021
20
137.1096119
40
0.4107176
50
177.8018731
51
179.9839782
0
ARC
8
DEFAULT_255_2_778
10
22.1344217
20
137.098124
40
0.2523852
50
177.3650374
51
219.8309448
0
ARC
8
DEFAULT_255_2_778
10
22.1050068
20
137.0848401
40
0.2214564
50
222.0668323
51
271.55222
0
ARC
8
DEFAULT_255_2_778
10
22.1220002
20
137.2896289
40
0.4263057
50
268.5221572
51
269.9980687
0
ARC
8
DEFAULT_255_2_778
10
22.1204001
20
137.2600217
40
0.3967017
50
270.2290309
51
318.5203973
0
ARC
8
DEFAULT_255_2_778
10
22.1898056
20
137.0767979
40
0.4555006
50
292.4982989
51
325.2807674
0
ARC
8
DEFAULT_255_2_778
10
22.0999907
20
137.2553545
40
0.6549996
50
269.6158853
51
293.7802026
0
ARC
8
DEFAULT_255_2_778
10
22.0956026
20
137.342233
40
0.7418635
50
269.0811303
51
269.9997673
0
ARC
8
DEFAULT_255_2_778
10
22.1793249
20
137.3351977
40
0.2651417
50
88.6426435
51
89.9971979
0
ARC
8
DEFAULT_255_2_778
10
22.1775009
20
137.3704788
40
0.2298681
50
89.5421073
51
130.5025885
0
ARC
8
DEFAULT_255_2_778
10
22.2762398
20
137.2703327
40
0.370282
50
132.0556576
51
154.4346079
0
ARC
8
DEFAULT_255_2_778
10
22.6775288
20
137.0527869
40
0.8264843
50
152.8348001
51
159.2008974
0
ARC
8
DEFAULT_255_2_778
10
22.042515
20
137.4237268
40
0.3137404
50
351.1327381
51
359.8552777
0
ARC
8
DEFAULT_255_2_778
10
22.0889744
20
137.4233274
40
0.2672803
50
359.9157472
51
8.073482
0
ARC
8
DEFAULT_255_2_778
10
22.1916726
20
137.4386276
40
0.1634528
50
7.8192239
51
49.4174523
0
ARC
8
DEFAULT_255_2_778
10
22.1897336
20
137.4254377
40
0.174876
50
51.746929
51
91.3525911
0
LINE
8
DEFAULT_255_2_778
10
21.5643056
20
137.186265
11
21.5678056
21
137.231165
0
LINE
8
DEFAULT_255_2_778
10
22.6539056
20
137.263765
11
22.6356056
21
137.125365
0
LINE
8
DEFAULT_255_2_778
10
22.6356056
20
137.125365
11
21.8826056
21
137.125365
0
LINE
8
DEFAULT_255_2_778
10
22.4176056
20
136.997265
11
22.5642056
21
136.817365
0
LINE
8
DEFAULT_255_2_778
10
22.0837056
20
136.600465
11
22.0835056
21
136.600465
0
LINE
8
DEFAULT_255_2_778
10
21.9049056
20
137.346265
11
22.3456056
21
137.346265
0
LINE
8
DEFAULT_255_2_778
10
22.3456056
20
137.346265
11
22.3525056
21
137.375365
0
LINE
8
DEFAULT_255_2_778
10
22.1856056
20
137.600265
11
22.1856056
21
137.600265
0
ARC
8
DEFAULT_255_2_778
10
22.5732251
20
136.7393848
40
0.7187609
50
318.1171527
51
335.3457065
0
ARC
8
DEFAULT_255_2_778
10
22.7861338
20
136.5572586
40
0.4387075
50
306.2044829
51
317.2623563
0
ARC
8
DEFAULT_255_2_778
10
22.8118587
20
136.5265063
40
0.3987066
50
269.0092455
51
305.8318035
0
ARC
8
DEFAULT_255_2_778
10
22.8209703
20
136.6911254
40
0.5634934
50
257.9736769
51
268.3723286
0
ARC
8
DEFAULT_255_2_778
10
22.976467
20
137.5453273
40
1.431581
50
256.8370098
51
259.0102636
0
ARC
8
DEFAULT_255_2_778
10
22.7299218
20
136.793381
40
0.396887
50
268.3457775
51
269.9906226
0
ARC
8
DEFAULT_255_2_778
10
22.744688
20
136.6339479
40
0.2379166
50
266.425992
51
328.6474802
0
LINE
8
DEFAULT_255_2_778
10
23.1491646
20
137.8399594
11
23.2378646
21
137.0864594
0
LINE
8
DEFAULT_255_2_778
10
23.2378646
20
137.0864594
11
23.5889646
21
137.8399594
0
LINE
8
DEFAULT_255_2_778
10
23.5889646
20
137.8399594
11
23.9453646
21
137.8399594
0
LINE
8
DEFAULT_255_2_778
10
23.9453646
20
137.8399594
11
23.2264646
21
136.4395594
0
LINE
8
DEFAULT_255_2_778
10
22.6504646
20
136.1513594
11
22.6742646
21
136.3987594
0
LINE
8
DEFAULT_255_2_778
10
22.6742646
20
136.3987594
11
22.7184646
21
136.3966594
0
LINE
8
DEFAULT_255_2_778
10
22.9478646
20
136.5101594
11
23.0182646
21
136.6395594
0
LINE
8
DEFAULT_255_2_778
10
23.0182646
20
136.6395594
11
22.8171646
21
137.8396594
0
LINE
8
DEFAULT_255_2_778
10
22.8171646
20
137.8396594
11
23.1489646
21
137.8396594
0
LINE
8
DEFAULT_255_2_778
10
23.1489646
20
137.8396594
11
23.1491646
21
137.8399594
0
LINE
8
DEFAULT_255_2_778
10
5.4244542
20
138.2394666
11
5.4244542
21
137.0541666
0
LINE
8
DEFAULT_255_2_778
10
5.4244542
20
137.0541666
11
8.3507542
21
137.0171666
0
LINE
8
DEFAULT_255_2_778
10
8.3507542
20
137.0171666
11
8.3507542
21
138.2394666
0
LINE
8
DEFAULT_255_2_778
10
8.3507542
20
138.2394666
11
7.4246542
21
139.0914666
0
LINE
8
DEFAULT_255_2_778
10
7.4246542
20
139.0914666
11
6.2764542
21
139.0914666
0
LINE
8
DEFAULT_255_2_778
10
6.2764542
20
139.0914666
11
5.4244542
21
138.2394666
0
LINE
8
DEFAULT_255_2_778
10
5.5726542
20
136.8319666
11
8.2025542
21
136.8319666
0
LINE
8
DEFAULT_255_2_778
10
8.2025542
20
136.8319666
11
7.4617542
21
136.1281666
0
LINE
8
DEFAULT_255_2_778
10
7.4617542
20
136.1281666
11
6.3504542
21
136.1281666
0
LINE
8
DEFAULT_255_2_778
10
6.3504542
20
136.1281666
11
5.5726542
21
136.8319666
0
ARC
8
DEFAULT_255_2_778
10
7.8458226
20
137.3810768
40
0.1423419
50
264.5115721
51
318.4176283
0
ARC
8
DEFAULT_255_2_778
10
7.8189879
20
137.3781225
40
0.1616977
50
325.5297452
51
3.3557414
0
ARC
8
DEFAULT_255_2_778
10
7.8389795
20
137.7346157
40
0.142084
50
354.4959081
51
48.5537602
0
ARC
8
DEFAULT_255_2_778
10
7.8416444
20
137.7074068
40
0.1619557
50
55.6500697
51
93.3401169
0
ARC
8
DEFAULT_255_2_778
10
7.8414709
20
137.933925
40
0.0654958
50
261.8698976
51
8.1301024
0
ARC
8
DEFAULT_255_2_778
10
7.7988672
20
138.3166455
40
0.1074847
50
358.3696885
51
95.9524071
0
ARC
8
DEFAULT_255_2_778
10
7.7588839
20
138.0882916
40
0.3364968
50
85.0838783
51
90.1320543
0
LINE
8
DEFAULT_255_2_778
10
5.6838084
20
137.2393875
11
6.1283084
21
138.4617875
0
LINE
8
DEFAULT_255_2_778
10
6.1283084
20
138.4617875
11
6.3876084
21
138.4617875
0
LINE
8
DEFAULT_255_2_778
10
6.3876084
20
138.4617875
11
6.8691084
21
137.2764875
0
LINE
8
DEFAULT_255_2_778
10
6.8691084
20
137.2764875
11
6.5358084
21
137.2764875
0
LINE
8
DEFAULT_255_2_778
10
6.5358084
20
137.2764875
11
6.4246084
21
137.5357875
0
LINE
8
DEFAULT_255_2_778
10
6.4246084
20
137.5357875
11
6.0913084
21
137.5357875
0
LINE
8
DEFAULT_255_2_778
10
6.0913084
20
137.5357875
11
6.0913084
21
137.6838875
0
LINE
8
DEFAULT_255_2_778
10
6.0913084
20
137.6838875
11
6.3876084
21
137.6838875
0
LINE
8
DEFAULT_255_2_778
10
6.3876084
20
137.6838875
11
6.2024084
21
138.1283875
0
LINE
8
DEFAULT_255_2_778
10
6.2024084
20
138.1283875
11
5.8690084
21
137.2393875
0
LINE
8
DEFAULT_255_2_778
10
5.8690084
20
137.2393875
11
5.6838084
21
137.2393875
0
LINE
8
DEFAULT_255_2_778
10
5.6838084
20
137.2393875
11
5.6838084
21
137.2393875
0
LINE
8
DEFAULT_255_2_778
10
6.7580084
20
137.9061875
11
6.9062084
21
137.9061875
0
LINE
8
DEFAULT_255_2_778
10
6.9062084
20
137.9061875
11
6.9062084
21
137.7579875
0
LINE
8
DEFAULT_255_2_778
10
6.9062084
20
137.7579875
11
6.7580084
21
137.7579875
0
LINE
8
DEFAULT_255_2_778
10
6.7580084
20
137.7579875
11
6.7580084
21
137.9061875
0
LINE
8
DEFAULT_255_2_778
10
7.2766084
20
138.2395875
11
7.6100084
21
138.2395875
0
LINE
8
DEFAULT_255_2_778
10
7.6100084
20
138.2395875
11
7.6100084
21
137.8690875
0
LINE
8
DEFAULT_255_2_778
10
7.6100084
20
137.8690875
11
7.3507084
21
137.8690875
0
LINE
8
DEFAULT_255_2_778
10
7.3507084
20
137.8690875
11
7.3507084
21
137.7209875
0
LINE
8
DEFAULT_255_2_778
10
7.3507084
20
137.7209875
11
7.6840084
21
137.7209875
0
LINE
8
DEFAULT_255_2_778
10
7.6840084
20
137.7209875
11
7.6840084
21
137.3875875
0
LINE
8
DEFAULT_255_2_778
10
7.6840084
20
137.3875875
11
7.2766084
21
137.3875875
0
LINE
8
DEFAULT_255_2_778
10
7.2766084
20
137.3875875
11
7.2766084
21
138.2395875
0
LINE
8
DEFAULT_255_2_778
10
7.2766084
20
138.2395875
11
7.2766084
21
138.2395875
0
LINE
8
DEFAULT_255_2_778
10
6.9803084
20
138.4247875
11
6.9803084
21
137.2393875
0
LINE
8
DEFAULT_255_2_778
10
6.9803084
20
137.2393875
11
7.8322084
21
137.2393875
0
LINE
8
DEFAULT_255_2_778
10
7.9804084
20
137.3875875
11
7.9804084
21
137.7209875
0
LINE
8
DEFAULT_255_2_778
10
7.9063084
20
137.9431875
11
7.9063084
21
138.3135875
0
LINE
8
DEFAULT_255_2_778
10
7.7581084
20
138.4247875
11
6.9803084
21
138.4247875
0
LINE
8
DEFAULT_255_2_778
10
6.9803084
20
138.4247875
11
6.9803084
21
138.4247875
0
LINE
8
DEFAULT_255_2_778
10
6.3394427
20
136.4490198
11
6.3367427
21
136.4490198
0
ARC
8
DEFAULT_255_2_778
10
6.3340483
20
136.5740854
40
0.1250946
50
247.1356448
51
271.2341787
0
ARC
8
DEFAULT_255_2_778
10
6.3160916
20
136.5317164
40
0.0790776
50
215.0349981
51
247.1960091
0
ARC
8
DEFAULT_255_2_778
10
6.3109464
20
136.5263964
40
0.0718243
50
178.625123
51
213.9163394
0
ARC
8
DEFAULT_255_2_778
10
6.3131693
20
136.6434391
40
0.0740421
50
147.0420611
51
181.175799
0
ARC
8
DEFAULT_255_2_778
10
6.3147919
20
136.6395628
40
0.0775487
50
112.4780918
51
145.2909011
0
ARC
8
DEFAULT_255_2_778
10
6.333917
20
136.5951534
40
0.1258981
50
88.7138988
51
112.7934617
0
ARC
8
DEFAULT_255_2_778
10
6.339481
20
136.5956878
40
0.1253619
50
67.159311
51
91.2516049
0
ARC
8
DEFAULT_255_2_778
10
6.3569794
20
136.6376852
40
0.0798654
50
35.1978461
51
67.0331611
0
ARC
8
DEFAULT_255_2_778
10
6.3626391
20
136.6436431
40
0.0718243
50
358.625123
51
33.9163394
0
ARC
8
DEFAULT_255_2_778
10
6.3604162
20
136.5266004
40
0.0740421
50
327.0420611
51
1.175799
0
ARC
8
DEFAULT_255_2_778
10
6.361381
20
136.5278218
40
0.0739133
50
291.6436853
51
325.8406333
0
ARC
8
DEFAULT_255_2_778
10
6.3401809
20
136.536874
40
0.0482768
50
265.9160158
51
308.3617549
0
ARC
8
DEFAULT_255_2_778
10
6.3451719
20
136.5258207
40
0.036631
50
312.9754563
51
3.2850623
0
ARC
8
DEFAULT_255_2_778
10
6.3448152
20
136.643502
40
0.0369754
50
357.082104
51
47.4006092
0
ARC
8
DEFAULT_255_2_778
10
6.339634
20
136.6333686
40
0.0480383
50
51.0349629
51
93.4505724
0
ARC
8
DEFAULT_255_2_778
10
6.3340455
20
136.633049
40
0.0483461
50
86.8017862
51
128.8135095
0
ARC
8
DEFAULT_255_2_778
10
6.3287702
20
136.643502
40
0.0369754
50
132.5993908
51
182.917896
0
ARC
8
DEFAULT_255_2_778
10
6.3284135
20
136.5258207
40
0.036631
50
176.7149377
51
227.0245437
0
ARC
8
DEFAULT_255_2_778
10
6.3334908
20
136.537186
40
0.0485752
50
231.7867693
51
273.8385805
0
ARC
8
DEFAULT_255_2_778
10
6.5570034
20
136.5255567
40
0.0766655
50
226.2029837
51
273.3195937
0
ARC
8
DEFAULT_255_2_778
10
6.5622798
20
136.5235746
40
0.0790566
50
176.8492311
51
222.4458356
0
ARC
8
DEFAULT_255_2_778
10
6.5699928
20
136.5254647
40
0.043631
50
176.5112098
51
217.639275
0
ARC
8
DEFAULT_255_2_778
10
6.5593879
20
136.5203664
40
0.0322122
50
221.9818643
51
273.6574471
0
ARC
8
DEFAULT_255_2_778
10
6.5632217
20
136.5208151
40
0.0326438
50
266.8760675
51
317.6392064
0
ARC
8
DEFAULT_255_2_778
10
6.5527926
20
136.5254647
40
0.043631
50
322.360725
51
3.4887902
0
ARC
8
DEFAULT_255_2_778
10
6.5605056
20
136.5235746
40
0.0790566
50
317.5541644
51
3.1507689
0
ARC
8
DEFAULT_255_2_778
10
6.5656687
20
136.5258223
40
0.0769357
50
266.6274163
51
313.7210327
0
LINE
8
DEFAULT_255_2_778
10
6.4394427
20
136.3874198
11
6.3828427
21
136.3874198
0
LINE
8
DEFAULT_255_2_778
10
6.3828427
20
136.3874198
11
6.3394427
21
136.4490198
0
LINE
8
DEFAULT_255_2_778
10
6.2391427
20
136.5281198
11
6.2391427
21
136.6419198
0
LINE
8
DEFAULT_255_2_778
10
6.4344427
20
136.6419198
11
6.4344427
21
136.5281198
0
LINE
8
DEFAULT_255_2_778
10
6.3886427
20
136.4591198
11
6.4394427
21
136.3876198
0
LINE
8
DEFAULT_255_2_778
10
6.4394427
20
136.3876198
11
6.4394427
21
136.3874198
0
LINE
8
DEFAULT_255_2_778
10
6.3817427
20
136.5279198
11
6.3817427
21
136.6416198
0
LINE
8
DEFAULT_255_2_778
10
6.2918427
20
136.6416198
11
6.2918427
21
136.5279198
0
LINE
8
DEFAULT_255_2_778
10
6.3367427
20
136.4887198
11
6.3367427
21
136.4887198
0
LINE
8
DEFAULT_255_2_778
10
6.4833427
20
136.5279198
11
6.4833427
21
136.7170198
0
LINE
8
DEFAULT_255_2_778
10
6.4833427
20
136.7170198
11
6.5264427
21
136.7170198
0
LINE
8
DEFAULT_255_2_778
10
6.5264427
20
136.7170198
11
6.5264427
21
136.5281198
0
LINE
8
DEFAULT_255_2_778
10
6.5963427
20
136.5281198
11
6.5963427
21
136.7170198
0
LINE
8
DEFAULT_255_2_778
10
6.5963427
20
136.7170198
11
6.6394427
21
136.7170198
0
LINE
8
DEFAULT_255_2_778
10
6.6394427
20
136.7170198
11
6.6394427
21
136.5279198
0
LINE
8
DEFAULT_255_2_778
10
6.5611427
20
136.4490198
11
6.5614427
21
136.4490198
0
ARC
8
DEFAULT_255_2_778
10
12.1641553
20
137.7521635
40
5.5033955
50
191.4837585
51
191.8239227
0
ARC
8
DEFAULT_255_2_778
10
8.3589245
20
136.9483972
40
1.6145995
50
189.6626565
51
190.4158531
0
ARC
8
DEFAULT_255_2_778
10
6.1197449
20
136.7812409
40
0.6557616
50
349.0334606
51
350.8880298
0
ARC
8
DEFAULT_255_2_778
10
6.0674183
20
136.7848866
40
0.7078549
50
346.9283592
51
349.5494987
0
ARC
8
DEFAULT_255_2_778
10
7.2958769
20
136.5540243
40
0.1856762
50
15.5793022
51
22.5708948
0
ARC
8
DEFAULT_255_2_778
10
7.3328007
20
136.5588058
40
0.1489195
50
11.1061152
51
17.6230497
0
ARC
8
DEFAULT_255_2_778
10
8.063214
20
136.4430593
40
0.6018696
50
164.5010167
51
166.1150622
0
ARC
8
DEFAULT_255_2_778
10
7.6620856
20
136.5540243
40
0.1856762
50
157.4291052
51
164.4206978
0
LINE
8
DEFAULT_255_2_778
10
6.7201313
20
136.4524917
11
6.6762313
21
136.4524917
0
LINE
8
DEFAULT_255_2_778
10
6.6762313
20
136.4524917
11
6.7392313
21
136.7170917
0
LINE
8
DEFAULT_255_2_778
10
6.7392313
20
136.7170917
11
6.7942313
21
136.7170917
0
LINE
8
DEFAULT_255_2_778
10
6.7942313
20
136.7170917
11
6.8577313
21
136.4524917
0
LINE
8
DEFAULT_255_2_778
10
6.8577313
20
136.4524917
11
6.8138313
21
136.4524917
0
LINE
8
DEFAULT_255_2_778
10
6.8138313
20
136.4524917
11
6.8000313
21
136.5164917
0
LINE
8
DEFAULT_255_2_778
10
6.8000313
20
136.5164917
11
6.7336313
21
136.5164917
0
LINE
8
DEFAULT_255_2_778
10
6.7336313
20
136.5164917
11
6.7199313
21
136.4524917
0
LINE
8
DEFAULT_255_2_778
10
6.7199313
20
136.4524917
11
6.7201313
21
136.4524917
0
LINE
8
DEFAULT_255_2_778
10
6.7569313
20
136.6249917
11
6.7418313
21
136.5535917
0
LINE
8
DEFAULT_255_2_778
10
6.7418313
20
136.5535917
11
6.7926313
21
136.5535917
0
LINE
8
DEFAULT_255_2_778
10
6.7926313
20
136.5535917
11
6.7775313
21
136.6244917
0
LINE
8
DEFAULT_255_2_778
10
6.7569313
20
136.6247917
11
6.7569313
21
136.6249917
0
LINE
8
DEFAULT_255_2_778
10
7.0231313
20
136.4524917
11
6.8741313
21
136.4524917
0
LINE
8
DEFAULT_255_2_778
10
6.8741313
20
136.4524917
11
6.8741313
21
136.7170917
0
LINE
8
DEFAULT_255_2_778
10
6.8741313
20
136.7170917
11
6.9170313
21
136.7170917
0
LINE
8
DEFAULT_255_2_778
10
6.9170313
20
136.7170917
11
6.9170313
21
136.4934917
0
LINE
8
DEFAULT_255_2_778
10
6.9170313
20
136.4934917
11
7.0231313
21
136.4934917
0
LINE
8
DEFAULT_255_2_778
10
7.0231313
20
136.4934917
11
7.0231313
21
136.4524917
0
LINE
8
DEFAULT_255_2_778
10
7.0231313
20
136.4524917
11
7.0231313
21
136.4524917
0
LINE
8
DEFAULT_255_2_778
10
7.1760313
20
136.4524917
11
7.0321313
21
136.4524917
0
LINE
8
DEFAULT_255_2_778
10
7.0321313
20
136.4524917
11
7.0321313
21
136.4934917
0
LINE
8
DEFAULT_255_2_778
10
7.0321313
20
136.4934917
11
7.0823313
21
136.4934917
0
LINE
8
DEFAULT_255_2_778
10
7.0823313
20
136.4934917
11
7.0823313
21
136.6760917
0
LINE
8
DEFAULT_255_2_778
10
7.0823313
20
136.6760917
11
7.0321313
21
136.6760917
0
LINE
8
DEFAULT_255_2_778
10
7.0321313
20
136.6760917
11
7.0321313
21
136.7170917
0
LINE
8
DEFAULT_255_2_778
10
7.0321313
20
136.7170917
11
7.1760313
21
136.7170917
0
LINE
8
DEFAULT_255_2_778
10
7.1760313
20
136.7170917
11
7.1760313
21
136.6760917
0
LINE
8
DEFAULT_255_2_778
10
7.1760313
20
136.6760917
11
7.1257313
21
136.6760917
0
LINE
8
DEFAULT_255_2_778
10
7.1257313
20
136.6760917
11
7.1257313
21
136.4934917
0
LINE
8
DEFAULT_255_2_778
10
7.1257313
20
136.4934917
11
7.1760313
21
136.4934917
0
LINE
8
DEFAULT_255_2_778
10
7.1760313
20
136.4934917
11
7.1760313
21
136.4524917
0
LINE
8
DEFAULT_255_2_778
10
7.1760313
20
136.4524917
11
7.1760313
21
136.4524917
0
LINE
8
DEFAULT_255_2_778
10
7.2940313
20
136.4524917
11
7.2509313
21
136.4524917
0
LINE
8
DEFAULT_255_2_778
10
7.2509313
20
136.4524917
11
7.2509313
21
136.6760917
0
LINE
8
DEFAULT_255_2_778
10
7.2509313
20
136.6760917
11
7.1855313
21
136.6760917
0
LINE
8
DEFAULT_255_2_778
10
7.1855313
20
136.6760917
11
7.1855313
21
136.7170917
0
LINE
8
DEFAULT_255_2_778
10
7.1855313
20
136.7170917
11
7.3596313
21
136.7170917
0
LINE
8
DEFAULT_255_2_778
10
7.3596313
20
136.7170917
11
7.3596313
21
136.6760917
0
LINE
8
DEFAULT_255_2_778
10
7.3596313
20
136.6760917
11
7.2943313
21
136.6760917
0
LINE
8
DEFAULT_255_2_778
10
7.2943313
20
136.6760917
11
7.2943313
21
136.4524917
0
LINE
8
DEFAULT_255_2_778
10
7.2943313
20
136.4524917
11
7.2940313
21
136.4524917
0
LINE
8
DEFAULT_255_2_778
10
7.4996313
20
136.4524917
11
7.4565313
21
136.4524917
0
LINE
8
DEFAULT_255_2_778
10
7.4565313
20
136.4524917
11
7.4565313
21
136.5485917
0
LINE
8
DEFAULT_255_2_778
10
7.4565313
20
136.5485917
11
7.3832313
21
136.7170917
0
LINE
8
DEFAULT_255_2_778
10
7.3832313
20
136.7170917
11
7.4281313
21
136.7170917
0
LINE
8
DEFAULT_255_2_778
10
7.4281313
20
136.7170917
11
7.4673313
21
136.6252917
0
LINE
8
DEFAULT_255_2_778
10
7.4906313
20
136.6252917
11
7.5287313
21
136.7170917
0
LINE
8
DEFAULT_255_2_778
10
7.5287313
20
136.7170917
11
7.5731313
21
136.7170917
0
LINE
8
DEFAULT_255_2_778
10
7.5731313
20
136.7170917
11
7.4998313
21
136.5485917
0
LINE
8
DEFAULT_255_2_778
10
7.4998313
20
136.5485917
11
7.4998313
21
136.4524917
0
LINE
8
DEFAULT_255_2_778
10
7.4998313
20
136.4524917
11
7.4996313
21
136.4524917
0
LINE
8
DEFAULT_255_1_388
10
9.052132
20
134.0537468
11
9.2265199
21
134.0537468
0
LINE
8
DEFAULT_255_1_388
10
8.2136242
20
134.2326525
11
8.2136242
21
134.3591516
0
LINE
8
DEFAULT_255_1_388
10
9.2265199
20
134.5290217
11
9.052132
21
134.5290217
0
LINE
8
DEFAULT_255_1_388
10
8.3880121
20
134.3546337
11
8.3880121
21
134.2272312
0
ARC
8
DEFAULT_255_1_388
10
8.6099433
20
134.1209329
40
0.6202263
50
340.1774904
51
353.7812217
0
ARC
8
DEFAULT_255_1_388
10
8.7867286
20
134.0550893
40
0.4315926
50
311.4560052
51
340.4420756
0
ARC
8
DEFAULT_255_1_388
10
8.7829826
20
134.0675665
40
0.4434573
50
282.4332229
51
310.7514507
0
ARC
8
DEFAULT_255_1_388
10
8.7335644
20
134.2717703
40
0.6535262
50
269.9358869
51
282.8096729
0
ARC
8
DEFAULT_255_1_388
10
8.7277583
20
134.4230329
40
0.8048043
50
269.9995752
51
270.3612856
0
ARC
8
DEFAULT_255_1_388
10
8.7218073
20
134.1431781
40
0.5249831
50
250.7885263
51
270.6488451
0
ARC
8
DEFAULT_255_1_388
10
8.7028898
20
134.0714853
40
0.4510942
50
219.3628377
51
250.0611024
0
ARC
8
DEFAULT_255_1_388
10
8.7961772
20
134.1507653
40
0.5735046
50
193.5480293
51
219.5755675
0
ARC
8
DEFAULT_255_1_388
10
9.0629981
20
134.220052
40
0.849146
50
181.1220183
51
193.8754971
0
ARC
8
DEFAULT_255_1_388
10
9.2953214
20
134.2324914
40
1.0816971
50
179.9914644
51
181.5398227
0
ARC
8
DEFAULT_255_1_388
10
9.0876525
20
134.3633586
40
0.8740384
50
169.5837606
51
180.275782
0
ARC
8
DEFAULT_255_1_388
10
8.8809873
20
134.4015439
40
0.6638751
50
155.0367033
51
169.6002779
0
ARC
8
DEFAULT_255_1_388
10
8.7532331
20
134.4631336
40
0.5220662
50
136.7831557
51
155.2472983
0
ARC
8
DEFAULT_255_1_388
10
8.7094122
20
134.5003577
40
0.4646502
50
121.7633063
51
136.4281161
0
ARC
8
DEFAULT_255_1_388
10
8.7245962
20
134.4723049
40
0.4964979
50
95.6460018
51
121.5489589
0
ARC
8
DEFAULT_255_1_388
10
8.7422936
20
134.3475704
40
0.6223912
50
89.9245727
51
96.1375919
0
ARC
8
DEFAULT_255_1_388
10
8.7479641
20
134.3609721
40
0.6090084
50
76.6779212
51
90.456405
0
ARC
8
DEFAULT_255_1_388
10
8.7922454
20
134.539906
40
0.42469
50
47.4858803
51
76.9287069
0
ARC
8
DEFAULT_255_1_388
10
8.7757068
20
134.5286623
40
0.4441778
50
16.5424081
51
46.8934505
0
ARC
8
DEFAULT_255_1_388
10
8.5948118
20
134.4692265
40
0.6345318
50
5.4072971
51
17.0363711
0
ARC
8
DEFAULT_255_1_388
10
8.4329843
20
134.4432304
40
0.6250632
50
7.8888693
51
15.9242022
0
ARC
8
DEFAULT_255_1_388
10
8.6564828
20
134.5081309
40
0.3923364
50
15.7650676
51
27.9410069
0
ARC
8
DEFAULT_255_1_388
10
8.7806997
20
134.5746317
40
0.2514401
50
27.8167196
51
46.4007942
0
ARC
8
DEFAULT_255_1_388
10
8.7862839
20
134.5739882
40
0.2480958
50
47.4372362
51
75.0695672
0
ARC
8
DEFAULT_255_1_388
10
8.7515675
20
134.4531277
40
0.3738281
50
74.7009379
51
87.8124314
0
ARC
8
DEFAULT_255_1_388
10
8.7433292
20
134.3347659
40
0.4924321
50
87.3802571
51
90.0251599
0
ARC
8
DEFAULT_255_1_388
10
8.7389939
20
134.4667997
40
0.3604218
50
89.3451886
51
108.5744412
0
ARC
8
DEFAULT_255_1_388
10
8.7235931
20
134.5245836
40
0.3007661
50
109.2998307
51
143.3037387
0
ARC
8
DEFAULT_255_1_388
10
8.8093221
20
134.4586584
40
0.4089031
50
143.075267
51
163.1918576
0
ARC
8
DEFAULT_255_1_388
10
9.0289055
20
134.3893652
40
0.6391492
50
162.9375929
51
174.6208776
0
ARC
8
DEFAULT_255_1_388
10
9.3243437
20
134.3569711
40
0.9363344
50
174.342123
51
180.1430283
0
ARC
8
DEFAULT_255_1_388
10
9.2195978
20
134.2226117
40
0.8315986
50
179.6817261
51
189.150555
0
ARC
8
DEFAULT_255_1_388
10
8.9382727
20
134.1757559
40
0.5464044
50
188.9911061
51
203.5772363
0
ARC
8
DEFAULT_255_1_388
10
8.8168019
20
134.1253539
40
0.4149206
50
203.9075402
51
215.1312435
0
ARC
8
DEFAULT_255_1_388
10
8.7129817
20
134.0448907
40
0.2837747
50
213.9071511
51
263.8848919
0
ARC
8
DEFAULT_255_1_388
10
8.727081
20
134.1331519
40
0.3730641
50
263.1757928
51
270.1031044
0
ARC
8
DEFAULT_255_1_388
10
8.730689
20
134.2734511
40
0.5133712
50
269.6722503
51
279.0606936
0
ARC
8
DEFAULT_255_1_388
10
8.7607045
20
134.092015
40
0.3294739
50
278.8749101
51
293.6349581
0
ARC
8
DEFAULT_255_1_388
10
8.7967249
20
134.0074251
40
0.2375405
50
293.8553806
51
310.0518171
0
ARC
8
DEFAULT_255_1_388
10
8.7972758
20
134.0004021
40
0.2318463
50
311.0644687
51
332.0111037
0
ARC
8
DEFAULT_255_1_388
10
8.6631431
20
134.0743702
40
0.3850112
50
331.6586806
51
343.2877423
0
ARC
8
DEFAULT_255_1_388
10
8.4310896
20
134.1456806
40
0.6277712
50
343.1446576
51
351.0103568
0
ARC
8
DEFAULT_255_1_388
10
8.267822
20
134.1756873
40
0.7937327
50
350.71248
51
351.1626997
0
LINE
8
DEFAULT_255_1_388
10
9.3927758
20
134.1224177
11
9.3927758
21
134.134164
0
LINE
8
DEFAULT_255_1_388
10
10.2827868
20
134.1260319
11
10.2827868
21
134.1142856
0
ARC
8
DEFAULT_255_1_388
10
10.0212202
20
134.137804
40
0.628455
50
166.3005265
51
180.3318609
0
ARC
8
DEFAULT_255_1_388
10
9.9241552
20
134.1595267
40
0.52901
50
153.8608648
51
166.0965672
0
ARC
8
DEFAULT_255_1_388
10
9.8492718
20
134.1996652
40
0.4441126
50
135.1317053
51
154.2534962
0
ARC
8
DEFAULT_255_1_388
10
9.8179369
20
134.2273431
40
0.4023863
50
121.7042632
51
134.7771455
0
ARC
8
DEFAULT_255_1_388
10
9.8254801
20
134.2128469
40
0.4186852
50
93.4001111
51
121.5399523
0
ARC
8
DEFAULT_255_1_388
10
9.8361635
20
134.1198759
40
0.5121521
50
89.9706387
51
93.9763381
0
ARC
8
DEFAULT_255_1_388
10
9.8414619
20
134.1638563
40
0.4681988
50
71.3321659
51
90.6162917
0
ARC
8
DEFAULT_255_1_388
10
9.8597653
20
134.2316003
40
0.3981841
50
41.1813875
51
70.7072086
0
ARC
8
DEFAULT_255_1_388
10
9.8060369
20
134.182813
40
0.4707474
50
12.1971434
51
41.3446641
0
ARC
8
DEFAULT_255_1_388
10
9.5893633
20
134.1312328
40
0.6934429
50
359.5702713
51
12.5803533
0
ARC
8
DEFAULT_255_1_388
10
9.6425949
20
134.1107207
40
0.6402018
50
347.0196754
51
0.3190452
0
ARC
8
DEFAULT_255_1_388
10
9.7504002
20
134.0875189
40
0.5299421
50
334.350439
51
346.8460534
0
ARC
8
DEFAULT_255_1_388
10
9.8455249
20
134.0381244
40
0.4228234
50
310.4228125
51
334.8045131
0
ARC
8
DEFAULT_255_1_388
10
9.8547227
20
134.0309301
40
0.4113892
50
301.8488154
51
310.0972985
0
ARC
8
DEFAULT_255_1_388
10
9.8510967
20
134.0394573
40
0.4205483
50
274.3078723
51
301.6554173
0
ARC
8
DEFAULT_255_1_388
10
9.8386423
20
134.1381943
40
0.5199658
50
269.954904
51
274.859116
0
ARC
8
DEFAULT_255_1_388
10
9.8331247
20
134.0818239
40
0.4636233
50
250.8887647
51
270.6313164
0
ARC
8
DEFAULT_255_1_388
10
9.8162407
20
134.0189405
40
0.398705
50
221.1701369
51
250.2227012
0
ARC
8
DEFAULT_255_1_388
10
9.8707073
20
134.0685716
40
0.4723796
50
191.6263861
51
221.3526879
0
ARC
8
DEFAULT_255_1_388
10
10.0830918
20
134.1177203
40
0.6903321
50
179.6101251
51
192.0694841
0
ARC
8
DEFAULT_255_1_388
10
10.1307266
20
134.1106681
40
0.5698993
50
179.636304
51
190.6161344
0
ARC
8
DEFAULT_255_1_388
10
9.9459598
20
134.0746635
40
0.3816643
50
190.4136062
51
208.7168709
0
ARC
8
DEFAULT_255_1_388
10
9.8885632
20
134.0461905
40
0.3176572
50
209.187109
51
217.4221816
0
ARC
8
DEFAULT_255_1_388
10
9.8290102
20
133.9937729
40
0.2385702
50
216.1156863
51
265.2575395
0
ARC
8
DEFAULT_255_1_388
10
9.8379139
20
134.0582608
40
0.3035941
50
264.5891546
51
270.0602378
0
ARC
8
DEFAULT_255_1_388
10
9.8416335
20
134.0155539
40
0.2609091
50
269.2532353
51
291.8793864
0
ARC
8
DEFAULT_255_1_388
10
9.8449214
20
133.9955359
40
0.241148
50
292.9269367
51
323.1777736
0
ARC
8
DEFAULT_255_1_388
10
9.79785
20
134.0368762
40
0.3036446
50
322.25666
51
323.087958
0
ARC
8
DEFAULT_255_1_388
10
9.7675757
20
134.0551332
40
0.3388345
50
323.6941379
51
343.8493587
0
ARC
8
DEFAULT_255_1_388
10
9.5900193
20
134.1091698
40
0.5244204
50
343.5746655
51
355.008149
0
ARC
8
DEFAULT_255_1_388
10
9.3641885
20
134.1325797
40
0.7514406
50
354.728272
51
0.1208026
0
ARC
8
DEFAULT_255_1_388
10
9.5630911
20
134.1377947
40
0.5525482
50
359.6235211
51
11.2016685
0
ARC
8
DEFAULT_255_1_388
10
9.7356738
20
134.1733284
40
0.3763527
50
10.9991302
51
30.8317616
0
ARC
8
DEFAULT_255_1_388
10
9.7802042
20
134.1967988
40
0.3260975
50
31.3007463
51
37.395541
0
ARC
8
DEFAULT_255_1_388
10
9.8360761
20
134.2439773
40
0.253082
50
36.5918894
51
62.2439906
0
ARC
8
DEFAULT_255_1_388
10
9.8413052
20
134.2436378
40
0.2509927
50
63.3364883
51
89.7193846
0
ARC
8
DEFAULT_255_1_388
10
9.8364506
20
134.1788375
40
0.3158485
50
88.8962924
51
90.004475
0
ARC
8
DEFAULT_255_1_388
10
9.8328933
20
134.2441071
40
0.250604
50
89.1923115
51
114.7099029
0
ARC
8
DEFAULT_255_1_388
10
9.8361275
20
134.2483675
40
0.2481307
50
115.7996284
51
142.2901353
0
ARC
8
DEFAULT_255_1_388
10
9.8829546
20
134.2064752
40
0.310833
50
141.4607507
51
142.383894
0
ARC
8
DEFAULT_255_1_388
10
9.8977397
20
134.1996449
40
0.3267335
50
143.0176473
51
163.2340089
0
ARC
8
DEFAULT_255_1_388
10
10.0752686
20
134.1434553
40
0.5129308
50
162.9446504
51
174.3733893
0
ARC
8
DEFAULT_255_1_388
10
10.3166659
20
134.1163483
40
0.75583
50
174.1225809
51
180.1563667
0
LINE
8
DEFAULT_255_1_388
10
10.4915102
20
134.6139567
11
10.6496339
21
134.6139567
0
LINE
8
DEFAULT_255_1_388
10
10.6496339
20
134.6139567
11
10.6541518
21
134.505529
0
LINE
8
DEFAULT_255_1_388
10
11.8622174
20
134.2913842
11
11.8622174
21
133.6363
0
LINE
8
DEFAULT_255_1_388
10
11.8622174
20
133.6363
11
11.695058
21
133.6363
0
LINE
8
DEFAULT_255_1_388
10
11.695058
20
133.6363
11
11.695058
21
134.281445
0
LINE
8
DEFAULT_255_1_388
10
11.2604435
20
134.2850593
11
11.2604435
21
133.6363
0
LINE
8
DEFAULT_255_1_388
10
11.2604435
20
133.6363
11
11.0923805
21
133.6363
0
LINE
8
DEFAULT_255_1_388
10
11.0923805
20
133.6363
11
11.0923805
21
134.2769272
0
LINE
8
DEFAULT_255_1_388
10
10.6586696
20
134.3501159
11
10.6586696
21
133.6363
0
LINE
8
DEFAULT_255_1_388
10
10.6586696
20
133.6363
11
10.4915102
21
133.6363
0
LINE
8
DEFAULT_255_1_388
10
10.4915102
20
133.6363
11
10.4915102
21
134.6139567
0
ARC
8
DEFAULT_255_1_388
10
10.9237714
20
134.2785947
40
0.3524116
50
93.0261693
51
139.913241
0
ARC
8
DEFAULT_255_1_388
10
10.9437789
20
134.1387673
40
0.493261
50
89.9515559
51
94.4896559
0
ARC
8
DEFAULT_255_1_388
10
10.9485267
20
134.2190293
40
0.4130214
50
75.8912256
51
90.6007843
0
ARC
8
DEFAULT_255_1_388
10
10.9896563
20
134.3707686
40
0.2558497
50
23.9940553
51
76.5407673
0
ARC
8
DEFAULT_255_1_388
10
11.5274998
20
134.2634138
40
0.3703589
50
118.5760068
51
145.1952627
0
ARC
8
DEFAULT_255_1_388
10
11.5131051
20
134.2909672
40
0.3392772
50
99.1481537
51
118.6669021
0
ARC
8
DEFAULT_255_1_388
10
11.5333764
20
134.1777244
40
0.454307
50
89.7792127
51
99.4015557
0
ARC
8
DEFAULT_255_1_388
10
11.5420877
20
134.1963109
40
0.4357727
50
73.2646335
51
90.9152299
0
ARC
8
DEFAULT_255_1_388
10
11.5914954
20
134.3641955
40
0.2607739
50
10.756495
51
73.0388383
0
ARC
8
DEFAULT_255_1_388
10
11.3225521
20
134.2884448
40
0.5396733
50
0.3120729
51
13.3293082
0
ARC
8
DEFAULT_255_1_388
10
11.3288
20
134.2835363
40
0.366264
50
359.6728567
51
8.7129231
0
ARC
8
DEFAULT_255_1_388
10
11.4634914
20
134.3049524
40
0.2298841
50
8.5221448
51
22.6803231
0
ARC
8
DEFAULT_255_1_388
10
11.5318614
20
134.3333786
40
0.1558403
50
22.7298708
51
42.2763259
0
ARC
8
DEFAULT_255_1_388
10
11.5457315
20
134.3421235
40
0.1397242
50
43.4492352
51
69.272112
0
ARC
8
DEFAULT_255_1_388
10
11.5111545
20
134.2557568
40
0.2327451
50
68.836098
51
81.9786568
0
ARC
8
DEFAULT_255_1_388
10
11.4885981
20
134.1047247
40
0.385449
50
81.7913044
51
90.3003404
0
LINE
8
DEFAULT_255_1_388
10
11.4865777
20
134.4901683
11
11.4863346
21
134.4901684
0
ARC
8
DEFAULT_255_1_388
10
11.4840155
20
134.2341083
40
0.2560706
50
89.4810922
51
106.5055613
0
ARC
8
DEFAULT_255_1_388
10
11.4712064
20
134.2812872
40
0.2071998
50
106.8160071
51
132.2750747
0
ARC
8
DEFAULT_255_1_388
10
11.4760587
20
134.2761017
40
0.2143007
50
132.3023562
51
166.9931148
0
ARC
8
DEFAULT_255_1_388
10
11.5488825
20
134.2552518
40
0.2899752
50
166.2176327
51
174.0999541
0
ARC
8
DEFAULT_255_1_388
10
10.7773954
20
134.281209
40
0.3150142
50
359.2211859
51
14.4876062
0
ARC
8
DEFAULT_255_1_388
10
10.9252177
20
134.3237235
40
0.1613108
50
13.0021013
51
76.7082612
0
ARC
8
DEFAULT_255_1_388
10
10.8875377
20
134.1906286
40
0.299565
50
75.5470628
51
90.7422407
0
ARC
8
DEFAULT_255_1_388
10
10.8799003
20
134.1940964
40
0.2960958
50
89.2730201
51
106.8379289
0
ARC
8
DEFAULT_255_1_388
10
10.8576408
20
134.2748973
40
0.2123216
50
107.4046439
51
156.621812
0
ARC
8
DEFAULT_255_1_388
10
10.9341222
20
134.2310952
40
0.3000669
50
154.7390611
51
156.6312403
0
LINE
8
DEFAULT_255_1_388
10
12.9401698
20
134.1296462
11
12.9401698
21
134.1142856
0
LINE
8
DEFAULT_255_1_388
10
12.2814713
20
133.7311743
11
12.2814713
21
133.2604172
0
LINE
8
DEFAULT_255_1_388
10
12.2814713
20
133.2604172
11
12.1143119
21
133.2604172
0
LINE
8
DEFAULT_255_1_388
10
12.1143119
20
133.2604172
11
12.1143119
21
134.6139567
0
LINE
8
DEFAULT_255_1_388
10
12.1143119
20
134.6139567
11
12.2670143
21
134.6139567
0
LINE
8
DEFAULT_255_1_388
10
12.2670143
20
134.6139567
11
12.2751464
21
134.505529
0
LINE
8
DEFAULT_255_1_388
10
12.2814713
20
134.3555373
11
12.2814713
21
133.8883945
0
ARC
8
DEFAULT_255_1_388
10
12.1448935
20
134.1093831
40
0.7952914
50
349.5457689
51
0.3531959
0
ARC
8
DEFAULT_255_1_388
10
12.4007713
20
134.0602711
40
0.5347531
50
331.7801944
51
349.7458841
0
ARC
8
DEFAULT_255_1_388
10
12.4824032
20
134.0205052
40
0.4440347
50
323.2239993
51
331.320727
0
ARC
8
DEFAULT_255_1_388
10
12.5750519
20
133.9419189
40
0.3228626
50
275.1519108
51
324.5512858
0
ARC
8
DEFAULT_255_1_388
10
12.5620891
20
134.0320763
40
0.4138479
50
269.929002
51
275.8184771
0
ARC
8
DEFAULT_255_1_388
10
12.5574254
20
134.0696586
40
0.451449
50
255.0666642
51
270.5268285
0
ARC
8
DEFAULT_255_1_388
10
12.5256746
20
133.9508476
40
0.3284686
50
221.9730059
51
255.0773797
0
ARC
8
DEFAULT_255_1_388
10
12.5350905
20
134.2977287
40
0.3327941
50
94.4346057
51
141.3610235
0
ARC
8
DEFAULT_255_1_388
10
12.5581435
20
134.1551867
40
0.4768419
50
89.913234
51
95.8721355
0
ARC
8
DEFAULT_255_1_388
10
12.5632973
20
134.2560946
40
0.3759596
50
70.3260364
51
90.6753935
0
ARC
8
DEFAULT_255_1_388
10
12.5746416
20
134.3027349
40
0.328261
50
36.7636238
51
69.44976
0
ARC
8
DEFAULT_255_1_388
10
12.4785025
20
134.2277455
40
0.4501685
50
16.0027939
51
37.086172
0
ARC
8
DEFAULT_255_1_388
10
12.2490792
20
134.1585013
40
0.6897988
50
4.5018317
51
16.2779312
0
ARC
8
DEFAULT_255_1_388
10
11.9708939
20
134.131276
40
0.9692771
50
359.9036593
51
4.8154966
0
ARC
8
DEFAULT_255_1_388
10
12.144423
20
134.1367646
40
0.6285971
50
359.6805954
51
9.1297647
0
ARC
8
DEFAULT_255_1_388
10
12.3591326
20
134.1725143
40
0.4109369
50
8.9584658
51
23.6939885
0
ARC
8
DEFAULT_255_1_388
10
12.4531084
20
134.2118721
40
0.3090717
50
24.0136272
51
36.1951724
0
ARC
8
DEFAULT_255_1_388
10
12.519668
20
134.2661253
40
0.2233637
50
35.0467028
51
84.5489768
0
ARC
8
DEFAULT_255_1_388
10
12.5095874
20
134.1994397
40
0.2907289
50
83.8197232
51
90.0823413
0
ARC
8
DEFAULT_255_1_388
10
12.5052005
20
134.2216874
40
0.2685104
50
89.1530367
51
112.3459134
0
ARC
8
DEFAULT_255_1_388
10
12.5001093
20
134.2475252
40
0.2427311
50
113.5532703
51
146.2373945
0
ARC
8
DEFAULT_255_1_388
10
12.572372
20
134.1920111
40
0.3337124
50
145.2086902
51
150.6580233
0
ARC
8
DEFAULT_255_1_388
10
12.5221197
20
134.0188753
40
0.273746
50
208.46678
51
230.7447697
0
ARC
8
DEFAULT_255_1_388
10
12.4981737
20
133.9973351
40
0.2419641
50
231.9080157
51
266.0622442
0
ARC
8
DEFAULT_255_1_388
10
12.5106249
20
134.0865434
40
0.3318765
50
264.9752933
51
270.060741
0
ARC
8
DEFAULT_255_1_388
10
12.5141849
20
133.9980683
40
0.2434225
50
269.2448363
51
292.3382162
0
ARC
8
DEFAULT_255_1_388
10
12.5161163
20
133.9822065
40
0.2280566
50
293.4040635
51
323.0231773
0
ARC
8
DEFAULT_255_1_388
10
12.4703412
20
134.0224037
40
0.2888399
50
322.1147526
51
323.3512864
0
ARC
8
DEFAULT_255_1_388
10
12.4522824
20
134.0312269
40
0.3086176
50
324.0383098
51
342.5340044
0
ARC
8
DEFAULT_255_1_388
10
12.265082
20
134.0925984
40
0.5056129
50
342.2670619
51
353.2817647
0
ARC
8
DEFAULT_255_1_388
10
11.9691477
20
134.129797
40
0.8038702
50
353.1162085
51
0.2468587
0
LINE
8
DEFAULT_255_1_388
10
13.93138
20
133.6363
11
13.7560885
21
133.6363
0
LINE
8
DEFAULT_255_1_388
10
13.5672436
20
134.2290383
11
13.7298852
21
134.2290383
0
LINE
8
DEFAULT_255_1_388
10
13.7298852
20
134.2290383
11
13.7298852
21
134.3058413
0
LINE
8
DEFAULT_255_1_388
10
13.3124384
20
134.3428874
11
13.1443754
21
134.3428874
0
LINE
8
DEFAULT_255_1_388
10
13.8970446
20
134.3148769
11
13.8970446
21
133.8649018
0
LINE
8
DEFAULT_255_1_388
10
13.93138
20
133.650757
11
13.93138
21
133.6363
0
LINE
8
DEFAULT_255_1_388
10
13.7298852
20
133.91008
11
13.7298852
21
134.1106713
0
LINE
8
DEFAULT_255_1_388
10
13.7298852
20
134.1106713
11
13.5988683
21
134.1106713
0
ARC
8
DEFAULT_255_1_388
10
13.8730035
20
133.69301
40
0.1299428
50
197.0784902
51
205.8758668
0
ARC
8
DEFAULT_255_1_388
10
14.0124621
20
133.7371959
40
0.2762313
50
192.2927663
51
197.3441989
0
ARC
8
DEFAULT_255_1_388
10
14.2320126
20
133.785976
40
0.5011345
50
189.1573793
51
192.3977084
0
ARC
8
DEFAULT_255_1_388
10
14.5484973
20
133.8375878
40
0.8217995
50
186.8686098
51
189.1982636
0
ARC
8
DEFAULT_255_1_388
10
13.4430064
20
134.011626
40
0.3975173
50
294.0079259
51
316.7603918
0
ARC
8
DEFAULT_255_1_388
10
13.4575246
20
133.9911902
40
0.3729755
50
269.5043226
51
293.2478373
0
ARC
8
DEFAULT_255_1_388
10
13.4508298
20
134.0362915
40
0.4180772
50
255.4034155
51
270.4753052
0
ARC
8
DEFAULT_255_1_388
10
13.4249512
20
133.9358652
40
0.3143705
50
228.6141063
51
255.3550831
0
ARC
8
DEFAULT_255_1_388
10
13.3875493
20
133.900054
40
0.2628114
50
181.8954381
51
229.5703134
0
ARC
8
DEFAULT_255_1_388
10
13.4540429
20
133.9072824
40
0.329546
50
179.9848815
51
182.7691528
0
ARC
8
DEFAULT_255_1_388
10
13.4447496
20
133.9111827
40
0.3202753
50
161.0342928
51
180.6822077
0
ARC
8
DEFAULT_255_1_388
10
13.3953111
20
133.9240422
40
0.2693695
50
125.0525065
51
160.2034058
0
ARC
8
DEFAULT_255_1_388
10
13.4697832
20
133.8224275
40
0.3953338
50
106.2670809
51
125.4300189
0
ARC
8
DEFAULT_255_1_388
10
13.5341874
20
133.6119795
40
0.6154041
50
95.4857579
51
106.5348562
0
ARC
8
DEFAULT_255_1_388
10
13.5649161
20
133.3307993
40
0.8982419
50
89.8515405
51
95.7222579
0
ARC
8
DEFAULT_255_1_388
10
13.4929742
20
134.3078925
40
0.2369198
50
359.5039339
51
14.3181205
0
ARC
8
DEFAULT_255_1_388
10
13.5575747
20
134.3246862
40
0.170173
50
14.2184556
51
45.2028524
0
ARC
8
DEFAULT_255_1_388
10
13.5616443
20
134.3262862
40
0.1661795
50
45.8098216
51
73.0032926
0
ARC
8
DEFAULT_255_1_388
10
13.5336269
20
134.240626
40
0.2562942
50
72.6112517
51
85.7231489
0
ARC
8
DEFAULT_255_1_388
10
13.5235054
20
134.1379339
40
0.3594635
50
85.335019
51
90.0855069
0
ARC
8
DEFAULT_255_1_388
10
13.5208487
20
134.2043472
40
0.2930574
50
89.5854741
51
103.459124
0
ARC
8
DEFAULT_255_1_388
10
13.5037026
20
134.2758134
40
0.2195632
50
103.448332
51
126.5403399
0
ARC
8
DEFAULT_255_1_388
10
13.4768002
20
134.3102224
40
0.1759039
50
126.1730306
51
141.5008224
0
ARC
8
DEFAULT_255_1_388
10
13.4342317
20
134.3436266
40
0.1217955
50
141.3332087
51
180.3477313
0
ARC
8
DEFAULT_255_1_388
10
13.3583741
20
134.3416904
40
0.214002
50
151.6373605
51
179.6795088
0
ARC
8
DEFAULT_255_1_388
10
13.4260976
20
134.3079768
40
0.2896224
50
142.4981529
51
152.1330509
0
ARC
8
DEFAULT_255_1_388
10
13.4618981
20
134.2798781
40
0.3351307
50
120.8284906
51
142.4132156
0
ARC
8
DEFAULT_255_1_388
10
13.5086956
20
134.2066185
40
0.4220297
50
113.9634885
51
121.1871733
0
ARC
8
DEFAULT_255_1_388
10
13.5240265
20
134.1692705
40
0.4623867
50
93.3784336
51
113.8197902
0
ARC
8
DEFAULT_255_1_388
10
13.5326648
20
134.0831549
40
0.5488732
50
89.9745993
51
93.7488475
0
ARC
8
DEFAULT_255_1_388
10
13.5365894
20
134.0872587
40
0.5447818
50
79.1327128
51
90.3871707
0
ARC
8
DEFAULT_255_1_388
10
13.5731658
20
134.2700597
40
0.3583662
50
60.1434453
51
79.365517
0
ARC
8
DEFAULT_255_1_388
10
13.6020424
20
134.3255195
40
0.2959028
50
48.6191018
51
59.6466565
0
ARC
8
DEFAULT_255_1_388
10
13.6074136
20
134.3326356
40
0.2870136
50
9.0349502
51
48.4845487
0
ARC
8
DEFAULT_255_1_388
10
13.4863434
20
134.3062084
40
0.4107927
50
1.2091359
51
10.0234369
0
ARC
8
DEFAULT_255_1_388
10
14.7560882
20
133.8621422
40
0.8590481
50
179.8159449
51
185.3205667
0
ARC
8
DEFAULT_255_1_388
10
14.4528728
20
133.8331945
40
0.5544553
50
185.2475628
51
192.7952551
0
ARC
8
DEFAULT_255_1_388
10
14.2546552
20
133.7877024
40
0.3510853
50
192.7195981
51
202.9584216
0
ARC
8
DEFAULT_255_1_388
10
13.4786588
20
134.0574895
40
0.2937869
50
270.006916
51
300.503478
0
ARC
8
DEFAULT_255_1_388
10
13.4924523
20
134.0430888
40
0.2744162
50
299.5482616
51
315.609538
0
ARC
8
DEFAULT_255_1_388
10
13.5250819
20
134.0097072
40
0.2277499
50
315.8682065
51
334.0592465
0
ARC
8
DEFAULT_255_1_388
10
13.5939792
20
133.32609
40
0.7845965
50
89.64297
51
97.2867877
0
ARC
8
DEFAULT_255_1_388
10
13.544339
20
133.6977936
40
0.4096042
50
96.9938706
51
109.7783917
0
ARC
8
DEFAULT_255_1_388
10
13.4694852
20
133.8981851
40
0.1957225
50
109.0087985
51
135.3265591
0
ARC
8
DEFAULT_255_1_388
10
13.4387272
20
133.9362764
40
0.1471704
50
137.4537784
51
182.1083946
0
ARC
8
DEFAULT_255_1_388
10
13.4807971
20
133.9290101
40
0.1891498
50
179.4390335
51
195.7201623
0
ARC
8
DEFAULT_255_1_388
10
13.4345006
20
133.9163585
40
0.1411576
50
195.8683556
51
230.157074
0
ARC
8
DEFAULT_255_1_388
10
13.4617729
20
133.9490228
40
0.1837102
50
230.1532486
51
259.7486257
0
ARC
8
DEFAULT_255_1_388
10
13.4773772
20
134.0225472
40
0.258848
50
259.2461118
51
270.2915316
0
LINE
8
DEFAULT_255_1_388
10
14.7816342
20
133.9444155
11
14.939758
21
133.9444155
0
LINE
8
DEFAULT_255_1_388
10
14.1157072
20
134.1160927
11
14.1157072
21
134.1441032
0
LINE
8
DEFAULT_255_1_388
10
14.939758
20
134.2778308
11
14.7816342
21
134.2778308
0
LINE
8
DEFAULT_255_1_388
10
14.2828666
20
134.1377783
11
14.2828666
21
134.1061535
0
ARC
8
DEFAULT_255_1_388
10
14.5552899
20
133.9954109
40
0.2407783
50
269.0327343
51
309.2224588
0
ARC
8
DEFAULT_255_1_388
10
14.5788902
20
133.971219
40
0.207135
50
308.3965377
51
329.6987678
0
ARC
8
DEFAULT_255_1_388
10
14.5943961
20
133.9594899
40
0.1878439
50
330.4013397
51
355.3970937
0
ARC
8
DEFAULT_255_1_388
10
14.6457945
20
133.9614312
40
0.2944555
50
329.2357424
51
356.6872018
0
ARC
8
DEFAULT_255_1_388
10
14.583984
20
133.9941153
40
0.3643032
50
324.8702872
51
329.7911998
0
ARC
8
DEFAULT_255_1_388
10
14.5751122
20
134.0017113
40
0.3759315
50
298.8769973
51
324.7015261
0
ARC
8
DEFAULT_255_1_388
10
14.5377666
20
134.061229
40
0.4461015
50
296.902888
51
299.3854973
0
ARC
8
DEFAULT_255_1_388
10
14.5523663
20
134.0288595
40
0.4106323
50
269.8407861
51
297.1298875
0
ARC
8
DEFAULT_255_1_388
10
14.5463659
20
134.1006354
40
0.4824312
50
253.3156606
51
270.5771301
0
ARC
8
DEFAULT_255_1_388
10
14.5185837
20
134.0000943
40
0.3781531
50
221.1002518
51
252.9743523
0
ARC
8
DEFAULT_255_1_388
10
14.5703307
20
134.0445131
40
0.4463481
50
194.5394284
51
221.0302764
0
ARC
8
DEFAULT_255_1_388
10
14.7783128
20
134.1024897
40
0.6622359
50
182.0498004
51
194.8774376
0
ARC
8
DEFAULT_255_1_388
10
14.9776218
20
134.1157778
40
0.8619146
50
179.9790673
51
182.4586753
0
ARC
8
DEFAULT_255_1_388
10
14.7819531
20
134.1474412
40
0.6662543
50
168.615001
51
180.2870547
0
ARC
8
DEFAULT_255_1_388
10
14.646744
20
134.1739636
40
0.5284705
50
154.9162417
51
168.5402053
0
ARC
8
DEFAULT_255_1_388
10
14.5430716
20
134.2251942
40
0.4128641
50
133.5745308
51
155.2559538
0
ARC
8
DEFAULT_255_1_388
10
14.5247559
20
134.2408116
40
0.3889328
50
122.0165845
51
133.2056002
0
ARC
8
DEFAULT_255_1_388
10
14.5287883
20
134.2308977
40
0.3994808
50
97.8732516
51
121.753124
0
ARC
8
DEFAULT_255_1_388
10
14.5489341
20
134.111959
40
0.5200708
50
89.8471322
51
98.2768545
0
ARC
8
DEFAULT_255_1_388
10
14.5544189
20
134.1805809
40
0.4514657
50
73.3760755
51
90.5199878
0
ARC
8
DEFAULT_255_1_388
10
14.5765105
20
134.261855
40
0.3672743
50
47.7085939
51
73.0510707
0
ARC
8
DEFAULT_255_1_388
10
14.5911208
20
134.2745231
40
0.3480795
50
3.7442743
51
48.0844373
0
ARC
8
DEFAULT_255_1_388
10
14.4799202
20
134.2567946
40
0.4603187
50
2.6192831
51
5.0424684
0
ARC
8
DEFAULT_255_1_388
10
14.5314673
20
134.2612986
40
0.2507126
50
3.78087
51
23.9354314
0
ARC
8
DEFAULT_255_1_388
10
14.5571932
20
134.2703644
40
0.2235311
50
24.4867863
51
46.9439952
0
ARC
8
DEFAULT_255_1_388
10
14.5572878
20
134.2729874
40
0.2215567
50
46.4987715
51
89.3298168
0
ARC
8
DEFAULT_255_1_388
10
14.5503537
20
134.2063742
40
0.2883121
50
88.1066411
51
90.0063536
0
ARC
8
DEFAULT_255_1_388
10
14.5472512
20
134.2121548
40
0.2825481
50
89.3773571
51
107.2070287
0
ARC
8
DEFAULT_255_1_388
10
14.5311781
20
134.2703667
40
0.2221946
50
107.688418
51
143.3582986
0
ARC
8
DEFAULT_255_1_388
10
14.5950075
20
134.2224064
40
0.3020337
50
143.2845866
51
162.9352432
0
ARC
8
DEFAULT_255_1_388
10
14.7644091
20
134.1680401
40
0.4799362
50
162.6652705
51
174.0802646
0
ARC
8
DEFAULT_255_1_388
10
15.0054572
20
134.1400287
40
0.7225942
50
173.8422673
51
180.1784414
0
ARC
8
DEFAULT_255_1_388
10
14.9438242
20
134.1027276
40
0.6609665
50
179.7030218
51
188.2277356
0
ARC
8
DEFAULT_255_1_388
10
14.707385
20
134.0673143
40
0.4218948
50
188.0630838
51
201.115837
0
ARC
8
DEFAULT_255_1_388
10
14.5838735
20
134.020173
40
0.2896941
50
201.2186162
51
216.9761863
0
ARC
8
DEFAULT_255_1_388
10
14.5330892
20
133.9821225
40
0.2262366
50
217.0136373
51
265.2055518
0
ARC
8
DEFAULT_255_1_388
10
14.5506229
20
134.0858503
40
0.3311837
50
263.6824874
51
270.1042034
0
LINE
8
DEFAULT_255_1_388
10
15.1873346
20
134.8506906
11
15.354494
21
134.8506906
0
LINE
8
DEFAULT_255_1_388
10
15.354494
20
134.8506906
11
15.354494
21
134.6139567
0
LINE
8
DEFAULT_255_1_388
10
15.354494
20
134.6139567
11
15.5370141
21
134.6139567
0
LINE
8
DEFAULT_255_1_388
10
15.5370141
20
134.6139567
11
15.5370141
21
134.484747
0
LINE
8
DEFAULT_255_1_388
10
15.5370141
20
134.484747
11
15.354494
21
134.484747
0
LINE
8
DEFAULT_255_1_388
10
15.354494
20
134.484747
11
15.354494
21
133.8784553
0
LINE
8
DEFAULT_255_1_388
10
15.5415319
20
133.7718347
11
15.5415319
21
133.6363
0
LINE
8
DEFAULT_255_1_388
10
15.1873346
20
133.8784553
11
15.1873346
21
134.484747
0
LINE
8
DEFAULT_255_1_388
10
15.1873346
20
134.484747
11
15.0093324
21
134.484747
0
LINE
8
DEFAULT_255_1_388
10
15.0093324
20
134.484747
11
15.0093324
21
134.6139567
0
LINE
8
DEFAULT_255_1_388
10
15.0093324
20
134.6139567
11
15.1873346
21
134.6139567
0
LINE
8
DEFAULT_255_1_388
10
15.1873346
20
134.6139567
11
15.1873346
21
134.8506906
0
ARC
8
DEFAULT_255_1_388
10
15.5803448
20
133.8772842
40
0.2258538
50
179.7029045
51
187.9180047
0
ARC
8
DEFAULT_255_1_388
10
15.4964022
20
133.8652019
40
0.1410477
50
187.7540838
51
200.2454047
0
ARC
8
DEFAULT_255_1_388
10
15.4490928
20
133.8475591
40
0.0905561
50
200.1304287
51
219.1733455
0
ARC
8
DEFAULT_255_1_388
10
15.4338094
20
133.8371695
40
0.0721626
50
220.4434631
51
249.6169985
0
ARC
8
DEFAULT_255_1_388
10
15.4512321
20
133.8809919
40
0.1193141
50
249.1038184
51
262.7745376
0
ARC
8
DEFAULT_255_1_388
10
15.4611502
20
133.9517481
40
0.1907583
50
262.4921618
51
270.2607019
0
ARC
8
DEFAULT_255_1_388
10
15.4608584
20
133.9759817
40
0.2149929
50
270.309081
51
275.6615459
0
ARC
8
DEFAULT_255_1_388
10
15.4447992
20
134.1448342
40
0.3846066
50
275.5607354
51
279.087751
0
ARC
8
DEFAULT_255_1_388
10
15.4075924
20
134.3809428
40
0.6236283
50
279.0369545
51
281.5000133
0
ARC
8
DEFAULT_255_1_388
10
15.3685192
20
134.5786499
40
0.825157
50
281.4217093
51
282.1031556
0
ARC
8
DEFAULT_255_1_388
10
15.4061167
20
134.1243229
40
0.5064619
50
275.2597791
51
285.5081125
0
ARC
8
DEFAULT_255_1_388
10
15.4130181
20
134.0617452
40
0.4435166
50
270.0268175
51
275.1130565
0
ARC
8
DEFAULT_255_1_388
10
15.4107633
20
133.9124367
40
0.2942182
50
257.3572424
51
270.4795428
0
ARC
8
DEFAULT_255_1_388
10
15.3867903
20
133.8113952
40
0.1903838
50
230.8036715
51
257.7414447
0
ARC
8
DEFAULT_255_1_388
10
15.3791399
20
133.7990723
40
0.1760087
50
219.9745381
51
230.1985446
0
ARC
8
DEFAULT_255_1_388
10
15.4164687
20
133.8276116
40
0.2229598
50
196.5081334
51
219.4319996
0
ARC
8
DEFAULT_255_1_388
10
15.5307298
20
133.8634617
40
0.3427033
50
184.6408645
51
196.8266009
0
ARC
8
DEFAULT_255_1_388
10
15.6708203
20
133.877601
40
0.4834863
50
179.8987586
51
184.9677262
0
LINE
8
DEFAULT_255_1_388
10
16.383654
20
134.2615666
11
16.2499264
21
134.2959021
0
LINE
8
DEFAULT_255_1_388
10
16.2499264
20
134.2959021
11
16.3167902
21
134.9518898
0
LINE
8
DEFAULT_255_1_388
10
16.3167902
20
134.9518898
11
16.9908493
21
134.9518898
0
LINE
8
DEFAULT_255_1_388
10
16.9908493
20
134.9518898
11
16.9908493
21
134.7973803
0
LINE
8
DEFAULT_255_1_388
10
16.9908493
20
134.7973803
11
16.4586498
21
134.7973803
0
LINE
8
DEFAULT_255_1_388
10
16.4586498
20
134.7973803
11
16.418893
21
134.4386652
0
LINE
8
DEFAULT_255_1_388
10
16.2029411
20
133.9823652
11
16.3610648
21
133.9823652
0
LINE
8
DEFAULT_255_1_388
10
16.4279286
20
134.2977092
11
16.383654
21
134.2615666
0
ARC
8
DEFAULT_255_1_388
10
16.6275543
20
134.0809241
40
0.4141476
50
93.7181681
51
120.253934
0
ARC
8
DEFAULT_255_1_388
10
16.6381595
20
133.9900284
40
0.5055616
50
89.9660471
51
94.2495185
0
ARC
8
DEFAULT_255_1_388
10
16.6427417
20
134.0563154
40
0.4392953
50
73.8045384
51
90.5585736
0
ARC
8
DEFAULT_255_1_388
10
16.6691675
20
134.152852
40
0.3392225
50
41.3071072
51
73.543002
0
ARC
8
DEFAULT_255_1_388
10
16.6223495
20
134.1125461
40
0.4009977
50
13.5075837
51
41.2174839
0
ARC
8
DEFAULT_255_1_388
10
16.4376592
20
134.0641907
40
0.5918864
50
1.1330171
51
13.8830737
0
ARC
8
DEFAULT_255_1_388
10
16.2780238
20
134.0556522
40
0.7516787
50
359.9925091
51
1.5431298
0
ARC
8
DEFAULT_255_1_388
10
16.4224853
20
134.0510027
40
0.6072343
50
347.8572712
51
0.4294349
0
ARC
8
DEFAULT_255_1_388
10
16.6193988
20
134.0063898
40
0.4053482
50
323.6727442
51
348.1674594
0
ARC
8
DEFAULT_255_1_388
10
16.6524952
20
133.9862175
40
0.3667495
50
316.8171818
51
323.1486802
0
ARC
8
DEFAULT_255_1_388
10
16.6594076
20
133.9820612
40
0.358869
50
281.839603
51
316.5458142
0
ARC
8
DEFAULT_255_1_388
10
16.6171364
20
134.1570363
40
0.5388223
50
269.5770964
51
282.4214641
0
ARC
8
DEFAULT_255_1_388
10
16.6091284
20
134.132993
40
0.5147801
50
256.2425863
51
270.4486481
0
ARC
8
DEFAULT_255_1_388
10
16.5754812
20
133.9980124
40
0.3756708
50
228.9024379
51
256.33135
0
ARC
8
DEFAULT_255_1_388
10
16.5671792
20
133.9849054
40
0.360344
50
193.7536029
51
228.5272638
0
ARC
8
DEFAULT_255_1_388
10
16.7064357
20
134.0257463
40
0.5053599
50
184.9244437
51
194.4976052
0
ARC
8
DEFAULT_255_1_388
10
16.7280999
20
134.0297722
40
0.3700839
50
187.3596909
51
198.6733728
0
ARC
8
DEFAULT_255_1_388
10
16.6100242
20
133.9888373
40
0.2451195
50
198.4453795
51
217.7945479
0
ARC
8
DEFAULT_255_1_388
10
16.5767415
20
133.9652563
40
0.2043754
50
218.2887146
51
228.5613203
0
ARC
8
DEFAULT_255_1_388
10
16.5877421
20
133.9800902
40
0.2227819
50
228.9652423
51
258.1237049
0
ARC
8
DEFAULT_255_1_388
10
16.6108859
20
134.0791964
40
0.3245374
50
257.7260585
51
270.4013717
0
ARC
8
DEFAULT_255_1_388
10
16.6159357
20
134.0291255
40
0.2744726
50
269.4204315
51
286.420998
0
ARC
8
DEFAULT_255_1_388
10
16.6326413
20
133.9684705
40
0.2115721
50
286.7250065
51
320.6004665
0
ARC
8
DEFAULT_255_1_388
10
16.5895328
20
134.0034527
40
0.2670878
50
320.6712228
51
344.5440474
0
ARC
8
DEFAULT_255_1_388
10
16.4594042
20
134.0416394
40
0.4026927
50
344.241448
51
356.735803
0
ARC
8
DEFAULT_255_1_388
10
16.3190349
20
134.0532656
40
0.5435085
50
356.3547471
51
0.0507222
0
ARC
8
DEFAULT_255_1_388
10
16.4692614
20
134.0567812
40
0.3932934
50
359.5579289
51
12.9534322
0
ARC
8
DEFAULT_255_1_388
10
16.5879454
20
134.0855586
40
0.2711827
50
12.6489751
51
41.608121
0
ARC
8
DEFAULT_255_1_388
10
16.6138614
20
134.1075946
40
0.2371737
50
41.7851122
51
85.9892156
0
ARC
8
DEFAULT_255_1_388
10
16.5999924
20
134.0160738
40
0.3295244
50
84.6965848
51
90.0672125
0
ARC
8
DEFAULT_255_1_388
10
16.5973492
20
133.9409118
40
0.4046926
50
89.6804991
51
99.161352
0
ARC
8
DEFAULT_255_1_388
10
16.5742501
20
134.0789848
40
0.2647044
50
98.9836248
51
113.8905702
0
ARC
8
DEFAULT_255_1_388
10
16.5484176
20
134.1399118
40
0.1985386
50
114.195234
51
127.3641866
0
LINE
8
DEFAULT_255_1_388
10
18.0371769
20
134.414269
11
18.0371769
21
134.1974135
0
LINE
8
DEFAULT_255_1_388
10
17.2068012
20
134.1748244
11
17.2068012
21
134.3980048
0
LINE
8
DEFAULT_255_1_388
10
17.8700175
20
134.1522353
11
17.8700175
21
134.4260153
0
LINE
8
DEFAULT_255_1_388
10
17.3739606
20
134.4386652
11
17.3739606
21
134.1712102
0
ARC
8
DEFAULT_255_1_388
10
16.6594103
20
134.1919118
40
1.3777776
50
353.8440855
51
0.2287917
0
ARC
8
DEFAULT_255_1_388
10
17.181312
20
134.1336414
40
0.852639
50
344.4934746
51
353.9763743
0
ARC
8
DEFAULT_255_1_388
10
17.5179928
20
134.0379191
40
0.5026273
50
329.2803599
51
344.7473406
0
ARC
8
DEFAULT_255_1_388
10
17.6295423
20
133.9767038
40
0.3754848
50
324.9361395
51
328.6153007
0
ARC
8
DEFAULT_255_1_388
10
17.6721073
20
133.9469586
40
0.3235566
50
280.5801797
51
324.9173226
0
ARC
8
DEFAULT_255_1_388
10
17.6269702
20
134.1349236
40
0.5167077
50
269.5979457
51
281.6732777
0
ARC
8
DEFAULT_255_1_388
10
17.6188605
20
134.1214113
40
0.5032026
50
256.6228565
51
270.5105488
0
ARC
8
DEFAULT_255_1_388
10
17.5736348
20
133.9472345
40
0.3233092
50
215.8618351
51
257.2787793
0
ARC
8
DEFAULT_255_1_388
10
17.6885055
20
134.0243106
40
0.4615831
50
197.9695203
51
215.2622745
0
ARC
8
DEFAULT_255_1_388
10
17.9680731
20
134.1186641
40
0.7566307
50
187.8816486
51
198.2346584
0
ARC
8
DEFAULT_255_1_388
10
18.4133969
20
134.1829453
40
1.2065653
50
180.8977266
51
188.0054894
0
ARC
8
DEFAULT_255_1_388
10
18.7184183
20
134.19444
40
1.5117443
50
180.7434591
51
181.152202
0
ARC
8
DEFAULT_255_1_388
10
18.5509179
20
134.4034371
40
1.3441277
50
173.7674302
51
180.2315596
0
ARC
8
DEFAULT_255_1_388
10
18.0427047
20
134.4608779
40
0.8326847
50
164.3058537
51
173.9000553
0
ARC
8
DEFAULT_255_1_388
10
17.7151047
20
134.5552652
40
0.4917711
50
148.7922028
51
164.5682288
0
ARC
8
DEFAULT_255_1_388
10
17.6081785
20
134.6149457
40
0.3694204
50
144.5883979
51
148.1161588
0
ARC
8
DEFAULT_255_1_388
10
17.569453
20
134.6419667
40
0.322202
50
101.6440149
51
144.5142619
0
ARC
8
DEFAULT_255_1_388
10
17.6172722
20
134.4519337
40
0.5180451
50
89.528284
51
102.5820197
0
ARC
8
DEFAULT_255_1_388
10
17.6261714
20
134.4475376
40
0.5224441
50
77.0437914
51
90.508231
0
ARC
8
DEFAULT_255_1_388
10
17.6713968
20
134.6323272
40
0.3322297
50
48.2777708
51
77.4996087
0
ARC
8
DEFAULT_255_1_388
10
17.6795708
20
134.6468557
40
0.315966
50
36.3141586
51
47.6307332
0
ARC
8
DEFAULT_255_1_388
10
17.581843
20
134.5810159
40
0.4337313
50
18.2931065
51
35.6770203
0
ARC
8
DEFAULT_255_1_388
10
17.2957271
20
134.4828107
40
0.7362203
50
8.0246996
51
18.5605636
0
ARC
8
DEFAULT_255_1_388
10
16.8273626
20
134.4136432
40
1.2096583
50
1.127539
51
8.1718423
0
ARC
8
DEFAULT_255_1_388
10
16.462476
20
134.3993374
40
1.5747719
50
0.5432713
51
1.38669
0
ARC
8
DEFAULT_255_1_388
10
16.6682139
20
134.4300163
40
1.2018103
50
359.8092569
51
4.9408001
0
ARC
8
DEFAULT_255_1_388
10
17.141872
20
134.47229
40
0.7262727
50
4.8364937
51
12.2906017
0
ARC
8
DEFAULT_255_1_388
10
17.4518185
20
134.5413485
40
0.4087324
50
12.0806994
51
23.8171225
0
ARC
8
DEFAULT_255_1_388
10
17.5838581
20
134.5972508
40
0.2653719
50
24.2874621
51
31.3934353
0
ARC
8
DEFAULT_255_1_388
10
17.6429017
20
134.6358822
40
0.1948607
50
30.7407708
51
82.4658033
0
ARC
8
DEFAULT_255_1_388
10
17.6226677
20
134.5365017
40
0.2961198
50
81.1057101
51
90.2187368
0
ARC
8
DEFAULT_255_1_388
10
17.6186489
20
134.5655421
40
0.2670929
50
89.380395
51
105.6763916
0
ARC
8
DEFAULT_255_1_388
10
17.5980211
20
134.640532
40
0.1893189
50
105.7980655
51
149.7387869
0
ARC
8
DEFAULT_255_1_388
10
17.7177351
20
134.5685719
40
0.3289892
50
149.4208441
51
163.628295
0
ARC
8
DEFAULT_255_1_388
10
17.9529581
20
134.4968345
40
0.5749004
50
163.3764549
51
172.141138
0
ARC
8
DEFAULT_255_1_388
10
18.3242302
20
134.4436582
40
0.9499585
50
172.0258462
51
178.0705453
0
ARC
8
DEFAULT_255_1_388
10
18.6663855
20
134.4274682
40
1.2924734
50
177.8639301
51
179.5036263
0
ARC
8
DEFAULT_255_1_388
10
18.5444874
20
134.1671151
40
1.170534
50
179.7995545
51
185.246089
0
ARC
8
DEFAULT_255_1_388
10
18.0896467
20
134.1240404
40
0.7136613
50
185.1411911
51
193.0082205
0
ARC
8
DEFAULT_255_1_388
10
17.7922728
20
134.0537441
40
0.4080987
50
192.7897338
51
205.2507384
0
ARC
8
DEFAULT_255_1_388
10
17.6744938
20
134.0011538
40
0.2791522
50
205.8001921
51
211.2545876
0
ARC
8
DEFAULT_255_1_388
10
17.6156477
20
133.9617132
40
0.2084074
50
210.3789935
51
238.4007996
0
ARC
8
DEFAULT_255_1_388
10
17.6134563
20
133.9669786
40
0.2117943
50
239.6521916
51
265.9793852
0
ARC
8
DEFAULT_255_1_388
10
17.6230412
20
134.0426358
40
0.2879689
50
265.1324455
51
270.0603288
0
ARC
8
DEFAULT_255_1_388
10
17.6262789
20
134.0061418
40
0.2514919
50
269.3314378
51
287.2180039
0
ARC
8
DEFAULT_255_1_388
10
17.6417871
20
133.9495291
40
0.1928357
50
287.7957942
51
329.0808983
0
ARC
8
DEFAULT_255_1_388
10
17.5340628
20
134.0167651
40
0.319808
50
328.6635261
51
343.3325043
0
ARC
8
DEFAULT_255_1_388
10
17.2896087
20
134.0929195
40
0.5758408
50
343.0498092
51
351.9392499
0
ARC
8
DEFAULT_255_1_388
10
16.8995408
20
134.1504205
40
0.9701202
50
351.8071632
51
357.7957897
0
ARC
8
DEFAULT_255_1_388
10
16.5360885
20
134.1692724
40
1.3340376
50
357.5870923
51
359.2682493
0
LINE
8
DEFAULT_255_1_388
10
19.076276
20
134.414269
11
19.076276
21
134.1974135
0
LINE
8
DEFAULT_255_1_388
10
18.2459003
20
134.1748244
11
18.2459003
21
134.3980048
0
LINE
8
DEFAULT_255_1_388
10
18.9091166
20
134.1522353
11
18.9091166
21
134.4260153
0
LINE
8
DEFAULT_255_1_388
10
18.4130597
20
134.4386652
11
18.4130597
21
134.1712102
0
ARC
8
DEFAULT_255_1_388
10
17.6985094
20
134.1919118
40
1.3777776
50
353.8440855
51
0.2287917
0
ARC
8
DEFAULT_255_1_388
10
18.2204112
20
134.1336414
40
0.852639
50
344.4934746
51
353.9763743
0
ARC
8
DEFAULT_255_1_388
10
18.5570919
20
134.0379191
40
0.5026273
50
329.2803599
51
344.7473406
0
ARC
8
DEFAULT_255_1_388
10
18.6686415
20
133.9767038
40
0.3754848
50
324.9361395
51
328.6153007
0
ARC
8
DEFAULT_255_1_388
10
18.7112064
20
133.9469586
40
0.3235566
50
280.5801797
51
324.9173226
0
ARC
8
DEFAULT_255_1_388
10
18.6660693
20
134.1349236
40
0.5167077
50
269.5979457
51
281.6732777
0
ARC
8
DEFAULT_255_1_388
10
18.6579596
20
134.1214113
40
0.5032026
50
256.6228565
51
270.5105488
0
ARC
8
DEFAULT_255_1_388
10
18.6127339
20
133.9472345
40
0.3233092
50
215.8618351
51
257.2787793
0
ARC
8
DEFAULT_255_1_388
10
18.7276046
20
134.0243106
40
0.4615831
50
197.9695203
51
215.2622745
0
ARC
8
DEFAULT_255_1_388
10
19.0071722
20
134.1186641
40
0.7566307
50
187.8816486
51
198.2346584
0
ARC
8
DEFAULT_255_1_388
10
19.452496
20
134.1829453
40
1.2065653
50
180.8977266
51
188.0054894
0
ARC
8
DEFAULT_255_1_388
10
19.7575174
20
134.19444
40
1.5117443
50
180.7434591
51
181.152202
0
ARC
8
DEFAULT_255_1_388
10
19.590017
20
134.4034371
40
1.3441277
50
173.7674302
51
180.2315596
0
ARC
8
DEFAULT_255_1_388
10
19.0818039
20
134.4608779
40
0.8326847
50
164.3058537
51
173.9000553
0
ARC
8
DEFAULT_255_1_388
10
18.7542039
20
134.5552652
40
0.4917711
50
148.7922028
51
164.5682288
0
ARC
8
DEFAULT_255_1_388
10
18.6472776
20
134.6149457
40
0.3694204
50
144.5883979
51
148.1161588
0
ARC
8
DEFAULT_255_1_388
10
18.6085521
20
134.6419667
40
0.322202
50
101.6440149
51
144.5142619
0
ARC
8
DEFAULT_255_1_388
10
18.6563714
20
134.4519337
40
0.5180451
50
89.528284
51
102.5820197
0
ARC
8
DEFAULT_255_1_388
10
18.6652706
20
134.4475376
40
0.5224441
50
77.0437914
51
90.508231
0
ARC
8
DEFAULT_255_1_388
10
18.7104959
20
134.6323272
40
0.3322297
50
48.2777708
51
77.4996087
0
ARC
8
DEFAULT_255_1_388
10
18.7186699
20
134.6468557
40
0.315966
50
36.3141586
51
47.6307332
0
ARC
8
DEFAULT_255_1_388
10
18.6209421
20
134.5810159
40
0.4337313
50
18.2931065
51
35.6770203
0
ARC
8
DEFAULT_255_1_388
10
18.3348262
20
134.4828107
40
0.7362203
50
8.0246996
51
18.5605636
0
ARC
8
DEFAULT_255_1_388
10
17.8664618
20
134.4136432
40
1.2096583
50
1.127539
51
8.1718423
0
ARC
8
DEFAULT_255_1_388
10
17.5015751
20
134.3993374
40
1.5747719
50
0.5432713
51
1.38669
0
ARC
8
DEFAULT_255_1_388
10
17.707313
20
134.4300163
40
1.2018103
50
359.8092569
51
4.9408001
0
ARC
8
DEFAULT_255_1_388
10
18.1809711
20
134.47229
40
0.7262727
50
4.8364937
51
12.2906017
0
ARC
8
DEFAULT_255_1_388
10
18.4909176
20
134.5413485
40
0.4087324
50
12.0806994
51
23.8171225
0
ARC
8
DEFAULT_255_1_388
10
18.6229572
20
134.5972508
40
0.2653719
50
24.2874621
51
31.3934353
0
ARC
8
DEFAULT_255_1_388
10
18.6820008
20
134.6358822
40
0.1948607
50
30.7407708
51
82.4658033
0
ARC
8
DEFAULT_255_1_388
10
18.6617669
20
134.5365017
40
0.2961198
50
81.1057101
51
90.2187368
0
ARC
8
DEFAULT_255_1_388
10
18.6577481
20
134.5655421
40
0.2670929
50
89.380395
51
105.6763916
0
ARC
8
DEFAULT_255_1_388
10
18.6371202
20
134.640532
40
0.1893189
50
105.7980655
51
149.7387869
0
ARC
8
DEFAULT_255_1_388
10
18.7568343
20
134.5685719
40
0.3289892
50
149.4208441
51
163.628295
0
ARC
8
DEFAULT_255_1_388
10
18.9920572
20
134.4968345
40
0.5749004
50
163.3764549
51
172.141138
0
ARC
8
DEFAULT_255_1_388
10
19.3633294
20
134.4436582
40
0.9499585
50
172.0258462
51
178.0705453
0
ARC
8
DEFAULT_255_1_388
10
19.7054846
20
134.4274682
40
1.2924734
50
177.8639301
51
179.5036263
0
ARC
8
DEFAULT_255_1_388
10
19.5835865
20
134.1671151
40
1.170534
50
179.7995545
51
185.246089
0
ARC
8
DEFAULT_255_1_388
10
19.1287458
20
134.1240404
40
0.7136613
50
185.1411911
51
193.0082205
0
ARC
8
DEFAULT_255_1_388
10
18.8313719
20
134.0537441
40
0.4080987
50
192.7897338
51
205.2507384
0
ARC
8
DEFAULT_255_1_388
10
18.7135929
20
134.0011538
40
0.2791522
50
205.8001921
51
211.2545876
0
ARC
8
DEFAULT_255_1_388
10
18.6547468
20
133.9617132
40
0.2084074
50
210.3789935
51
238.4007996
0
ARC
8
DEFAULT_255_1_388
10
18.6525554
20
133.9669786
40
0.2117943
50
239.6521916
51
265.9793852
0
ARC
8
DEFAULT_255_1_388
10
18.6621403
20
134.0426358
40
0.2879689
50
265.1324455
51
270.0603288
0
ARC
8
DEFAULT_255_1_388
10
18.665378
20
134.0061418
40
0.2514919
50
269.3314378
51
287.2180039
0
ARC
8
DEFAULT_255_1_388
10
18.6808862
20
133.9495291
40
0.1928357
50
287.7957942
51
329.0808983
0
ARC
8
DEFAULT_255_1_388
10
18.5731619
20
134.0167651
40
0.319808
50
328.6635261
51
343.3325043
0
ARC
8
DEFAULT_255_1_388
10
18.3287078
20
134.0929195
40
0.5758408
50
343.0498092
51
351.9392499
0
ARC
8
DEFAULT_255_1_388
10
17.9386399
20
134.1504205
40
0.9701202
50
351.8071632
51
357.7957897
0
ARC
8
DEFAULT_255_1_388
10
17.5751876
20
134.1692724
40
1.3340376
50
357.5870923
51
359.2682493
0
LINE
8
DEFAULT_255_1_388
10
20.1153751
20
134.414269
11
20.1153751
21
134.1974135
0
LINE
8
DEFAULT_255_1_388
10
19.2849994
20
134.1748244
11
19.2849994
21
134.3980048
0
LINE
8
DEFAULT_255_1_388
10
19.9482157
20
134.1522353
11
19.9482157
21
134.4260153
0
LINE
8
DEFAULT_255_1_388
10
19.4521588
20
134.4386652
11
19.4521588
21
134.1712102
0
ARC
8
DEFAULT_255_1_388
10
18.7376085
20
134.1919118
40
1.3777776
50
353.8440855
51
0.2287917
0
ARC
8
DEFAULT_255_1_388
10
19.2595103
20
134.1336414
40
0.852639
50
344.4934746
51
353.9763743
0
ARC
8
DEFAULT_255_1_388
10
19.596191
20
134.0379191
40
0.5026273
50
329.2803599
51
344.7473406
0
ARC
8
DEFAULT_255_1_388
10
19.7077406
20
133.9767038
40
0.3754848
50
324.9361395
51
328.6153007
0
ARC
8
DEFAULT_255_1_388
10
19.7503056
20
133.9469586
40
0.3235566
50
280.5801797
51
324.9173226
0
ARC
8
DEFAULT_255_1_388
10
19.7051684
20
134.1349236
40
0.5167077
50
269.5979457
51
281.6732777
0
ARC
8
DEFAULT_255_1_388
10
19.6970588
20
134.1214113
40
0.5032026
50
256.6228565
51
270.5105488
0
ARC
8
DEFAULT_255_1_388
10
19.651833
20
133.9472345
40
0.3233092
50
215.8618351
51
257.2787793
0
ARC
8
DEFAULT_255_1_388
10
19.7667037
20
134.0243106
40
0.4615831
50
197.9695203
51
215.2622745
0
ARC
8
DEFAULT_255_1_388
10
20.0462713
20
134.1186641
40
0.7566307
50
187.8816486
51
198.2346584
0
ARC
8
DEFAULT_255_1_388
10
20.4915951
20
134.1829453
40
1.2065653
50
180.8977266
51
188.0054894
0
ARC
8
DEFAULT_255_1_388
10
20.7966165
20
134.19444
40
1.5117443
50
180.7434591
51
181.152202
0
ARC
8
DEFAULT_255_1_388
10
20.6291161
20
134.4034371
40
1.3441277
50
173.7674302
51
180.2315596
0
ARC
8
DEFAULT_255_1_388
10
20.120903
20
134.4608779
40
0.8326847
50
164.3058537
51
173.9000553
0
ARC
8
DEFAULT_255_1_388
10
19.793303
20
134.5552652
40
0.4917711
50
148.7922028
51
164.5682288
0
ARC
8
DEFAULT_255_1_388
10
19.6863767
20
134.6149457
40
0.3694204
50
144.5883979
51
148.1161588
0
ARC
8
DEFAULT_255_1_388
10
19.6476513
20
134.6419667
40
0.322202
50
101.6440149
51
144.5142619
0
ARC
8
DEFAULT_255_1_388
10
19.6954705
20
134.4519337
40
0.5180451
50
89.528284
51
102.5820197
0
ARC
8
DEFAULT_255_1_388
10
19.7043697
20
134.4475376
40
0.5224441
50
77.0437914
51
90.508231
0
ARC
8
DEFAULT_255_1_388
10
19.749595
20
134.6323272
40
0.3322297
50
48.2777708
51
77.4996087
0
ARC
8
DEFAULT_255_1_388
10
19.757769
20
134.6468557
40
0.315966
50
36.3141586
51
47.6307332
0
ARC
8
DEFAULT_255_1_388
10
19.6600413
20
134.5810159
40
0.4337313
50
18.2931065
51
35.6770203
0
ARC
8
DEFAULT_255_1_388
10
19.3739253
20
134.4828107
40
0.7362203
50
8.0246996
51
18.5605636
0
ARC
8
DEFAULT_255_1_388
10
18.9055609
20
134.4136432
40
1.2096583
50
1.127539
51
8.1718423
0
ARC
8
DEFAULT_255_1_388
10
18.5406742
20
134.3993374
40
1.5747719
50
0.5432713
51
1.38669
0
ARC
8
DEFAULT_255_1_388
10
18.7464121
20
134.4300163
40
1.2018103
50
359.8092569
51
4.9408001
0
ARC
8
DEFAULT_255_1_388
10
19.2200702
20
134.47229
40
0.7262727
50
4.8364937
51
12.2906017
0
ARC
8
DEFAULT_255_1_388
10
19.5300167
20
134.5413485
40
0.4087324
50
12.0806994
51
23.8171225
0
ARC
8
DEFAULT_255_1_388
10
19.6620563
20
134.5972508
40
0.2653719
50
24.2874621
51
31.3934353
0
ARC
8
DEFAULT_255_1_388
10
19.7210999
20
134.6358822
40
0.1948607
50
30.7407708
51
82.4658033
0
ARC
8
DEFAULT_255_1_388
10
19.700866
20
134.5365017
40
0.2961198
50
81.1057101
51
90.2187368
0
ARC
8
DEFAULT_255_1_388
10
19.6968472
20
134.5655421
40
0.2670929
50
89.380395
51
105.6763916
0
ARC
8
DEFAULT_255_1_388
10
19.6762194
20
134.640532
40
0.1893189
50
105.7980655
51
149.7387869
0
ARC
8
DEFAULT_255_1_388
10
19.7959334
20
134.5685719
40
0.3289892
50
149.4208441
51
163.628295
0
ARC
8
DEFAULT_255_1_388
10
20.0311563
20
134.4968345
40
0.5749004
50
163.3764549
51
172.141138
0
ARC
8
DEFAULT_255_1_388
10
20.4024285
20
134.4436582
40
0.9499585
50
172.0258462
51
178.0705453
0
ARC
8
DEFAULT_255_1_388
10
20.7445838
20
134.4274682
40
1.2924734
50
177.8639301
51
179.5036263
0
ARC
8
DEFAULT_255_1_388
10
20.6226856
20
134.1671151
40
1.170534
50
179.7995545
51
185.246089
0
ARC
8
DEFAULT_255_1_388
10
20.1678449
20
134.1240404
40
0.7136613
50
185.1411911
51
193.0082205
0
ARC
8
DEFAULT_255_1_388
10
19.870471
20
134.0537441
40
0.4080987
50
192.7897338
51
205.2507384
0
ARC
8
DEFAULT_255_1_388
10
19.752692
20
134.0011538
40
0.2791522
50
205.8001921
51
211.2545876
0
ARC
8
DEFAULT_255_1_388
10
19.6938459
20
133.9617132
40
0.2084074
50
210.3789935
51
238.4007996
0
ARC
8
DEFAULT_255_1_388
10
19.6916545
20
133.9669786
40
0.2117943
50
239.6521916
51
265.9793852
0
ARC
8
DEFAULT_255_1_388
10
19.7012394
20
134.0426358
40
0.2879689
50
265.1324455
51
270.0603288
0
ARC
8
DEFAULT_255_1_388
10
19.7044771
20
134.0061418
40
0.2514919
50
269.3314378
51
287.2180039
0
ARC
8
DEFAULT_255_1_388
10
19.7199853
20
133.9495291
40
0.1928357
50
287.7957942
51
329.0808983
0
ARC
8
DEFAULT_255_1_388
10
19.612261
20
134.0167651
40
0.319808
50
328.6635261
51
343.3325043
0
ARC
8
DEFAULT_255_1_388
10
19.3678069
20
134.0929195
40
0.5758408
50
343.0498092
51
351.9392499
0
ARC
8
DEFAULT_255_1_388
10
18.9777391
20
134.1504205
40
0.9701202
50
351.8071632
51
357.7957897
0
ARC
8
DEFAULT_255_1_388
10
18.6142868
20
134.1692724
40
1.3340376
50
357.5870923
51
359.2682493
0
LINE
8
DEFAULT_255_2_778
10
8.0703417
20
124.2218483
11
9.3932417
21
124.2218483
0
LINE
8
DEFAULT_255_2_778
10
9.3932417
20
124.2218483
11
9.3932417
21
67.3364483
0
LINE
8
DEFAULT_255_2_778
10
9.3932417
20
62.0447483
11
9.3932417
21
5.1593483
0
LINE
8
DEFAULT_255_2_778
10
9.3932417
20
5.1593483
11
8.0703417
21
5.1593483
0
LINE
8
DEFAULT_255_2_778
10
8.0702834
20
67.3364333
11
10.7160834
21
67.3364333
0
LINE
8
DEFAULT_255_2_778
10
10.7160834
20
67.3364333
11
10.7160834
21
62.0447333
0
LINE
8
DEFAULT_255_2_778
10
10.7160834
20
62.0447333
11
8.0702834
21
62.0447333
0
LINE
8
DEFAULT_255_2_778
10
8.0702834
20
62.0447333
11
8.0702834
21
67.3364333
0
LINE
8
DEFAULT_255_2_778
10
8.8641
20
62.5739666
11
8.8641
21
66.8072666
0
LINE
8
DEFAULT_255_2_778
10
8.5995167
20
66.013575
11
8.8641167
21
66.807275
0
LINE
8
DEFAULT_255_2_778
10
8.8641167
20
66.807275
11
9.1287167
21
66.013575
0
LINE
8
DEFAULT_255_2_778
10
9.1287167
20
66.013575
11
8.5995167
21
66.013575
0
LINE
8
DEFAULT_255_2_778
10
9.9224
20
66.8072666
11
9.9224
21
62.5739666
0
LINE
8
DEFAULT_255_2_778
10
9.6578167
20
63.367675
11
9.9224167
21
62.573975
0
LINE
8
DEFAULT_255_2_778
10
9.9224167
20
62.573975
11
10.1870167
21
63.367675
0
LINE
8
DEFAULT_255_2_778
10
10.1870167
20
63.367675
11
9.6578167
21
63.367675
0
LINE
8
DEFAULT_255_1_388
10
4.8826318
20
131.7883382
11
4.8826318
21
131.6519
0
LINE
8
DEFAULT_255_1_388
10
4.8826318
20
131.6519
11
4.0206313
21
131.6519
0
LINE
8
DEFAULT_255_1_388
10
4.0206313
20
131.6519
11
4.0206313
21
131.7720741
0
LINE
8
DEFAULT_255_1_388
10
4.0206313
20
131.7720741
11
4.4760278
21
132.2780702
0
LINE
8
DEFAULT_255_1_388
10
4.1624909
20
132.5798607
11
3.9953315
21
132.5798607
0
LINE
8
DEFAULT_255_1_388
10
4.5745163
20
132.170546
11
4.2221262
21
131.7883382
0
LINE
8
DEFAULT_255_1_388
10
4.2221262
20
131.7883382
11
4.8826318
21
131.7883382
0
ARC
8
DEFAULT_255_1_388
10
2.9584337
20
133.6200983
40
2.0258655
50
318.5132526
51
320.7829045
0
ARC
8
DEFAULT_255_1_388
10
3.5532294
20
133.1359929
40
1.2589638
50
320.7372878
51
323.9739031
0
ARC
8
DEFAULT_255_1_388
10
3.9941226
20
132.8165554
40
0.7145141
50
323.8962701
51
328.64194
0
ARC
8
DEFAULT_255_1_388
10
4.2243484
20
132.6745545
40
0.4440242
50
328.8294576
51
331.7891185
0
ARC
8
DEFAULT_255_1_388
10
4.3365804
20
132.6166374
40
0.3177517
50
331.4254512
51
352.9365785
0
ARC
8
DEFAULT_255_1_388
10
4.3518804
20
132.613205
40
0.3021496
50
353.2257659
51
0.0166158
0
ARC
8
DEFAULT_255_1_388
10
4.3755564
20
132.6157894
40
0.2784847
50
359.486299
51
15.9343185
0
ARC
8
DEFAULT_255_1_388
10
4.4325831
20
132.6311269
40
0.2194403
50
16.1712913
51
43.5286088
0
ARC
8
DEFAULT_255_1_388
10
4.4412776
20
132.6398191
40
0.2071504
50
43.4417391
51
83.1661095
0
ARC
8
DEFAULT_255_1_388
10
4.4261937
20
132.5569316
40
0.2912888
50
82.160179
51
90.1505708
0
ARC
8
DEFAULT_255_1_388
10
4.4226418
20
132.4965279
40
0.3517025
50
89.5460741
51
102.5418361
0
ARC
8
DEFAULT_255_1_388
10
4.3953138
20
132.6124933
40
0.2325748
50
102.1738499
51
129.206123
0
ARC
8
DEFAULT_255_1_388
10
4.3864592
20
132.6264664
40
0.2161591
50
129.72865
51
135.753947
0
ARC
8
DEFAULT_255_1_388
10
4.4001074
20
132.6155728
40
0.2335433
50
136.1757367
51
166.3673339
0
ARC
8
DEFAULT_255_1_388
10
4.5133762
20
132.5852148
40
0.3507873
50
165.9090694
51
178.8684636
0
ARC
8
DEFAULT_255_1_388
10
4.6109534
20
132.5799263
40
0.4484624
50
178.4391136
51
180.0083808
0
ARC
8
DEFAULT_255_1_388
10
4.4530235
20
132.5843197
40
0.4577138
50
163.2878482
51
180.5581842
0
ARC
8
DEFAULT_255_1_388
10
4.3628276
20
132.6091393
40
0.3641968
50
133.4540601
51
162.947111
0
ARC
8
DEFAULT_255_1_388
10
4.3829158
20
132.5877789
40
0.3935189
50
100.7869829
51
133.4382499
0
ARC
8
DEFAULT_255_1_388
10
4.4220403
20
132.4135399
40
0.5720313
50
89.660664
51
101.3702276
0
ARC
8
DEFAULT_255_1_388
10
4.4295012
20
132.4204263
40
0.5651495
50
78.2172678
51
90.412935
0
ARC
8
DEFAULT_255_1_388
10
4.4694478
20
132.6031511
40
0.378122
50
55.9269121
51
78.4888449
0
ARC
8
DEFAULT_255_1_388
10
4.4915193
20
132.6412187
40
0.3342379
50
47.929771
51
55.4049217
0
ARC
8
DEFAULT_255_1_388
10
4.5029723
20
132.6528618
40
0.3179217
50
4.334829
51
48.0560205
0
ARC
8
DEFAULT_255_1_388
10
4.3797525
20
132.6337487
40
0.442341
50
359.9251713
51
5.5971671
0
ARC
8
DEFAULT_255_1_388
10
4.427968
20
132.6400728
40
0.3941854
50
337.8914027
51
358.9967534
0
ARC
8
DEFAULT_255_1_388
10
4.122725
20
132.7578295
40
0.7213271
50
326.9132501
51
338.3508308
0
ARC
8
DEFAULT_255_1_388
10
3.6743362
20
133.0452105
40
1.2538973
50
319.6471833
51
327.0959558
0
ARC
8
DEFAULT_255_1_388
10
3.243002
20
133.401005
40
1.8129975
50
317.2588228
51
319.9045804
0
LINE
8
DEFAULT_255_1_388
10
5.7654143
20
132.9674898
11
5.7654143
21
132.093743
0
LINE
8
DEFAULT_255_1_388
10
5.7654143
20
132.093743
11
5.9479343
21
132.093743
0
LINE
8
DEFAULT_255_1_388
10
5.9479343
20
132.093743
11
5.9479343
21
131.9573048
0
LINE
8
DEFAULT_255_1_388
10
5.9479343
20
131.9573048
11
5.7654143
21
131.9573048
0
LINE
8
DEFAULT_255_1_388
10
5.7654143
20
131.9573048
11
5.7654143
21
131.6519
0
LINE
8
DEFAULT_255_1_388
10
5.7654143
20
131.6519
11
5.5973513
21
131.6519
0
LINE
8
DEFAULT_255_1_388
10
5.5973513
20
131.6519
11
5.5973513
21
131.9573048
0
LINE
8
DEFAULT_255_1_388
10
5.5973513
20
131.9573048
11
4.998288
21
131.9573048
0
LINE
8
DEFAULT_255_1_388
10
4.998288
20
131.9573048
11
4.998288
21
132.0557933
0
LINE
8
DEFAULT_255_1_388
10
4.998288
20
132.0557933
11
5.5874121
21
132.9674898
0
LINE
8
DEFAULT_255_1_388
10
5.5874121
20
132.9674898
11
5.7654143
21
132.9674898
0
LINE
8
DEFAULT_255_1_388
10
5.5774729
20
132.7027455
11
5.1880366
21
132.093743
0
LINE
8
DEFAULT_255_1_388
10
5.1880366
20
132.093743
11
5.5973513
21
132.093743
0
LINE
8
DEFAULT_255_1_388
10
5.5973513
20
132.093743
11
5.5973513
21
132.738888
0
LINE
8
DEFAULT_255_1_388
10
5.5973513
20
132.738888
11
5.5774729
21
132.7027455
0
LINE
8
DEFAULT_255_1_388
10
6.203643
20
132.9674898
11
6.5777187
21
131.8823089
0
LINE
8
DEFAULT_255_1_388
10
6.5777187
20
131.8823089
11
6.9536015
21
132.9674898
0
LINE
8
DEFAULT_255_1_388
10
6.9536015
20
132.9674898
11
7.14335
21
132.9674898
0
LINE
8
DEFAULT_255_1_388
10
7.14335
20
132.9674898
11
6.6554252
21
131.6519
0
LINE
8
DEFAULT_255_1_388
10
6.6554252
20
131.6519
11
6.5018193
21
131.6519
0
LINE
8
DEFAULT_255_1_388
10
6.5018193
20
131.6519
11
6.014798
21
132.9674898
0
LINE
8
DEFAULT_255_1_388
10
6.014798
20
132.9674898
11
6.203643
21
132.9674898
0
LINE
8
DEFAULT_255_1_388
10
4.1838367
20
5.9674898
11
4.1838367
21
4.6519
0
LINE
8
DEFAULT_255_1_388
10
4.1838367
20
4.6519
11
4.0103523
21
4.6519
0
LINE
8
DEFAULT_255_1_388
10
4.0103523
20
4.6519
11
4.0103523
21
5.9674898
0
LINE
8
DEFAULT_255_1_388
10
4.0103523
20
5.9674898
11
4.1838367
21
5.9674898
0
LINE
8
DEFAULT_255_1_388
10
5.0069839
20
5.9738148
11
5.0069839
21
4.6519
0
LINE
8
DEFAULT_255_1_388
10
5.0069839
20
4.6519
11
4.8389209
21
4.6519
0
LINE
8
DEFAULT_255_1_388
10
4.8389209
20
4.6519
11
4.8389209
21
5.765995
0
LINE
8
DEFAULT_255_1_388
10
4.8389209
20
5.765995
11
4.5018914
21
5.6422066
0
LINE
8
DEFAULT_255_1_388
10
4.5018914
20
5.6422066
11
4.5018914
21
5.7940055
0
LINE
8
DEFAULT_255_1_388
10
4.5018914
20
5.7940055
11
4.9807805
21
5.9738148
0
LINE
8
DEFAULT_255_1_388
10
4.9807805
20
5.9738148
11
5.0069839
21
5.9738148
0
LINE
8
DEFAULT_255_1_388
10
5.7072463
20
5.2771666
11
5.5735188
21
5.3115021
0
LINE
8
DEFAULT_255_1_388
10
5.5735188
20
5.3115021
11
5.6403826
21
5.9674898
0
LINE
8
DEFAULT_255_1_388
10
5.6403826
20
5.9674898
11
6.3144417
21
5.9674898
0
LINE
8
DEFAULT_255_1_388
10
6.3144417
20
5.9674898
11
6.3144417
21
5.8129803
0
LINE
8
DEFAULT_255_1_388
10
6.3144417
20
5.8129803
11
5.7822422
21
5.8129803
0
LINE
8
DEFAULT_255_1_388
10
5.7822422
20
5.8129803
11
5.7424854
21
5.4542652
0
LINE
8
DEFAULT_255_1_388
10
5.5265334
20
4.9979652
11
5.6846572
21
4.9979652
0
LINE
8
DEFAULT_255_1_388
10
5.751521
20
5.3133092
11
5.7072463
21
5.2771666
0
ARC
8
DEFAULT_255_1_388
10
5.9511467
20
5.0965241
40
0.4141476
50
93.7181681
51
120.253934
0
ARC
8
DEFAULT_255_1_388
10
5.9617519
20
5.0056284
40
0.5055616
50
89.9660471
51
94.2495185
0
ARC
8
DEFAULT_255_1_388
10
5.9663341
20
5.0719154
40
0.4392953
50
73.8045384
51
90.5585736
0
ARC
8
DEFAULT_255_1_388
10
5.9927599
20
5.168452
40
0.3392225
50
41.3071072
51
73.543002
0
ARC
8
DEFAULT_255_1_388
10
5.9459419
20
5.1281461
40
0.4009977
50
13.5075837
51
41.2174839
0
ARC
8
DEFAULT_255_1_388
10
5.7612516
20
5.0797907
40
0.5918864
50
1.1330171
51
13.8830737
0
ARC
8
DEFAULT_255_1_388
10
5.6016162
20
5.0712522
40
0.7516787
50
359.9925091
51
1.5431298
0
ARC
8
DEFAULT_255_1_388
10
5.7460777
20
5.0666027
40
0.6072343
50
347.8572712
51
0.4294349
0
ARC
8
DEFAULT_255_1_388
10
5.9429912
20
5.0219898
40
0.4053482
50
323.6727442
51
348.1674594
0
ARC
8
DEFAULT_255_1_388
10
5.9760876
20
5.0018175
40
0.3667495
50
316.8171818
51
323.1486802
0
ARC
8
DEFAULT_255_1_388
10
5.983
20
4.9976612
40
0.358869
50
281.839603
51
316.5458142
0
ARC
8
DEFAULT_255_1_388
10
5.9407288
20
5.1726363
40
0.5388223
50
269.5770964
51
282.4214641
0
ARC
8
DEFAULT_255_1_388
10
5.9327208
20
5.148593
40
0.5147801
50
256.2425863
51
270.4486481
0
ARC
8
DEFAULT_255_1_388
10
5.8990736
20
5.0136124
40
0.3756708
50
228.9024379
51
256.33135
0
ARC
8
DEFAULT_255_1_388
10
5.8907716
20
5.0005054
40
0.360344
50
193.7536029
51
228.5272638
0
ARC
8
DEFAULT_255_1_388
10
6.0300281
20
5.0413463
40
0.5053599
50
184.9244437
51
194.4976052
0
ARC
8
DEFAULT_255_1_388
10
6.0516922
20
5.0453722
40
0.3700839
50
187.3596909
51
198.6733728
0
ARC
8
DEFAULT_255_1_388
10
5.9336166
20
5.0044373
40
0.2451195
50
198.4453795
51
217.7945479
0
ARC
8
DEFAULT_255_1_388
10
5.9003338
20
4.9808563
40
0.2043754
50
218.2887146
51
228.5613203
0
ARC
8
DEFAULT_255_1_388
10
5.9113345
20
4.9956902
40
0.2227819
50
228.9652423
51
258.1237049
0
ARC
8
DEFAULT_255_1_388
10
5.9344783
20
5.0947964
40
0.3245374
50
257.7260585
51
270.4013717
0
ARC
8
DEFAULT_255_1_388
10
5.9395281
20
5.0447255
40
0.2744726
50
269.4204315
51
286.420998
0
ARC
8
DEFAULT_255_1_388
10
5.9562336
20
4.9840705
40
0.2115721
50
286.7250065
51
320.6004665
0
ARC
8
DEFAULT_255_1_388
10
5.9131252
20
5.0190527
40
0.2670878
50
320.6712228
51
344.5440474
0
ARC
8
DEFAULT_255_1_388
10
5.7829966
20
5.0572394
40
0.4026927
50
344.241448
51
356.735803
0
ARC
8
DEFAULT_255_1_388
10
5.6426273
20
5.0688656
40
0.5435085
50
356.3547471
51
0.0507222
0
ARC
8
DEFAULT_255_1_388
10
5.7928538
20
5.0723812
40
0.3932934
50
359.5579289
51
12.9534322
0
ARC
8
DEFAULT_255_1_388
10
5.9115378
20
5.1011586
40
0.2711827
50
12.6489751
51
41.608121
0
ARC
8
DEFAULT_255_1_388
10
5.9374538
20
5.1231946
40
0.2371737
50
41.7851122
51
85.9892156
0
ARC
8
DEFAULT_255_1_388
10
5.9235848
20
5.0316738
40
0.3295244
50
84.6965848
51
90.0672125
0
ARC
8
DEFAULT_255_1_388
10
5.9209415
20
4.9565118
40
0.4046926
50
89.6804991
51
99.161352
0
ARC
8
DEFAULT_255_1_388
10
5.8978425
20
5.0945848
40
0.2647044
50
98.9836248
51
113.8905702
0
ARC
8
DEFAULT_255_1_388
10
5.87201
20
5.1555118
40
0.1985386
50
114.195234
51
127.3641866
0
LINE
8
DEFAULT_255_1_388
10
4.3161367
20
13.9049898
11
4.3161367
21
12.5894
0
LINE
8
DEFAULT_255_1_388
10
4.3161367
20
12.5894
11
4.1426523
21
12.5894
0
LINE
8
DEFAULT_255_1_388
10
4.1426523
20
12.5894
11
4.1426523
21
13.9049898
0
LINE
8
DEFAULT_255_1_388
10
4.1426523
20
13.9049898
11
4.3161367
21
13.9049898
0
LINE
8
DEFAULT_255_1_388
10
5.1392839
20
13.9113148
11
5.1392839
21
12.5894
0
LINE
8
DEFAULT_255_1_388
10
5.1392839
20
12.5894
11
4.9712209
21
12.5894
0
LINE
8
DEFAULT_255_1_388
10
4.9712209
20
12.5894
11
4.9712209
21
13.703495
0
LINE
8
DEFAULT_255_1_388
10
4.9712209
20
13.703495
11
4.6341914
21
13.5797066
0
LINE
8
DEFAULT_255_1_388
10
4.6341914
20
13.5797066
11
4.6341914
21
13.7315055
0
LINE
8
DEFAULT_255_1_388
10
4.6341914
20
13.7315055
11
5.1130805
21
13.9113148
0
LINE
8
DEFAULT_255_1_388
10
5.1130805
20
13.9113148
11
5.1392839
21
13.9113148
0
LINE
8
DEFAULT_255_1_388
10
6.3346997
20
13.9049898
11
6.3346997
21
13.031243
0
LINE
8
DEFAULT_255_1_388
10
6.3346997
20
13.031243
11
6.5172197
21
13.031243
0
LINE
8
DEFAULT_255_1_388
10
6.5172197
20
13.031243
11
6.5172197
21
12.8948048
0
LINE
8
DEFAULT_255_1_388
10
6.5172197
20
12.8948048
11
6.3346997
21
12.8948048
0
LINE
8
DEFAULT_255_1_388
10
6.3346997
20
12.8948048
11
6.3346997
21
12.5894
0
LINE
8
DEFAULT_255_1_388
10
6.3346997
20
12.5894
11
6.1666367
21
12.5894
0
LINE
8
DEFAULT_255_1_388
10
6.1666367
20
12.5894
11
6.1666367
21
12.8948048
0
LINE
8
DEFAULT_255_1_388
10
6.1666367
20
12.8948048
11
5.5675734
21
12.8948048
0
LINE
8
DEFAULT_255_1_388
10
5.5675734
20
12.8948048
11
5.5675734
21
12.9932933
0
LINE
8
DEFAULT_255_1_388
10
5.5675734
20
12.9932933
11
6.1566975
21
13.9049898
0
LINE
8
DEFAULT_255_1_388
10
6.1566975
20
13.9049898
11
6.3346997
21
13.9049898
0
LINE
8
DEFAULT_255_1_388
10
6.1467583
20
13.6402455
11
5.757322
21
13.031243
0
LINE
8
DEFAULT_255_1_388
10
5.757322
20
13.031243
11
6.1666367
21
13.031243
0
LINE
8
DEFAULT_255_1_388
10
6.1666367
20
13.031243
11
6.1666367
21
13.676388
0
LINE
8
DEFAULT_255_1_388
10
6.1666367
20
13.676388
11
6.1467583
21
13.6402455
0
LINE
8
DEFAULT_255_1_388
10
4.1838367
20
21.8424898
11
4.1838367
21
20.5269
0
LINE
8
DEFAULT_255_1_388
10
4.1838367
20
20.5269
11
4.0103523
21
20.5269
0
LINE
8
DEFAULT_255_1_388
10
4.0103523
20
20.5269
11
4.0103523
21
21.8424898
0
LINE
8
DEFAULT_255_1_388
10
4.0103523
20
21.8424898
11
4.1838367
21
21.8424898
0
LINE
8
DEFAULT_255_1_388
10
5.0069839
20
21.8488148
11
5.0069839
21
20.5269
0
LINE
8
DEFAULT_255_1_388
10
5.0069839
20
20.5269
11
4.8389209
21
20.5269
0
LINE
8
DEFAULT_255_1_388
10
4.8389209
20
20.5269
11
4.8389209
21
21.640995
0
LINE
8
DEFAULT_255_1_388
10
4.8389209
20
21.640995
11
4.5018914
21
21.5172066
0
LINE
8
DEFAULT_255_1_388
10
4.5018914
20
21.5172066
11
4.5018914
21
21.6690055
0
LINE
8
DEFAULT_255_1_388
10
4.5018914
20
21.6690055
11
4.9807805
21
21.8488148
0
LINE
8
DEFAULT_255_1_388
10
4.9807805
20
21.8488148
11
5.0069839
21
21.8488148
0
LINE
8
DEFAULT_255_1_388
10
5.7397747
20
21.1295775
11
5.7397747
21
21.2660157
0
LINE
8
DEFAULT_255_1_388
10
5.7397747
20
21.2660157
11
5.8653701
21
21.2660157
0
LINE
8
DEFAULT_255_1_388
10
5.6512253
20
21.4973282
11
5.4840659
21
21.4973282
0
LINE
8
DEFAULT_255_1_388
10
5.4723196
20
20.8738687
11
5.6403826
21
20.8738687
0
LINE
8
DEFAULT_255_1_388
10
5.8653701
20
21.1295775
11
5.7397747
21
21.1295775
0
ARC
8
DEFAULT_255_1_388
10
5.8620928
20
21.6476922
40
0.3816905
50
270.491971
51
281.8953028
0
ARC
8
DEFAULT_255_1_388
10
5.8892355
20
21.5237199
40
0.2547877
50
281.6690378
51
301.2943765
0
ARC
8
DEFAULT_255_1_388
10
5.9083806
20
21.4886926
40
0.2149197
50
301.7834992
51
311.754567
0
ARC
8
DEFAULT_255_1_388
10
5.9186847
20
21.477265
40
0.1995326
50
311.7325027
51
354.2803031
0
ARC
8
DEFAULT_255_1_388
10
5.8369263
20
21.491328
40
0.2823461
50
353.0941646
51
0.1174696
0
ARC
8
DEFAULT_255_1_388
10
5.7850821
20
21.4966874
40
0.3342238
50
359.1804452
51
15.0452323
0
ARC
8
DEFAULT_255_1_388
10
5.936488
20
21.5408546
40
0.1765747
50
13.957816
51
77.6713812
0
ARC
8
DEFAULT_255_1_388
10
5.8930115
20
21.3850464
40
0.3381982
50
76.111571
51
90.7028736
0
ARC
8
DEFAULT_255_1_388
10
5.8863527
20
21.415825
40
0.3074046
50
89.5321574
51
103.5319393
0
ARC
8
DEFAULT_255_1_388
10
5.8637911
20
21.5057443
40
0.2147041
50
103.2930114
51
133.5619756
0
ARC
8
DEFAULT_255_1_388
10
5.8587853
20
21.5124351
40
0.2064084
50
133.8349761
51
173.5343225
0
ARC
8
DEFAULT_255_1_388
10
5.940151
20
21.4980144
40
0.2889266
50
172.5097183
51
180.1360699
0
ARC
8
DEFAULT_255_1_388
10
5.8331274
20
21.501888
40
0.3490913
50
155.3483706
51
180.7484035
0
ARC
8
DEFAULT_255_1_388
10
5.827625
20
21.4986519
40
0.3454798
50
131.5745177
51
154.4799474
0
ARC
8
DEFAULT_255_1_388
10
5.8628532
20
21.4630422
40
0.3955058
50
96.9874487
51
131.9690874
0
ARC
8
DEFAULT_255_1_388
10
5.8875425
20
21.3229407
40
0.537622
50
89.8592909
51
97.7827481
0
ARC
8
DEFAULT_255_1_388
10
5.8929534
20
21.293436
40
0.5671399
50
78.3654493
51
90.4132586
0
ARC
8
DEFAULT_255_1_388
10
5.9332175
20
21.4800918
40
0.3762034
50
56.6229818
51
78.6387103
0
ARC
8
DEFAULT_255_1_388
10
5.9574004
20
21.5223846
40
0.3275964
50
47.0254604
51
56.085558
0
ARC
8
DEFAULT_255_1_388
10
5.9596255
20
21.5268189
40
0.3228382
50
10.9207523
51
46.777927
0
ARC
8
DEFAULT_255_1_388
10
5.8061849
20
21.4913401
40
0.4802559
50
359.6364235
51
11.6087615
0
ARC
8
DEFAULT_255_1_388
10
6.0126015
20
21.4896404
40
0.273833
50
332.3549969
51
359.7179765
0
ARC
8
DEFAULT_255_1_388
10
5.9394416
20
21.5243285
40
0.3547505
50
325.2332381
51
332.8746682
0
ARC
8
DEFAULT_255_1_388
10
5.9565998
20
21.5123763
40
0.3338396
50
292.9803892
51
325.2391113
0
ARC
8
DEFAULT_255_1_388
10
5.9255194
20
21.5728679
40
0.4016959
50
292.542178
51
293.6931461
0
ARC
8
DEFAULT_255_1_388
10
5.9698766
20
20.8463036
40
0.372079
50
57.643292
51
72.8626085
0
ARC
8
DEFAULT_255_1_388
10
6.0097601
20
20.9109273
40
0.2961455
50
36.7246661
51
57.4701329
0
ARC
8
DEFAULT_255_1_388
10
6.0084757
20
20.912347
40
0.2963321
50
8.054535
51
36.3561529
0
ARC
8
DEFAULT_255_1_388
10
5.911443
20
20.8949073
40
0.3948682
50
359.8316595
51
8.5873361
0
ARC
8
DEFAULT_255_1_388
10
5.8691904
20
20.889497
40
0.4371398
50
343.9831631
51
0.557075
0
ARC
8
DEFAULT_255_1_388
10
5.9688954
20
20.8621963
40
0.3337749
50
311.6358204
51
343.7652116
0
ARC
8
DEFAULT_255_1_388
10
5.9263207
20
20.9101955
40
0.3979351
50
279.7829743
51
311.625622
0
ARC
8
DEFAULT_255_1_388
10
5.8924343
20
21.0718642
40
0.5630417
50
269.7285092
51
280.3857694
0
ARC
8
DEFAULT_255_1_388
10
5.8854656
20
21.0672241
40
0.5584119
50
256.6827433
51
270.4412869
0
ARC
8
DEFAULT_255_1_388
10
5.8473642
20
20.9114698
40
0.3980715
50
229.4223821
51
256.8554507
0
ARC
8
DEFAULT_255_1_388
10
5.8007196
20
20.8589683
40
0.3278564
50
181.8183354
51
229.6455015
0
ARC
8
DEFAULT_255_1_388
10
5.9176805
20
20.8736825
40
0.4453611
50
179.9760419
51
183.2330638
0
ARC
8
DEFAULT_255_1_388
10
5.8983357
20
20.8713781
40
0.2579652
50
179.4467996
51
196.2871626
0
ARC
8
DEFAULT_255_1_388
10
5.8434811
20
20.8563709
40
0.2011057
50
196.5661293
51
227.7059371
0
ARC
8
DEFAULT_255_1_388
10
5.8619418
20
20.8770155
40
0.2287994
50
227.7653015
51
257.8763321
0
ARC
8
DEFAULT_255_1_388
10
5.8872501
20
20.9830961
40
0.3378385
50
257.4583525
51
270.4267406
0
ARC
8
DEFAULT_255_1_388
10
5.8923751
20
21.015723
40
0.3704652
50
269.5965319
51
280.8788143
0
ARC
8
DEFAULT_255_1_388
10
5.9181979
20
20.8867529
40
0.2389415
50
280.6347277
51
299.8594068
0
ARC
8
DEFAULT_255_1_388
10
5.9396749
20
20.8459736
40
0.19289
50
300.3575552
51
314.5515667
0
ARC
8
DEFAULT_255_1_388
10
5.9303424
20
20.8528025
40
0.204312
50
315.0730962
51
345.0429362
0
ARC
8
DEFAULT_255_1_388
10
5.8264932
20
20.8830539
40
0.31246
50
344.598526
51
357.9270698
0
ARC
8
DEFAULT_255_1_388
10
5.7255237
20
20.8899705
40
0.4136265
50
357.4755098
51
0.0224936
0
ARC
8
DEFAULT_255_1_388
10
5.8408114
20
20.8927099
40
0.2983498
50
359.5051035
51
13.4236939
0
ARC
8
DEFAULT_255_1_388
10
5.9383204
20
20.9176637
40
0.1977186
50
12.9497905
51
48.7550905
0
ARC
8
DEFAULT_255_1_388
10
5.9178126
20
20.8896373
40
0.2323321
50
49.509109
51
72.1832965
0
ARC
8
DEFAULT_255_1_388
10
5.8775594
20
20.7701632
40
0.358397
50
71.9008458
51
84.3555134
0
ARC
8
DEFAULT_255_1_388
10
5.8593989
20
20.6169712
40
0.512641
50
84.019632
51
89.3326067
0
LINE
8
DEFAULT_255_1_388
10
4.1838367
20
29.7799898
11
4.1838367
21
28.4644
0
LINE
8
DEFAULT_255_1_388
10
4.1838367
20
28.4644
11
4.0103523
21
28.4644
0
LINE
8
DEFAULT_255_1_388
10
4.0103523
20
28.4644
11
4.0103523
21
29.7799898
0
LINE
8
DEFAULT_255_1_388
10
4.0103523
20
29.7799898
11
4.1838367
21
29.7799898
0
LINE
8
DEFAULT_255_1_388
10
5.0069839
20
29.7863148
11
5.0069839
21
28.4644
0
LINE
8
DEFAULT_255_1_388
10
5.0069839
20
28.4644
11
4.8389209
21
28.4644
0
LINE
8
DEFAULT_255_1_388
10
4.8389209
20
28.4644
11
4.8389209
21
29.578495
0
LINE
8
DEFAULT_255_1_388
10
4.8389209
20
29.578495
11
4.5018914
21
29.4547066
0
LINE
8
DEFAULT_255_1_388
10
4.5018914
20
29.4547066
11
4.5018914
21
29.6065055
0
LINE
8
DEFAULT_255_1_388
10
4.5018914
20
29.6065055
11
4.9807805
21
29.7863148
0
LINE
8
DEFAULT_255_1_388
10
4.9807805
20
29.7863148
11
5.0069839
21
29.7863148
0
LINE
8
DEFAULT_255_1_388
10
6.3587163
20
28.6008382
11
6.3587163
21
28.4644
0
LINE
8
DEFAULT_255_1_388
10
6.3587163
20
28.4644
11
5.4967158
21
28.4644
0
LINE
8
DEFAULT_255_1_388
10
5.4967158
20
28.4644
11
5.4967158
21
28.5845741
0
LINE
8
DEFAULT_255_1_388
10
5.4967158
20
28.5845741
11
5.9521123
21
29.0905702
0
LINE
8
DEFAULT_255_1_388
10
5.6385754
20
29.3923607
11
5.471416
21
29.3923607
0
LINE
8
DEFAULT_255_1_388
10
6.0506008
20
28.983046
11
5.6982107
21
28.6008382
0
LINE
8
DEFAULT_255_1_388
10
5.6982107
20
28.6008382
11
6.3587163
21
28.6008382
0
ARC
8
DEFAULT_255_1_388
10
4.4345183
20
30.4325983
40
2.0258655
50
318.5132526
51
320.7829045
0
ARC
8
DEFAULT_255_1_388
10
5.029314
20
29.9484929
40
1.2589638
50
320.7372878
51
323.9739031
0
ARC
8
DEFAULT_255_1_388
10
5.4702071
20
29.6290554
40
0.7145141
50
323.8962701
51
328.64194
0
ARC
8
DEFAULT_255_1_388
10
5.7004329
20
29.4870545
40
0.4440242
50
328.8294576
51
331.7891185
0
ARC
8
DEFAULT_255_1_388
10
5.8126649
20
29.4291374
40
0.3177517
50
331.4254512
51
352.9365785
0
ARC
8
DEFAULT_255_1_388
10
5.8279649
20
29.425705
40
0.3021496
50
353.2257659
51
0.0166158
0
ARC
8
DEFAULT_255_1_388
10
5.8516409
20
29.4282894
40
0.2784847
50
359.486299
51
15.9343185
0
ARC
8
DEFAULT_255_1_388
10
5.9086676
20
29.4436269
40
0.2194403
50
16.1712913
51
43.5286088
0
ARC
8
DEFAULT_255_1_388
10
5.9173621
20
29.4523191
40
0.2071504
50
43.4417391
51
83.1661095
0
ARC
8
DEFAULT_255_1_388
10
5.9022782
20
29.3694316
40
0.2912888
50
82.160179
51
90.1505708
0
ARC
8
DEFAULT_255_1_388
10
5.8987264
20
29.3090279
40
0.3517025
50
89.5460741
51
102.5418361
0
ARC
8
DEFAULT_255_1_388
10
5.8713984
20
29.4249933
40
0.2325748
50
102.1738499
51
129.206123
0
ARC
8
DEFAULT_255_1_388
10
5.8625437
20
29.4389664
40
0.2161591
50
129.72865
51
135.753947
0
ARC
8
DEFAULT_255_1_388
10
5.8761919
20
29.4280728
40
0.2335433
50
136.1757367
51
166.3673339
0
ARC
8
DEFAULT_255_1_388
10
5.9894608
20
29.3977148
40
0.3507873
50
165.9090694
51
178.8684636
0
ARC
8
DEFAULT_255_1_388
10
6.0870379
20
29.3924263
40
0.4484624
50
178.4391136
51
180.0083808
0
ARC
8
DEFAULT_255_1_388
10
5.9291081
20
29.3968197
40
0.4577138
50
163.2878482
51
180.5581842
0
ARC
8
DEFAULT_255_1_388
10
5.8389122
20
29.4216393
40
0.3641968
50
133.4540601
51
162.947111
0
ARC
8
DEFAULT_255_1_388
10
5.8590003
20
29.4002789
40
0.3935189
50
100.7869829
51
133.4382499
0
ARC
8
DEFAULT_255_1_388
10
5.8981248
20
29.2260399
40
0.5720313
50
89.660664
51
101.3702276
0
ARC
8
DEFAULT_255_1_388
10
5.9055857
20
29.2329263
40
0.5651495
50
78.2172678
51
90.412935
0
ARC
8
DEFAULT_255_1_388
10
5.9455323
20
29.4156511
40
0.378122
50
55.9269121
51
78.4888449
0
ARC
8
DEFAULT_255_1_388
10
5.9676038
20
29.4537187
40
0.3342379
50
47.929771
51
55.4049217
0
ARC
8
DEFAULT_255_1_388
10
5.9790569
20
29.4653618
40
0.3179217
50
4.334829
51
48.0560205
0
ARC
8
DEFAULT_255_1_388
10
5.855837
20
29.4462487
40
0.442341
50
359.9251713
51
5.5971671
0
ARC
8
DEFAULT_255_1_388
10
5.9040525
20
29.4525728
40
0.3941854
50
337.8914027
51
358.9967534
0
ARC
8
DEFAULT_255_1_388
10
5.5988095
20
29.5703295
40
0.7213271
50
326.9132501
51
338.3508308
0
ARC
8
DEFAULT_255_1_388
10
5.1504207
20
29.8577105
40
1.2538973
50
319.6471833
51
327.0959558
0
ARC
8
DEFAULT_255_1_388
10
4.7190865
20
30.213505
40
1.8129975
50
317.2588228
51
319.9045804
0
LINE
8
DEFAULT_255_1_388
10
4.1747367
20
37.7174898
11
4.1747367
21
36.4019
0
LINE
8
DEFAULT_255_1_388
10
4.1747367
20
36.4019
11
4.0012523
21
36.4019
0
LINE
8
DEFAULT_255_1_388
10
4.0012523
20
36.4019
11
4.0012523
21
37.7174898
0
LINE
8
DEFAULT_255_1_388
10
4.0012523
20
37.7174898
11
4.1747367
21
37.7174898
0
LINE
8
DEFAULT_255_1_388
10
4.9978839
20
37.7238148
11
4.9978839
21
36.4019
0
LINE
8
DEFAULT_255_1_388
10
4.9978839
20
36.4019
11
4.8298209
21
36.4019
0
LINE
8
DEFAULT_255_1_388
10
4.8298209
20
36.4019
11
4.8298209
21
37.515995
0
LINE
8
DEFAULT_255_1_388
10
4.8298209
20
37.515995
11
4.4927914
21
37.3922066
0
LINE
8
DEFAULT_255_1_388
10
4.4927914
20
37.3922066
11
4.4927914
21
37.5440055
0
LINE
8
DEFAULT_255_1_388
10
4.4927914
20
37.5440055
11
4.9716805
21
37.7238148
0
LINE
8
DEFAULT_255_1_388
10
4.9716805
20
37.7238148
11
4.9978839
21
37.7238148
0
LINE
8
DEFAULT_255_1_388
10
6.036983
20
37.7238148
11
6.036983
21
36.4019
0
LINE
8
DEFAULT_255_1_388
10
6.036983
20
36.4019
11
5.86892
21
36.4019
0
LINE
8
DEFAULT_255_1_388
10
5.86892
20
36.4019
11
5.86892
21
37.515995
0
LINE
8
DEFAULT_255_1_388
10
5.86892
20
37.515995
11
5.5318905
21
37.3922066
0
LINE
8
DEFAULT_255_1_388
10
5.5318905
20
37.3922066
11
5.5318905
21
37.5440055
0
LINE
8
DEFAULT_255_1_388
10
5.5318905
20
37.5440055
11
6.0107796
21
37.7238148
0
LINE
8
DEFAULT_255_1_388
10
6.0107796
20
37.7238148
11
6.036983
21
37.7238148
0
LINE
8
DEFAULT_255_1_388
10
4.1838367
20
45.6549898
11
4.1838367
21
44.3394
0
LINE
8
DEFAULT_255_1_388
10
4.1838367
20
44.3394
11
4.0103523
21
44.3394
0
LINE
8
DEFAULT_255_1_388
10
4.0103523
20
44.3394
11
4.0103523
21
45.6549898
0
LINE
8
DEFAULT_255_1_388
10
4.0103523
20
45.6549898
11
4.1838367
21
45.6549898
0
LINE
8
DEFAULT_255_1_388
10
5.0069839
20
45.6613148
11
5.0069839
21
44.3394
0
LINE
8
DEFAULT_255_1_388
10
5.0069839
20
44.3394
11
4.8389209
21
44.3394
0
LINE
8
DEFAULT_255_1_388
10
4.8389209
20
44.3394
11
4.8389209
21
45.453495
0
LINE
8
DEFAULT_255_1_388
10
4.8389209
20
45.453495
11
4.5018914
21
45.3297066
0
LINE
8
DEFAULT_255_1_388
10
4.5018914
20
45.3297066
11
4.5018914
21
45.4815055
0
LINE
8
DEFAULT_255_1_388
10
4.5018914
20
45.4815055
11
4.9807805
21
45.6613148
0
LINE
8
DEFAULT_255_1_388
10
4.9807805
20
45.6613148
11
5.0069839
21
45.6613148
0
LINE
8
DEFAULT_255_1_388
10
6.3216702
20
45.117369
11
6.3216702
21
44.9005135
0
LINE
8
DEFAULT_255_1_388
10
5.4912944
20
44.8779244
11
5.4912944
21
45.1011048
0
LINE
8
DEFAULT_255_1_388
10
6.1545107
20
44.8553353
11
6.1545107
21
45.1291153
0
LINE
8
DEFAULT_255_1_388
10
5.6584539
20
45.1417652
11
5.6584539
21
44.8743102
0
ARC
8
DEFAULT_255_1_388
10
4.9439036
20
44.8950118
40
1.3777776
50
353.8440855
51
0.2287917
0
ARC
8
DEFAULT_255_1_388
10
5.4658053
20
44.8367414
40
0.852639
50
344.4934746
51
353.9763743
0
ARC
8
DEFAULT_255_1_388
10
5.802486
20
44.7410191
40
0.5026273
50
329.2803599
51
344.7473406
0
ARC
8
DEFAULT_255_1_388
10
5.9140356
20
44.6798038
40
0.3754848
50
324.9361395
51
328.6153007
0
ARC
8
DEFAULT_255_1_388
10
5.9566006
20
44.6500586
40
0.3235566
50
280.5801797
51
324.9173226
0
ARC
8
DEFAULT_255_1_388
10
5.9114634
20
44.8380236
40
0.5167077
50
269.5979457
51
281.6732777
0
ARC
8
DEFAULT_255_1_388
10
5.9033538
20
44.8245113
40
0.5032026
50
256.6228565
51
270.5105488
0
ARC
8
DEFAULT_255_1_388
10
5.8581281
20
44.6503345
40
0.3233092
50
215.8618351
51
257.2787793
0
ARC
8
DEFAULT_255_1_388
10
5.9729988
20
44.7274106
40
0.4615831
50
197.9695203
51
215.2622745
0
ARC
8
DEFAULT_255_1_388
10
6.2525663
20
44.8217641
40
0.7566307
50
187.8816486
51
198.2346584
0
ARC
8
DEFAULT_255_1_388
10
6.6978902
20
44.8860453
40
1.2065653
50
180.8977266
51
188.0054894
0
ARC
8
DEFAULT_255_1_388
10
7.0029115
20
44.89754
40
1.5117443
50
180.7434591
51
181.152202
0
ARC
8
DEFAULT_255_1_388
10
6.8354111
20
45.1065371
40
1.3441277
50
173.7674302
51
180.2315596
0
ARC
8
DEFAULT_255_1_388
10
6.327198
20
45.1639779
40
0.8326847
50
164.3058537
51
173.9000553
0
ARC
8
DEFAULT_255_1_388
10
5.999598
20
45.2583652
40
0.4917711
50
148.7922028
51
164.5682288
0
ARC
8
DEFAULT_255_1_388
10
5.8926718
20
45.3180457
40
0.3694204
50
144.5883979
51
148.1161588
0
ARC
8
DEFAULT_255_1_388
10
5.8539463
20
45.3450667
40
0.322202
50
101.6440149
51
144.5142619
0
ARC
8
DEFAULT_255_1_388
10
5.9017655
20
45.1550337
40
0.5180451
50
89.528284
51
102.5820197
0
ARC
8
DEFAULT_255_1_388
10
5.9106647
20
45.1506376
40
0.5224441
50
77.0437914
51
90.508231
0
ARC
8
DEFAULT_255_1_388
10
5.9558901
20
45.3354272
40
0.3322297
50
48.2777708
51
77.4996087
0
ARC
8
DEFAULT_255_1_388
10
5.9640641
20
45.3499557
40
0.315966
50
36.3141586
51
47.6307332
0
ARC
8
DEFAULT_255_1_388
10
5.8663363
20
45.2841159
40
0.4337313
50
18.2931065
51
35.6770203
0
ARC
8
DEFAULT_255_1_388
10
5.5802204
20
45.1859107
40
0.7362203
50
8.0246996
51
18.5605636
0
ARC
8
DEFAULT_255_1_388
10
5.1118559
20
45.1167432
40
1.2096583
50
1.127539
51
8.1718423
0
ARC
8
DEFAULT_255_1_388
10
4.7469693
20
45.1024374
40
1.5747719
50
0.5432713
51
1.38669
0
ARC
8
DEFAULT_255_1_388
10
4.9527071
20
45.1331163
40
1.2018103
50
359.8092569
51
4.9408001
0
ARC
8
DEFAULT_255_1_388
10
5.4263653
20
45.17539
40
0.7262727
50
4.8364937
51
12.2906017
0
ARC
8
DEFAULT_255_1_388
10
5.7363117
20
45.2444485
40
0.4087324
50
12.0806994
51
23.8171225
0
ARC
8
DEFAULT_255_1_388
10
5.8683513
20
45.3003508
40
0.2653719
50
24.2874621
51
31.3934353
0
ARC
8
DEFAULT_255_1_388
10
5.9273949
20
45.3389822
40
0.1948607
50
30.7407708
51
82.4658033
0
ARC
8
DEFAULT_255_1_388
10
5.907161
20
45.2396017
40
0.2961198
50
81.1057101
51
90.2187368
0
ARC
8
DEFAULT_255_1_388
10
5.9031422
20
45.2686421
40
0.2670929
50
89.380395
51
105.6763916
0
ARC
8
DEFAULT_255_1_388
10
5.8825144
20
45.343632
40
0.1893189
50
105.7980655
51
149.7387869
0
ARC
8
DEFAULT_255_1_388
10
6.0022284
20
45.2716719
40
0.3289892
50
149.4208441
51
163.628295
0
ARC
8
DEFAULT_255_1_388
10
6.2374514
20
45.1999345
40
0.5749004
50
163.3764549
51
172.141138
0
ARC
8
DEFAULT_255_1_388
10
6.6087235
20
45.1467582
40
0.9499585
50
172.0258462
51
178.0705453
0
ARC
8
DEFAULT_255_1_388
10
6.9508788
20
45.1305682
40
1.2924734
50
177.8639301
51
179.5036263
0
ARC
8
DEFAULT_255_1_388
10
6.8289807
20
44.8702151
40
1.170534
50
179.7995545
51
185.246089
0
ARC
8
DEFAULT_255_1_388
10
6.37414
20
44.8271404
40
0.7136613
50
185.1411911
51
193.0082205
0
ARC
8
DEFAULT_255_1_388
10
6.076766
20
44.7568441
40
0.4080987
50
192.7897338
51
205.2507384
0
ARC
8
DEFAULT_255_1_388
10
5.958987
20
44.7042538
40
0.2791522
50
205.8001921
51
211.2545876
0
ARC
8
DEFAULT_255_1_388
10
5.9001409
20
44.6648132
40
0.2084074
50
210.3789935
51
238.4007996
0
ARC
8
DEFAULT_255_1_388
10
5.8979495
20
44.6700786
40
0.2117943
50
239.6521916
51
265.9793852
0
ARC
8
DEFAULT_255_1_388
10
5.9075344
20
44.7457358
40
0.2879689
50
265.1324455
51
270.0603288
0
ARC
8
DEFAULT_255_1_388
10
5.9107721
20
44.7092418
40
0.2514919
50
269.3314378
51
287.2180039
0
ARC
8
DEFAULT_255_1_388
10
5.9262804
20
44.6526291
40
0.1928357
50
287.7957942
51
329.0808983
0
ARC
8
DEFAULT_255_1_388
10
5.8185561
20
44.7198651
40
0.319808
50
328.6635261
51
343.3325043
0
ARC
8
DEFAULT_255_1_388
10
5.5741019
20
44.7960195
40
0.5758408
50
343.0498092
51
351.9392499
0
ARC
8
DEFAULT_255_1_388
10
5.1840341
20
44.8535205
40
0.9701202
50
351.8071632
51
357.7957897
0
ARC
8
DEFAULT_255_1_388
10
4.8205818
20
44.8723724
40
1.3340376
50
357.5870923
51
359.2682493
0
LINE
8
DEFAULT_255_1_388
10
4.1841367
20
53.5924898
11
4.1841367
21
52.2769
0
LINE
8
DEFAULT_255_1_388
10
4.1841367
20
52.2769
11
4.0106523
21
52.2769
0
LINE
8
DEFAULT_255_1_388
10
4.0106523
20
52.2769
11
4.0106523
21
53.5924898
0
LINE
8
DEFAULT_255_1_388
10
4.0106523
20
53.5924898
11
4.1841367
21
53.5924898
0
LINE
8
DEFAULT_255_1_388
10
5.2666069
20
53.0666153
11
5.2666069
21
53.0178229
0
LINE
8
DEFAULT_255_1_388
10
4.6567009
20
52.2759964
11
4.6241726
21
52.2759964
0
LINE
8
DEFAULT_255_1_388
10
4.6241726
20
52.2759964
11
4.6241726
21
52.4169525
0
LINE
8
DEFAULT_255_1_388
10
4.6241726
20
52.4169525
11
4.6594116
21
52.4169525
0
LINE
8
DEFAULT_255_1_388
10
5.0994475
20
53.034087
11
5.0994475
21
53.1009508
0
ARC
8
DEFAULT_255_1_388
10
4.7851567
20
53.1179877
40
0.4089973
50
297.4036461
51
320.0168133
0
ARC
8
DEFAULT_255_1_388
10
4.8177747
20
53.0553072
40
0.3383378
50
270.2631886
51
297.3852322
0
ARC
8
DEFAULT_255_1_388
10
4.8139423
20
53.1090343
40
0.3920983
50
269.9969069
51
270.7871389
0
ARC
8
DEFAULT_255_1_388
10
4.8110746
20
53.1072737
40
0.3903482
50
254.5997295
51
270.4178147
0
ARC
8
DEFAULT_255_1_388
10
4.7950278
20
53.0437693
40
0.3248657
50
236.4717231
51
254.3539376
0
ARC
8
DEFAULT_255_1_388
10
4.8126009
20
53.0673999
40
0.3542746
50
208.4727261
51
236.2134628
0
ARC
8
DEFAULT_255_1_388
10
4.8844773
20
53.1113676
40
0.4384402
50
204.3450776
51
209.0455365
0
ARC
8
DEFAULT_255_1_388
10
4.9609149
20
53.14378
40
0.5214459
50
183.9375459
51
204.1275509
0
ARC
8
DEFAULT_255_1_388
10
5.0631455
20
53.1547863
40
0.6242037
50
179.9652726
51
184.3010611
0
ARC
8
DEFAULT_255_1_388
10
5.0361
20
53.1585004
40
0.5971675
50
166.7585952
51
180.3200491
0
ARC
8
DEFAULT_255_1_388
10
4.9408808
20
53.1791979
40
0.4997418
50
154.6954866
51
166.5679151
0
ARC
8
DEFAULT_255_1_388
10
4.8449048
20
53.2275411
40
0.3923208
50
136.3325251
51
155.0871367
0
ARC
8
DEFAULT_255_1_388
10
4.8132968
20
53.2546271
40
0.3507618
50
121.2365985
51
135.9680081
0
ARC
8
DEFAULT_255_1_388
10
4.8291032
20
53.2253541
40
0.3839917
50
96.8454764
51
120.9881329
0
ARC
8
DEFAULT_255_1_388
10
4.8454838
20
53.1200942
40
0.4904679
50
89.887204
51
97.2797758
0
ARC
8
DEFAULT_255_1_388
10
4.8513811
20
53.1918652
40
0.418725
50
70.6505767
51
90.6748382
0
ARC
8
DEFAULT_255_1_388
10
4.8661508
20
53.2496091
40
0.3593866
50
36.7493297
51
69.8220487
0
ARC
8
DEFAULT_255_1_388
10
4.7537855
20
53.1620446
40
0.5018201
50
15.3958155
51
37.0841102
0
ARC
8
DEFAULT_255_1_388
10
4.514214
20
53.0922111
40
0.7513436
50
3.9487796
51
15.6798517
0
ARC
8
DEFAULT_255_1_388
10
4.2440782
20
53.067881
40
1.0225293
50
359.9290791
51
4.266464
0
ARC
8
DEFAULT_255_1_388
10
3.7259699
20
53.0103372
40
1.5406551
50
352.8365702
51
0.2783851
0
ARC
8
DEFAULT_255_1_388
10
4.320793
20
52.9330664
40
0.9408425
50
341.8359339
51
352.9884057
0
ARC
8
DEFAULT_255_1_388
10
4.6828917
20
52.8110144
40
0.5587481
50
322.8579243
51
342.1527461
0
ARC
8
DEFAULT_255_1_388
10
4.7800609
20
52.744735
40
0.4413099
50
319.3348471
51
322.100194
0
ARC
8
DEFAULT_255_1_388
10
4.7452541
20
52.7796814
40
0.4904992
50
285.954114
51
318.8878716
0
ARC
8
DEFAULT_255_1_388
10
4.6634978
20
53.0395865
40
0.7628991
50
272.9280841
51
286.4924389
0
ARC
8
DEFAULT_255_1_388
10
4.6421282
20
53.293024
40
1.017132
50
270.8209173
51
273.4010121
0
ARC
8
DEFAULT_255_1_388
10
4.6521305
20
53.0882073
40
0.6712943
50
270.6214576
51
281.4062333
0
ARC
8
DEFAULT_255_1_388
10
4.700503
20
52.856925
40
0.4350167
50
281.1852583
51
299.0622058
0
ARC
8
DEFAULT_255_1_388
10
4.7425275
20
52.7758138
40
0.3437146
50
299.5068171
51
313.1200142
0
ARC
8
DEFAULT_255_1_388
10
4.7450012
20
52.7668959
40
0.3355418
50
313.8525725
51
338.5989631
0
ARC
8
DEFAULT_255_1_388
10
4.562314
20
52.8419576
40
0.5330317
50
338.2523315
51
351.2431701
0
ARC
8
DEFAULT_255_1_388
10
4.2910891
20
52.8880494
40
0.8081235
50
350.940933
51
357.6690137
0
ARC
8
DEFAULT_255_1_388
10
4.8412771
20
53.1133048
40
0.2581236
50
269.9447107
51
306.8249644
0
ARC
8
DEFAULT_255_1_388
10
4.8146073
20
53.160906
40
0.3122948
50
305.5071046
51
327.0773808
0
ARC
8
DEFAULT_255_1_388
10
4.8279125
20
53.1502445
40
0.2953369
50
327.4106457
51
336.8396801
0
ARC
8
DEFAULT_255_1_388
10
4.4798838
20
53.1045932
40
0.6195743
50
359.663158
51
10.1176387
0
ARC
8
DEFAULT_255_1_388
10
4.6771601
20
53.1410922
40
0.4189561
50
9.9431549
51
26.7699242
0
ARC
8
DEFAULT_255_1_388
10
4.7443587
20
53.1720796
40
0.3450125
50
27.2018067
51
34.6833639
0
ARC
8
DEFAULT_255_1_388
10
4.79942
20
53.213456
40
0.2762035
50
34.124913
51
50.30709
0
ARC
8
DEFAULT_255_1_388
10
4.8496683
20
53.2735741
40
0.1978518
50
50.3850304
51
90.6705051
0
ARC
8
DEFAULT_255_1_388
10
4.8444077
20
53.2393074
40
0.2321235
50
89.2729817
51
111.9140267
0
ARC
8
DEFAULT_255_1_388
10
4.8422164
20
53.2551308
40
0.2166604
50
112.9381864
51
142.5320936
0
ARC
8
DEFAULT_255_1_388
10
4.9036653
20
53.2052392
40
0.2957902
50
142.1024021
51
166.3835244
0
ARC
8
DEFAULT_255_1_388
10
5.0365623
20
53.1709213
40
0.4330361
50
166.1100968
51
178.6653563
0
ARC
8
DEFAULT_255_1_388
10
5.1547549
20
53.1643061
40
0.5513642
50
178.2641888
51
180.010994
0
ARC
8
DEFAULT_255_1_388
10
5.064205
20
53.1611136
40
0.4608248
50
179.6162225
51
191.8786013
0
ARC
8
DEFAULT_255_1_388
10
4.926936
20
53.130759
40
0.3202502
50
191.6192934
51
215.2970746
0
ARC
8
DEFAULT_255_1_388
10
4.9030015
20
53.1164963
40
0.2924827
50
215.7258926
51
216.5355437
0
ARC
8
DEFAULT_255_1_388
10
4.8441636
20
53.0691919
40
0.2170661
50
215.7486606
51
239.9728403
0
ARC
8
DEFAULT_255_1_388
10
4.8362801
20
53.0634838
40
0.208217
50
241.065081
51
269.280972
0
ARC
8
DEFAULT_255_1_388
10
4.840996
20
53.1190327
40
0.2638514
50
268.4083352
51
270.0069622
0
LINE
8
DEFAULT_255_1_388
10
4.1841367
20
61.5299898
11
4.1841367
21
60.2144
0
LINE
8
DEFAULT_255_1_388
10
4.1841367
20
60.2144
11
4.0106523
21
60.2144
0
LINE
8
DEFAULT_255_1_388
10
4.0106523
20
60.2144
11
4.0106523
21
61.5299898
0
LINE
8
DEFAULT_255_1_388
10
4.0106523
20
61.5299898
11
4.1841367
21
61.5299898
0
ARC
8
DEFAULT_255_1_388
10
4.9382672
20
61.183772
40
0.3175098
50
338.8762533
51
0.5167111
0
ARC
8
DEFAULT_255_1_388
10
4.9572266
20
61.17866
40
0.2979894
50
325.8415285
51
338.4793574
0
ARC
8
DEFAULT_255_1_388
10
4.91329
20
61.2091242
40
0.351452
50
296.7587686
51
325.7536481
0
ARC
8
DEFAULT_255_1_388
10
4.8804527
20
61.2645363
40
0.4157374
50
296.0927901
51
297.3613472
0
ARC
8
DEFAULT_255_1_388
10
4.9098723
20
60.5262593
40
0.395855
50
47.9007294
51
67.1948823
0
ARC
8
DEFAULT_255_1_388
10
4.9319365
20
60.5539599
40
0.360516
50
35.2363914
51
47.551141
0
ARC
8
DEFAULT_255_1_388
10
4.9613769
20
60.5736093
40
0.3251343
50
359.2759765
51
35.4014143
0
ARC
8
DEFAULT_255_1_388
10
4.8775695
20
60.5653787
40
0.4089365
50
343.1293083
51
0.5775513
0
ARC
8
DEFAULT_255_1_388
10
4.9590809
20
60.5429336
40
0.3244269
50
310.8496669
51
342.7449331
0
ARC
8
DEFAULT_255_1_388
10
4.9120683
20
60.5965913
40
0.3957651
50
281.5472888
51
310.9170406
0
ARC
8
DEFAULT_255_1_388
10
4.8719558
20
60.7712814
40
0.5749654
50
269.619248
51
281.9789564
0
ARC
8
DEFAULT_255_1_388
10
4.8638336
20
60.7713776
40
0.5750649
50
257.4585678
51
270.4285689
0
ARC
8
DEFAULT_255_1_388
10
4.8209856
20
60.5909741
40
0.389671
50
228.7554326
51
257.8484789
0
ARC
8
DEFAULT_255_1_388
10
4.7861341
20
60.5490228
40
0.335154
50
184.0104975
51
228.5071184
0
ARC
8
DEFAULT_255_1_388
10
4.9169734
20
60.568943
40
0.4671891
50
179.9315832
51
185.3253753
0
ARC
8
DEFAULT_255_1_388
10
4.7846246
20
60.5731592
40
0.33486
50
145.6796023
51
180.6259786
0
ARC
8
DEFAULT_255_1_388
10
4.8030012
20
60.5603271
40
0.3572723
50
115.5537685
51
145.6415986
0
ARC
8
DEFAULT_255_1_388
10
4.8413056
20
60.4917087
40
0.4357296
50
113.243307
51
116.2057839
0
ARC
8
DEFAULT_255_1_388
10
4.8241708
20
61.2114379
40
0.3549126
50
222.9549744
51
244.1370481
0
ARC
8
DEFAULT_255_1_388
10
4.8104351
20
61.1960378
40
0.3343711
50
213.3436887
51
222.6274467
0
ARC
8
DEFAULT_255_1_388
10
4.788842
20
61.1813653
40
0.3082678
50
180.431584
51
213.271499
0
ARC
8
DEFAULT_255_1_388
10
4.8523419
20
61.1866296
40
0.3718363
50
179.9991191
51
181.1690594
0
ARC
8
DEFAULT_255_1_388
10
4.8995875
20
61.1905072
40
0.4190996
50
164.6186169
51
180.529336
0
ARC
8
DEFAULT_255_1_388
10
4.7985524
20
61.217678
40
0.3144772
50
132.2455553
51
164.5090724
0
ARC
8
DEFAULT_255_1_388
10
4.8308503
20
61.181107
40
0.3632644
50
100.7053914
51
132.1386381
0
ARC
8
DEFAULT_255_1_388
10
4.8651564
20
61.0261118
40
0.5219578
50
89.6730358
51
101.2451698
0
ARC
8
DEFAULT_255_1_388
10
4.8721555
20
61.0457648
40
0.5023124
50
76.287748
51
90.4586006
0
ARC
8
DEFAULT_255_1_388
10
4.9066057
20
61.1832671
40
0.3605639
50
47.8240511
51
76.4266241
0
ARC
8
DEFAULT_255_1_388
10
4.9316441
20
61.2125599
40
0.3220463
50
6.9168387
51
47.6262497
0
ARC
8
DEFAULT_255_1_388
10
4.7981894
20
61.1879004
40
0.4575765
50
359.8415968
51
7.9697453
0
ARC
8
DEFAULT_255_1_388
10
4.8366164
20
60.5758519
40
0.2827228
50
359.445363
51
16.9256873
0
ARC
8
DEFAULT_255_1_388
10
4.8893598
20
60.5903781
40
0.2280396
50
17.2920767
51
45.4630727
0
ARC
8
DEFAULT_255_1_388
10
4.8832733
20
60.5851324
40
0.2360485
50
45.30305
51
83.1920945
0
ARC
8
DEFAULT_255_1_388
10
4.8671478
20
60.4949473
40
0.3275527
50
82.2612665
51
90.1434275
0
ARC
8
DEFAULT_255_1_388
10
4.8636754
20
60.5211869
40
0.3013237
50
89.4956434
51
104.8580688
0
ARC
8
DEFAULT_255_1_388
10
4.8437944
20
60.5965455
40
0.2233867
50
104.8856641
51
135.244616
0
ARC
8
DEFAULT_255_1_388
10
4.8493933
20
60.5915352
40
0.2308906
50
135.3399546
51
172.1044062
0
ARC
8
DEFAULT_255_1_388
10
4.9401457
20
60.5741667
40
0.3232034
50
171.2645637
51
180.186429
0
ARC
8
DEFAULT_255_1_388
10
4.9211462
20
60.5705426
40
0.304213
50
179.5154935
51
193.6464289
0
ARC
8
DEFAULT_255_1_388
10
4.8293138
20
60.5471473
40
0.209456
50
193.3540274
51
225.8258581
0
ARC
8
DEFAULT_255_1_388
10
4.833901
20
60.5551076
40
0.2183738
50
226.4180634
51
255.8552336
0
ARC
8
DEFAULT_255_1_388
10
4.8627477
20
60.6604521
40
0.3275812
50
255.4654104
51
268.7987425
0
ARC
8
DEFAULT_255_1_388
10
4.8680653
20
60.7546545
40
0.4218877
50
268.3449238
51
270.0094605
0
ARC
8
DEFAULT_255_1_388
10
4.8706886
20
60.6778094
40
0.3450519
50
269.5759586
51
282.0820163
0
ARC
8
DEFAULT_255_1_388
10
4.8959923
20
60.5659363
40
0.2303642
50
281.752014
51
306.6056188
0
ARC
8
DEFAULT_255_1_388
10
4.9070731
20
60.5477802
40
0.2091906
50
307.1346085
51
314.027845
0
ARC
8
DEFAULT_255_1_388
10
4.9030243
20
60.5507459
40
0.2141385
50
314.2552483
51
350.1694025
0
ARC
8
DEFAULT_255_1_388
10
4.807248
20
60.5715175
40
0.312082
50
349.4140529
51
0.2933014
0
ARC
8
DEFAULT_255_1_388
10
4.8657757
20
61.1518924
40
0.2588377
50
89.477747
51
105.729729
0
ARC
8
DEFAULT_255_1_388
10
4.8504677
20
61.2087367
40
0.1999733
50
105.9233417
51
135.1660906
0
ARC
8
DEFAULT_255_1_388
10
4.8527708
20
61.2071412
40
0.2027322
50
135.3052302
51
168.9883645
0
ARC
8
DEFAULT_255_1_388
10
4.9458724
20
61.1857996
40
0.2982129
50
168.3801673
51
180.3602268
0
ARC
8
DEFAULT_255_1_388
10
4.9201841
20
61.1815622
40
0.2725291
50
179.5033122
51
194.9125571
0
ARC
8
DEFAULT_255_1_388
10
4.8543248
20
61.1642427
40
0.204431
50
194.9720816
51
224.194444
0
ARC
8
DEFAULT_255_1_388
10
4.8511613
20
61.1616635
40
0.2003651
50
224.2962453
51
262.015664
0
ARC
8
DEFAULT_255_1_388
10
4.8671617
20
61.2439315
40
0.2840925
50
261.1245923
51
270.1962896
0
ARC
8
DEFAULT_255_1_388
10
4.8705098
20
61.2228859
40
0.2630559
50
269.4827276
51
285.0987215
0
ARC
8
DEFAULT_255_1_388
10
4.8878534
20
61.1578175
40
0.1957162
50
285.1585357
51
315.9484501
0
ARC
8
DEFAULT_255_1_388
10
4.8778408
20
61.1670315
40
0.2093195
50
316.0413965
51
351.916092
0
ARC
8
DEFAULT_255_1_388
10
4.7953782
20
61.1829323
40
0.2932279
50
351.105835
51
0.1939062
0
ARC
8
DEFAULT_255_1_388
10
4.8249416
20
61.1863224
40
0.2636739
50
359.4789618
51
16.0678224
0
ARC
8
DEFAULT_255_1_388
10
4.8784888
20
61.2007721
40
0.2082215
50
16.3252067
51
44.7913869
0
ARC
8
DEFAULT_255_1_388
10
4.876495
20
61.200832
40
0.2095992
50
44.3957814
51
88.2499162
0
ARC
8
DEFAULT_255_1_388
10
4.8682285
20
61.1320006
40
0.2787189
50
86.9833854
51
90.0192215
0
LINE
8
DEFAULT_255_1_388
10
4.1841367
20
69.4674898
11
4.1841367
21
68.1519
0
LINE
8
DEFAULT_255_1_388
10
4.1841367
20
68.1519
11
4.0106523
21
68.1519
0
LINE
8
DEFAULT_255_1_388
10
4.0106523
20
68.1519
11
4.0106523
21
69.4674898
0
LINE
8
DEFAULT_255_1_388
10
4.0106523
20
69.4674898
11
4.1841367
21
69.4674898
0
LINE
8
DEFAULT_255_1_388
10
5.3072673
20
69.4674898
11
5.3072673
21
69.3735191
0
LINE
8
DEFAULT_255_1_388
10
5.3072673
20
69.3735191
11
4.7624179
21
68.1519
0
LINE
8
DEFAULT_255_1_388
10
4.7624179
20
68.1519
11
4.5871264
21
68.1519
0
LINE
8
DEFAULT_255_1_388
10
4.5871264
20
68.1519
11
5.1301687
21
69.330148
0
LINE
8
DEFAULT_255_1_388
10
5.1301687
20
69.330148
11
4.4181599
21
69.330148
0
LINE
8
DEFAULT_255_1_388
10
4.4181599
20
69.330148
11
4.4181599
21
69.4674898
0
LINE
8
DEFAULT_255_1_388
10
4.4181599
20
69.4674898
11
5.3072673
21
69.4674898
0
LINE
8
DEFAULT_255_1_388
10
4.1841367
20
77.4049898
11
4.1841367
21
76.0894
0
LINE
8
DEFAULT_255_1_388
10
4.1841367
20
76.0894
11
4.0106523
21
76.0894
0
LINE
8
DEFAULT_255_1_388
10
4.0106523
20
76.0894
11
4.0106523
21
77.4049898
0
LINE
8
DEFAULT_255_1_388
10
4.0106523
20
77.4049898
11
4.1841367
21
77.4049898
0
LINE
8
DEFAULT_255_1_388
10
5.0840869
20
77.4058934
11
5.1139045
21
77.4058934
0
LINE
8
DEFAULT_255_1_388
10
5.1139045
20
77.4058934
11
5.1139045
21
77.2640338
0
LINE
8
DEFAULT_255_1_388
10
5.1139045
20
77.2640338
11
5.0831833
21
77.2640338
0
LINE
8
DEFAULT_255_1_388
10
4.4678559
20
76.5899747
11
4.4678559
21
76.6541278
0
LINE
8
DEFAULT_255_1_388
10
4.6359189
20
76.6324422
11
4.6359189
21
76.5709999
0
ARC
8
DEFAULT_255_1_388
10
5.0890725
20
76.7017826
40
0.562282
50
90.6001079
51
104.5146616
0
ARC
8
DEFAULT_255_1_388
10
5.0453684
20
76.86431
40
0.3939917
50
104.2855758
51
133.8630124
0
ARC
8
DEFAULT_255_1_388
10
5.0637937
20
76.8521243
40
0.4155734
50
134.5304124
51
161.6210222
0
ARC
8
DEFAULT_255_1_388
10
5.2497869
20
76.7865421
40
0.6127682
50
161.2850533
51
174.2074364
0
ARC
8
DEFAULT_255_1_388
10
5.4087436
20
76.7646437
40
0.7731446
50
173.7817938
51
174.9251711
0
ARC
8
DEFAULT_255_1_388
10
4.8961629
20
76.609127
40
0.3412588
50
95.8332067
51
138.995412
0
ARC
8
DEFAULT_255_1_388
10
4.921291
20
76.4652695
40
0.4870358
50
89.8755506
51
97.0540979
0
ARC
8
DEFAULT_255_1_388
10
4.9266299
20
76.5592841
40
0.3930432
50
71.6407016
51
90.6240821
0
ARC
8
DEFAULT_255_1_388
10
4.9435692
20
76.6216433
40
0.3285421
50
39.6368051
51
71.0190743
0
ARC
8
DEFAULT_255_1_388
10
4.87196
20
76.5597586
40
0.4231706
50
10.6588054
51
39.9044509
0
ARC
8
DEFAULT_255_1_388
10
4.6978145
20
76.5219223
40
0.60133
50
359.6827842
51
11.1326896
0
ARC
8
DEFAULT_255_1_388
10
4.6933481
20
76.5139715
40
0.6058047
50
347.2485908
51
0.4371098
0
ARC
8
DEFAULT_255_1_388
10
4.8809267
20
76.4688379
40
0.4128987
50
318.1408565
51
347.6118497
0
ARC
8
DEFAULT_255_1_388
10
4.9174863
20
76.4387903
40
0.3656244
50
275.6342406
51
317.824739
0
ARC
8
DEFAULT_255_1_388
10
4.8926384
20
76.5849827
40
0.513655
50
269.8872513
51
276.7916069
0
ARC
8
DEFAULT_255_1_388
10
4.8864577
20
76.4696181
40
0.398323
50
246.9139443
51
270.7436787
0
ARC
8
DEFAULT_255_1_388
10
4.8871773
20
76.4536044
40
0.3839368
50
218.1665534
51
245.8780431
0
ARC
8
DEFAULT_255_1_388
10
4.9861145
20
76.5363903
40
0.5128958
50
191.4115343
51
218.6077624
0
ARC
8
DEFAULT_255_1_388
10
5.2041461
20
76.5852777
40
0.7363054
50
179.6344971
51
191.7836758
0
ARC
8
DEFAULT_255_1_388
10
5.8321336
20
76.6616495
40
1.3642984
50
171.4523743
51
180.3158856
0
ARC
8
DEFAULT_255_1_388
10
5.3377063
20
76.7385895
40
0.8639311
50
157.9802296
51
171.6246761
0
ARC
8
DEFAULT_255_1_388
10
5.0886413
20
76.8379038
40
0.5958004
50
141.4299236
51
157.8541251
0
ARC
8
DEFAULT_255_1_388
10
5.0164497
20
76.8889746
40
0.5075416
50
102.871586
51
140.8564533
0
ARC
8
DEFAULT_255_1_388
10
5.0893049
20
76.6144943
40
0.7914163
50
90.377773
51
103.5868422
0
ARC
8
DEFAULT_255_1_388
10
4.8937571
20
76.5464543
40
0.2667015
50
89.8751238
51
126.2072139
0
ARC
8
DEFAULT_255_1_388
10
4.8989042
20
76.5290847
40
0.2838229
50
124.9742447
51
144.8960197
0
ARC
8
DEFAULT_255_1_388
10
4.8791287
20
76.5451981
40
0.2583845
50
145.2974778
51
160.2660922
0
ARC
8
DEFAULT_255_1_388
10
5.2247775
20
76.5674151
40
0.5888695
50
179.6512124
51
190.285571
0
ARC
8
DEFAULT_255_1_388
10
5.0342255
20
76.5314968
40
0.3949683
50
190.0944895
51
207.5099647
0
ARC
8
DEFAULT_255_1_388
10
4.9705836
20
76.5012177
40
0.3245464
50
207.9585471
51
216.325377
0
ARC
8
DEFAULT_255_1_388
10
4.9323473
20
76.4697712
40
0.2751259
50
215.7661336
51
232.5457193
0
ARC
8
DEFAULT_255_1_388
10
4.8892589
20
76.4150273
40
0.2054668
50
232.8005815
51
270.6605497
0
ARC
8
DEFAULT_255_1_388
10
4.8944014
20
76.4559853
40
0.2464268
50
269.3550767
51
288.474612
0
ARC
8
DEFAULT_255_1_388
10
4.9048521
20
76.4166721
40
0.2058436
50
289.1831976
51
322.9685307
0
ARC
8
DEFAULT_255_1_388
10
4.8360622
20
76.4709279
40
0.2934408
50
322.6007085
51
346.5183319
0
ARC
8
DEFAULT_255_1_388
10
4.7058378
20
76.5041434
40
0.4278249
50
346.2584622
51
358.7739592
0
ARC
8
DEFAULT_255_1_388
10
4.5906954
20
76.5103829
40
0.5430876
50
358.3757628
51
0.0082477
0
ARC
8
DEFAULT_255_1_388
10
4.6763772
20
76.5134856
40
0.4574157
50
359.6211417
51
11.28403
0
ARC
8
DEFAULT_255_1_388
10
4.8200378
20
76.5434535
40
0.3106708
50
11.0483152
51
31.8145585
0
ARC
8
DEFAULT_255_1_388
10
4.8548084
20
76.5623045
40
0.2711963
50
32.3028554
51
38.0820598
0
ARC
8
DEFAULT_255_1_388
10
4.9021316
20
76.6051717
40
0.2075566
50
36.8249851
51
85.741667
0
ARC
8
DEFAULT_255_1_388
10
4.8945729
20
76.5488065
40
0.2643487
50
85.0150021
51
90.050843
0
LINE
8
DEFAULT_255_1_388
10
4.1841367
20
85.3424898
11
4.1841367
21
84.0269
0
LINE
8
DEFAULT_255_1_388
10
4.1841367
20
84.0269
11
4.0106523
21
84.0269
0
LINE
8
DEFAULT_255_1_388
10
4.0106523
20
84.0269
11
4.0106523
21
85.3424898
0
LINE
8
DEFAULT_255_1_388
10
4.0106523
20
85.3424898
11
4.1841367
21
85.3424898
0
LINE
8
DEFAULT_255_1_388
10
4.6684472
20
84.6521666
11
4.5347197
21
84.6865021
0
LINE
8
DEFAULT_255_1_388
10
4.5347197
20
84.6865021
11
4.6015834
21
85.3424898
0
LINE
8
DEFAULT_255_1_388
10
4.6015834
20
85.3424898
11
5.2756425
21
85.3424898
0
LINE
8
DEFAULT_255_1_388
10
5.2756425
20
85.3424898
11
5.2756425
21
85.1879803
0
LINE
8
DEFAULT_255_1_388
10
5.2756425
20
85.1879803
11
4.7434431
21
85.1879803
0
LINE
8
DEFAULT_255_1_388
10
4.7434431
20
85.1879803
11
4.7036862
21
84.8292652
0
LINE
8
DEFAULT_255_1_388
10
4.4877343
20
84.3729652
11
4.6458581
21
84.3729652
0
LINE
8
DEFAULT_255_1_388
10
4.7127219
20
84.6883092
11
4.6684472
21
84.6521666
0
ARC
8
DEFAULT_255_1_388
10
4.9123476
20
84.4715241
40
0.4141476
50
93.7181681
51
120.253934
0
ARC
8
DEFAULT_255_1_388
10
4.9229528
20
84.3806284
40
0.5055616
50
89.9660471
51
94.2495185
0
ARC
8
DEFAULT_255_1_388
10
4.927535
20
84.4469154
40
0.4392953
50
73.8045384
51
90.5585736
0
ARC
8
DEFAULT_255_1_388
10
4.9539608
20
84.543452
40
0.3392225
50
41.3071072
51
73.543002
0
ARC
8
DEFAULT_255_1_388
10
4.9071428
20
84.5031461
40
0.4009977
50
13.5075837
51
41.2174839
0
ARC
8
DEFAULT_255_1_388
10
4.7224525
20
84.4547907
40
0.5918864
50
1.1330171
51
13.8830737
0
ARC
8
DEFAULT_255_1_388
10
4.5628171
20
84.4462522
40
0.7516787
50
359.9925091
51
1.5431298
0
ARC
8
DEFAULT_255_1_388
10
4.7072786
20
84.4416027
40
0.6072343
50
347.8572712
51
0.4294349
0
ARC
8
DEFAULT_255_1_388
10
4.904192
20
84.3969898
40
0.4053482
50
323.6727442
51
348.1674594
0
ARC
8
DEFAULT_255_1_388
10
4.9372885
20
84.3768175
40
0.3667495
50
316.8171818
51
323.1486802
0
ARC
8
DEFAULT_255_1_388
10
4.9442009
20
84.3726612
40
0.358869
50
281.839603
51
316.5458142
0
ARC
8
DEFAULT_255_1_388
10
4.9019296
20
84.5476363
40
0.5388223
50
269.5770964
51
282.4214641
0
ARC
8
DEFAULT_255_1_388
10
4.8939217
20
84.523593
40
0.5147801
50
256.2425863
51
270.4486481
0
ARC
8
DEFAULT_255_1_388
10
4.8602745
20
84.3886124
40
0.3756708
50
228.9024379
51
256.33135
0
ARC
8
DEFAULT_255_1_388
10
4.8519725
20
84.3755054
40
0.360344
50
193.7536029
51
228.5272638
0
ARC
8
DEFAULT_255_1_388
10
4.991229
20
84.4163463
40
0.5053599
50
184.9244437
51
194.4976052
0
ARC
8
DEFAULT_255_1_388
10
5.0128931
20
84.4203722
40
0.3700839
50
187.3596909
51
198.6733728
0
ARC
8
DEFAULT_255_1_388
10
4.8948175
20
84.3794373
40
0.2451195
50
198.4453795
51
217.7945479
0
ARC
8
DEFAULT_255_1_388
10
4.8615347
20
84.3558563
40
0.2043754
50
218.2887146
51
228.5613203
0
ARC
8
DEFAULT_255_1_388
10
4.8725354
20
84.3706902
40
0.2227819
50
228.9652423
51
258.1237049
0
ARC
8
DEFAULT_255_1_388
10
4.8956791
20
84.4697964
40
0.3245374
50
257.7260585
51
270.4013717
0
ARC
8
DEFAULT_255_1_388
10
4.9007289
20
84.4197255
40
0.2744726
50
269.4204315
51
286.420998
0
ARC
8
DEFAULT_255_1_388
10
4.9174345
20
84.3590705
40
0.2115721
50
286.7250065
51
320.6004665
0
ARC
8
DEFAULT_255_1_388
10
4.8743261
20
84.3940527
40
0.2670878
50
320.6712228
51
344.5440474
0
ARC
8
DEFAULT_255_1_388
10
4.7441974
20
84.4322394
40
0.4026927
50
344.241448
51
356.735803
0
ARC
8
DEFAULT_255_1_388
10
4.6038282
20
84.4438656
40
0.5435085
50
356.3547471
51
0.0507222
0
ARC
8
DEFAULT_255_1_388
10
4.7540547
20
84.4473812
40
0.3932934
50
359.5579289
51
12.9534322
0
ARC
8
DEFAULT_255_1_388
10
4.8727387
20
84.4761586
40
0.2711827
50
12.6489751
51
41.608121
0
ARC
8
DEFAULT_255_1_388
10
4.8986547
20
84.4981946
40
0.2371737
50
41.7851122
51
85.9892156
0
ARC
8
DEFAULT_255_1_388
10
4.8847857
20
84.4066738
40
0.3295244
50
84.6965848
51
90.0672125
0
ARC
8
DEFAULT_255_1_388
10
4.8821424
20
84.3315118
40
0.4046926
50
89.6804991
51
99.161352
0
ARC
8
DEFAULT_255_1_388
10
4.8590433
20
84.4695848
40
0.2647044
50
98.9836248
51
113.8905702
0
ARC
8
DEFAULT_255_1_388
10
4.8332108
20
84.5305118
40
0.1985386
50
114.195234
51
127.3641866
0
LINE
8
DEFAULT_255_1_388
10
4.3163367
20
93.2799898
11
4.3163367
21
91.9644
0
LINE
8
DEFAULT_255_1_388
10
4.3163367
20
91.9644
11
4.1428523
21
91.9644
0
LINE
8
DEFAULT_255_1_388
10
4.1428523
20
91.9644
11
4.1428523
21
93.2799898
0
LINE
8
DEFAULT_255_1_388
10
4.1428523
20
93.2799898
11
4.3163367
21
93.2799898
0
LINE
8
DEFAULT_255_1_388
10
5.2958005
20
93.2799898
11
5.2958005
21
92.406243
0
LINE
8
DEFAULT_255_1_388
10
5.2958005
20
92.406243
11
5.4783206
21
92.406243
0
LINE
8
DEFAULT_255_1_388
10
5.4783206
20
92.406243
11
5.4783206
21
92.2698048
0
LINE
8
DEFAULT_255_1_388
10
5.4783206
20
92.2698048
11
5.2958005
21
92.2698048
0
LINE
8
DEFAULT_255_1_388
10
5.2958005
20
92.2698048
11
5.2958005
21
91.9644
0
LINE
8
DEFAULT_255_1_388
10
5.2958005
20
91.9644
11
5.1277375
21
91.9644
0
LINE
8
DEFAULT_255_1_388
10
5.1277375
20
91.9644
11
5.1277375
21
92.2698048
0
LINE
8
DEFAULT_255_1_388
10
5.1277375
20
92.2698048
11
4.5286743
21
92.2698048
0
LINE
8
DEFAULT_255_1_388
10
4.5286743
20
92.2698048
11
4.5286743
21
92.3682933
0
LINE
8
DEFAULT_255_1_388
10
4.5286743
20
92.3682933
11
5.1177983
21
93.2799898
0
LINE
8
DEFAULT_255_1_388
10
5.1177983
20
93.2799898
11
5.2958005
21
93.2799898
0
LINE
8
DEFAULT_255_1_388
10
5.1078591
20
93.0152455
11
4.7184229
21
92.406243
0
LINE
8
DEFAULT_255_1_388
10
4.7184229
20
92.406243
11
5.1277375
21
92.406243
0
LINE
8
DEFAULT_255_1_388
10
5.1277375
20
92.406243
11
5.1277375
21
93.051388
0
LINE
8
DEFAULT_255_1_388
10
5.1277375
20
93.051388
11
5.1078591
21
93.0152455
0
LINE
8
DEFAULT_255_1_388
10
4.1841367
20
101.2174898
11
4.1841367
21
99.9019
0
LINE
8
DEFAULT_255_1_388
10
4.1841367
20
99.9019
11
4.0106523
21
99.9019
0
LINE
8
DEFAULT_255_1_388
10
4.0106523
20
99.9019
11
4.0106523
21
101.2174898
0
LINE
8
DEFAULT_255_1_388
10
4.0106523
20
101.2174898
11
4.1841367
21
101.2174898
0
LINE
8
DEFAULT_255_1_388
10
4.7009755
20
100.5045775
11
4.7009755
21
100.6410157
0
LINE
8
DEFAULT_255_1_388
10
4.7009755
20
100.6410157
11
4.826571
21
100.6410157
0
LINE
8
DEFAULT_255_1_388
10
4.6124262
20
100.8723282
11
4.4452668
21
100.8723282
0
LINE
8
DEFAULT_255_1_388
10
4.4335205
20
100.2488688
11
4.6015834
21
100.2488688
0
LINE
8
DEFAULT_255_1_388
10
4.826571
20
100.5045775
11
4.7009755
21
100.5045775
0
ARC
8
DEFAULT_255_1_388
10
4.8232936
20
101.0226922
40
0.3816905
50
270.491971
51
281.8953028
0
ARC
8
DEFAULT_255_1_388
10
4.8504363
20
100.8987199
40
0.2547877
50
281.6690378
51
301.2943765
0
ARC
8
DEFAULT_255_1_388
10
4.8695815
20
100.8636926
40
0.2149197
50
301.7834992
51
311.754567
0
ARC
8
DEFAULT_255_1_388
10
4.8798856
20
100.852265
40
0.1995326
50
311.7325027
51
354.2803031
0
ARC
8
DEFAULT_255_1_388
10
4.7981272
20
100.866328
40
0.2823461
50
353.0941646
51
0.1174696
0
ARC
8
DEFAULT_255_1_388
10
4.746283
20
100.8716874
40
0.3342238
50
359.1804452
51
15.0452323
0
ARC
8
DEFAULT_255_1_388
10
4.8976888
20
100.9158546
40
0.1765747
50
13.957816
51
77.6713812
0
ARC
8
DEFAULT_255_1_388
10
4.8542124
20
100.7600464
40
0.3381982
50
76.111571
51
90.7028736
0
ARC
8
DEFAULT_255_1_388
10
4.8475536
20
100.790825
40
0.3074046
50
89.5321574
51
103.5319393
0
ARC
8
DEFAULT_255_1_388
10
4.824992
20
100.8807443
40
0.2147041
50
103.2930114
51
133.5619756
0
ARC
8
DEFAULT_255_1_388
10
4.8199861
20
100.8874351
40
0.2064084
50
133.8349761
51
173.5343225
0
ARC
8
DEFAULT_255_1_388
10
4.9013519
20
100.8730144
40
0.2889266
50
172.5097183
51
180.1360699
0
ARC
8
DEFAULT_255_1_388
10
4.7943283
20
100.876888
40
0.3490913
50
155.3483706
51
180.7484035
0
ARC
8
DEFAULT_255_1_388
10
4.7888258
20
100.8736519
40
0.3454798
50
131.5745177
51
154.4799474
0
ARC
8
DEFAULT_255_1_388
10
4.8240541
20
100.8380422
40
0.3955058
50
96.9874487
51
131.9690874
0
ARC
8
DEFAULT_255_1_388
10
4.8487434
20
100.6979407
40
0.537622
50
89.8592909
51
97.7827481
0
ARC
8
DEFAULT_255_1_388
10
4.8541543
20
100.668436
40
0.5671399
50
78.3654493
51
90.4132586
0
ARC
8
DEFAULT_255_1_388
10
4.8944184
20
100.8550918
40
0.3762034
50
56.6229818
51
78.6387103
0
ARC
8
DEFAULT_255_1_388
10
4.9186013
20
100.8973846
40
0.3275964
50
47.0254604
51
56.085558
0
ARC
8
DEFAULT_255_1_388
10
4.9208264
20
100.9018189
40
0.3228382
50
10.9207523
51
46.777927
0
ARC
8
DEFAULT_255_1_388
10
4.7673858
20
100.8663401
40
0.4802559
50
359.6364235
51
11.6087615
0
ARC
8
DEFAULT_255_1_388
10
4.9738024
20
100.8646404
40
0.273833
50
332.3549969
51
359.7179765
0
ARC
8
DEFAULT_255_1_388
10
4.9006424
20
100.8993285
40
0.3547505
50
325.2332381
51
332.8746682
0
ARC
8
DEFAULT_255_1_388
10
4.9178007
20
100.8873763
40
0.3338396
50
292.9803892
51
325.2391113
0
ARC
8
DEFAULT_255_1_388
10
4.8867203
20
100.9478679
40
0.4016959
50
292.542178
51
293.6931461
0
ARC
8
DEFAULT_255_1_388
10
4.9310775
20
100.2213036
40
0.372079
50
57.643292
51
72.8626085
0
ARC
8
DEFAULT_255_1_388
10
4.9709609
20
100.2859273
40
0.2961455
50
36.7246661
51
57.4701329
0
ARC
8
DEFAULT_255_1_388
10
4.9696766
20
100.287347
40
0.2963321
50
8.054535
51
36.3561529
0
ARC
8
DEFAULT_255_1_388
10
4.8726439
20
100.2699073
40
0.3948682
50
359.8316595
51
8.5873361
0
ARC
8
DEFAULT_255_1_388
10
4.8303913
20
100.264497
40
0.4371398
50
343.9831631
51
0.557075
0
ARC
8
DEFAULT_255_1_388
10
4.9300962
20
100.2371963
40
0.3337749
50
311.6358204
51
343.7652116
0
ARC
8
DEFAULT_255_1_388
10
4.8875216
20
100.2851955
40
0.3979351
50
279.7829743
51
311.625622
0
ARC
8
DEFAULT_255_1_388
10
4.8536351
20
100.4468642
40
0.5630417
50
269.7285092
51
280.3857694
0
ARC
8
DEFAULT_255_1_388
10
4.8466664
20
100.4422241
40
0.5584119
50
256.6827433
51
270.4412869
0
ARC
8
DEFAULT_255_1_388
10
4.8085651
20
100.2864698
40
0.3980715
50
229.4223821
51
256.8554507
0
ARC
8
DEFAULT_255_1_388
10
4.7619204
20
100.2339683
40
0.3278564
50
181.8183354
51
229.6455015
0
ARC
8
DEFAULT_255_1_388
10
4.8788814
20
100.2486825
40
0.4453611
50
179.9760419
51
183.2330638
0
ARC
8
DEFAULT_255_1_388
10
4.8595366
20
100.2463781
40
0.2579652
50
179.4467996
51
196.2871626
0
ARC
8
DEFAULT_255_1_388
10
4.804682
20
100.2313709
40
0.2011057
50
196.5661293
51
227.7059371
0
ARC
8
DEFAULT_255_1_388
10
4.8231427
20
100.2520155
40
0.2287994
50
227.7653015
51
257.8763321
0
ARC
8
DEFAULT_255_1_388
10
4.848451
20
100.3580961
40
0.3378385
50
257.4583525
51
270.4267406
0
ARC
8
DEFAULT_255_1_388
10
4.853576
20
100.390723
40
0.3704652
50
269.5965319
51
280.8788143
0
ARC
8
DEFAULT_255_1_388
10
4.8793988
20
100.2617529
40
0.2389415
50
280.6347277
51
299.8594068
0
ARC
8
DEFAULT_255_1_388
10
4.9008757
20
100.2209736
40
0.19289
50
300.3575552
51
314.5515667
0
ARC
8
DEFAULT_255_1_388
10
4.8915433
20
100.2278025
40
0.204312
50
315.0730962
51
345.0429362
0
ARC
8
DEFAULT_255_1_388
10
4.7876941
20
100.2580539
40
0.31246
50
344.598526
51
357.9270698
0
ARC
8
DEFAULT_255_1_388
10
4.6867245
20
100.2649705
40
0.4136265
50
357.4755098
51
0.0224936
0
ARC
8
DEFAULT_255_1_388
10
4.8020123
20
100.2677099
40
0.2983498
50
359.5051035
51
13.4236939
0
ARC
8
DEFAULT_255_1_388
10
4.8995213
20
100.2926637
40
0.1977186
50
12.9497905
51
48.7550905
0
ARC
8
DEFAULT_255_1_388
10
4.8790135
20
100.2646373
40
0.2323321
50
49.509109
51
72.1832965
0
ARC
8
DEFAULT_255_1_388
10
4.8387603
20
100.1451632
40
0.358397
50
71.9008458
51
84.3555134
0
ARC
8
DEFAULT_255_1_388
10
4.8205998
20
99.9919712
40
0.512641
50
84.019632
51
89.3326067
0
LINE
8
DEFAULT_255_1_388
10
4.1841367
20
109.1549898
11
4.1841367
21
107.8394
0
LINE
8
DEFAULT_255_1_388
10
4.1841367
20
107.8394
11
4.0106523
21
107.8394
0
LINE
8
DEFAULT_255_1_388
10
4.0106523
20
107.8394
11
4.0106523
21
109.1549898
0
LINE
8
DEFAULT_255_1_388
10
4.0106523
20
109.1549898
11
4.1841367
21
109.1549898
0
LINE
8
DEFAULT_255_1_388
10
5.3199172
20
107.9758382
11
5.3199172
21
107.8394
0
LINE
8
DEFAULT_255_1_388
10
5.3199172
20
107.8394
11
4.4579167
21
107.8394
0
LINE
8
DEFAULT_255_1_388
10
4.4579167
20
107.8394
11
4.4579167
21
107.9595741
0
LINE
8
DEFAULT_255_1_388
10
4.4579167
20
107.9595741
11
4.9133132
21
108.4655702
0
LINE
8
DEFAULT_255_1_388
10
4.5997763
20
108.7673607
11
4.4326169
21
108.7673607
0
LINE
8
DEFAULT_255_1_388
10
5.0118017
20
108.358046
11
4.6594116
21
107.9758382
0
LINE
8
DEFAULT_255_1_388
10
4.6594116
20
107.9758382
11
5.3199172
21
107.9758382
0
ARC
8
DEFAULT_255_1_388
10
3.3957191
20
109.8075983
40
2.0258655
50
318.5132526
51
320.7829045
0
ARC
8
DEFAULT_255_1_388
10
3.9905148
20
109.3234929
40
1.2589638
50
320.7372878
51
323.9739031
0
ARC
8
DEFAULT_255_1_388
10
4.431408
20
109.0040554
40
0.7145141
50
323.8962701
51
328.64194
0
ARC
8
DEFAULT_255_1_388
10
4.6616338
20
108.8620545
40
0.4440242
50
328.8294576
51
331.7891185
0
ARC
8
DEFAULT_255_1_388
10
4.7738658
20
108.8041374
40
0.3177517
50
331.4254512
51
352.9365785
0
ARC
8
DEFAULT_255_1_388
10
4.7891658
20
108.800705
40
0.3021496
50
353.2257659
51
0.0166158
0
ARC
8
DEFAULT_255_1_388
10
4.8128418
20
108.8032894
40
0.2784847
50
359.486299
51
15.9343185
0
ARC
8
DEFAULT_255_1_388
10
4.8698685
20
108.8186269
40
0.2194403
50
16.1712913
51
43.5286088
0
ARC
8
DEFAULT_255_1_388
10
4.878563
20
108.8273191
40
0.2071504
50
43.4417391
51
83.1661095
0
ARC
8
DEFAULT_255_1_388
10
4.8634791
20
108.7444316
40
0.2912888
50
82.160179
51
90.1505708
0
ARC
8
DEFAULT_255_1_388
10
4.8599272
20
108.6840279
40
0.3517025
50
89.5460741
51
102.5418361
0
ARC
8
DEFAULT_255_1_388
10
4.8325992
20
108.7999933
40
0.2325748
50
102.1738499
51
129.206123
0
ARC
8
DEFAULT_255_1_388
10
4.8237446
20
108.8139664
40
0.2161591
50
129.72865
51
135.753947
0
ARC
8
DEFAULT_255_1_388
10
4.8373928
20
108.8030728
40
0.2335433
50
136.1757367
51
166.3673339
0
ARC
8
DEFAULT_255_1_388
10
4.9506616
20
108.7727148
40
0.3507873
50
165.9090694
51
178.8684636
0
ARC
8
DEFAULT_255_1_388
10
5.0482388
20
108.7674263
40
0.4484624
50
178.4391136
51
180.0083808
0
ARC
8
DEFAULT_255_1_388
10
4.8903089
20
108.7718197
40
0.4577138
50
163.2878482
51
180.5581842
0
ARC
8
DEFAULT_255_1_388
10
4.800113
20
108.7966393
40
0.3641968
50
133.4540601
51
162.947111
0
ARC
8
DEFAULT_255_1_388
10
4.8202012
20
108.7752789
40
0.3935189
50
100.7869829
51
133.4382499
0
ARC
8
DEFAULT_255_1_388
10
4.8593257
20
108.6010399
40
0.5720313
50
89.660664
51
101.3702276
0
ARC
8
DEFAULT_255_1_388
10
4.8667866
20
108.6079263
40
0.5651495
50
78.2172678
51
90.412935
0
ARC
8
DEFAULT_255_1_388
10
4.9067332
20
108.7906511
40
0.378122
50
55.9269121
51
78.4888449
0
ARC
8
DEFAULT_255_1_388
10
4.9288047
20
108.8287187
40
0.3342379
50
47.929771
51
55.4049217
0
ARC
8
DEFAULT_255_1_388
10
4.9402577
20
108.8403618
40
0.3179217
50
4.334829
51
48.0560205
0
ARC
8
DEFAULT_255_1_388
10
4.8170379
20
108.8212487
40
0.442341
50
359.9251713
51
5.5971671
0
ARC
8
DEFAULT_255_1_388
10
4.8652534
20
108.8275728
40
0.3941854
50
337.8914027
51
358.9967534
0
ARC
8
DEFAULT_255_1_388
10
4.5600104
20
108.9453295
40
0.7213271
50
326.9132501
51
338.3508308
0
ARC
8
DEFAULT_255_1_388
10
4.1116216
20
109.2327105
40
1.2538973
50
319.6471833
51
327.0959558
0
ARC
8
DEFAULT_255_1_388
10
3.6802874
20
109.588505
40
1.8129975
50
317.2588228
51
319.9045804
0
LINE
8
DEFAULT_255_1_388
10
4.1761367
20
117.0924898
11
4.1761367
21
115.7769
0
LINE
8
DEFAULT_255_1_388
10
4.1761367
20
115.7769
11
4.0026523
21
115.7769
0
LINE
8
DEFAULT_255_1_388
10
4.0026523
20
115.7769
11
4.0026523
21
117.0924898
0
LINE
8
DEFAULT_255_1_388
10
4.0026523
20
117.0924898
11
4.1761367
21
117.0924898
0
LINE
8
DEFAULT_255_1_388
10
4.9992839
20
117.0988148
11
4.9992839
21
115.7769
0
LINE
8
DEFAULT_255_1_388
10
4.9992839
20
115.7769
11
4.8312209
21
115.7769
0
LINE
8
DEFAULT_255_1_388
10
4.8312209
20
115.7769
11
4.8312209
21
116.890995
0
LINE
8
DEFAULT_255_1_388
10
4.8312209
20
116.890995
11
4.4941914
21
116.7672066
0
LINE
8
DEFAULT_255_1_388
10
4.4941914
20
116.7672066
11
4.4941914
21
116.9190055
0
LINE
8
DEFAULT_255_1_388
10
4.4941914
20
116.9190055
11
4.9730805
21
117.0988148
0
LINE
8
DEFAULT_255_1_388
10
4.9730805
20
117.0988148
11
4.9992839
21
117.0988148
0
LINE
8
DEFAULT_255_1_388
10
4.1841367
20
125.0299898
11
4.1841367
21
123.7144
0
LINE
8
DEFAULT_255_1_388
10
4.1841367
20
123.7144
11
4.0106523
21
123.7144
0
LINE
8
DEFAULT_255_1_388
10
4.0106523
20
123.7144
11
4.0106523
21
125.0299898
0
LINE
8
DEFAULT_255_1_388
10
4.0106523
20
125.0299898
11
4.1841367
21
125.0299898
0
LINE
8
DEFAULT_255_1_388
10
5.282871
20
124.492369
11
5.282871
21
124.2755135
0
LINE
8
DEFAULT_255_1_388
10
4.4524953
20
124.2529244
11
4.4524953
21
124.4761048
0
LINE
8
DEFAULT_255_1_388
10
5.1157116
20
124.2303353
11
5.1157116
21
124.5041153
0
LINE
8
DEFAULT_255_1_388
10
4.6196547
20
124.5167652
11
4.6196547
21
124.2493102
0
ARC
8
DEFAULT_255_1_388
10
3.9051044
20
124.2700118
40
1.3777776
50
353.8440855
51
0.2287917
0
ARC
8
DEFAULT_255_1_388
10
4.4270062
20
124.2117414
40
0.852639
50
344.4934746
51
353.9763743
0
ARC
8
DEFAULT_255_1_388
10
4.7636869
20
124.1160191
40
0.5026273
50
329.2803599
51
344.7473406
0
ARC
8
DEFAULT_255_1_388
10
4.8752365
20
124.0548038
40
0.3754848
50
324.9361395
51
328.6153007
0
ARC
8
DEFAULT_255_1_388
10
4.9178015
20
124.0250586
40
0.3235566
50
280.5801797
51
324.9173226
0
ARC
8
DEFAULT_255_1_388
10
4.8726643
20
124.2130236
40
0.5167077
50
269.5979457
51
281.6732777
0
ARC
8
DEFAULT_255_1_388
10
4.8645547
20
124.1995113
40
0.5032026
50
256.6228565
51
270.5105488
0
ARC
8
DEFAULT_255_1_388
10
4.8193289
20
124.0253345
40
0.3233092
50
215.8618351
51
257.2787793
0
ARC
8
DEFAULT_255_1_388
10
4.9341996
20
124.1024106
40
0.4615831
50
197.9695203
51
215.2622745
0
ARC
8
DEFAULT_255_1_388
10
5.2137672
20
124.1967641
40
0.7566307
50
187.8816486
51
198.2346584
0
ARC
8
DEFAULT_255_1_388
10
5.659091
20
124.2610453
40
1.2065653
50
180.8977266
51
188.0054894
0
ARC
8
DEFAULT_255_1_388
10
5.9641124
20
124.27254
40
1.5117443
50
180.7434591
51
181.152202
0
ARC
8
DEFAULT_255_1_388
10
5.796612
20
124.4815371
40
1.3441277
50
173.7674302
51
180.2315596
0
ARC
8
DEFAULT_255_1_388
10
5.2883989
20
124.5389779
40
0.8326847
50
164.3058537
51
173.9000553
0
ARC
8
DEFAULT_255_1_388
10
4.9607989
20
124.6333652
40
0.4917711
50
148.7922028
51
164.5682288
0
ARC
8
DEFAULT_255_1_388
10
4.8538726
20
124.6930457
40
0.3694204
50
144.5883979
51
148.1161588
0
ARC
8
DEFAULT_255_1_388
10
4.8151472
20
124.7200667
40
0.322202
50
101.6440149
51
144.5142619
0
ARC
8
DEFAULT_255_1_388
10
4.8629664
20
124.5300337
40
0.5180451
50
89.528284
51
102.5820197
0
ARC
8
DEFAULT_255_1_388
10
4.8718656
20
124.5256376
40
0.5224441
50
77.0437914
51
90.508231
0
ARC
8
DEFAULT_255_1_388
10
4.9170909
20
124.7104272
40
0.3322297
50
48.2777708
51
77.4996087
0
ARC
8
DEFAULT_255_1_388
10
4.9252649
20
124.7249557
40
0.315966
50
36.3141586
51
47.6307332
0
ARC
8
DEFAULT_255_1_388
10
4.8275372
20
124.6591159
40
0.4337313
50
18.2931065
51
35.6770203
0
ARC
8
DEFAULT_255_1_388
10
4.5414212
20
124.5609107
40
0.7362203
50
8.0246996
51
18.5605636
0
ARC
8
DEFAULT_255_1_388
10
4.0730568
20
124.4917432
40
1.2096583
50
1.127539
51
8.1718423
0
ARC
8
DEFAULT_255_1_388
10
3.7081701
20
124.4774374
40
1.5747719
50
0.5432713
51
1.38669
0
ARC
8
DEFAULT_255_1_388
10
3.913908
20
124.5081163
40
1.2018103
50
359.8092569
51
4.9408001
0
ARC
8
DEFAULT_255_1_388
10
4.3875661
20
124.55039
40
0.7262727
50
4.8364937
51
12.2906017
0
ARC
8
DEFAULT_255_1_388
10
4.6975126
20
124.6194485
40
0.4087324
50
12.0806994
51
23.8171225
0
ARC
8
DEFAULT_255_1_388
10
4.8295522
20
124.6753508
40
0.2653719
50
24.2874621
51
31.3934353
0
ARC
8
DEFAULT_255_1_388
10
4.8885958
20
124.7139822
40
0.1948607
50
30.7407708
51
82.4658033
0
ARC
8
DEFAULT_255_1_388
10
4.8683619
20
124.6146017
40
0.2961198
50
81.1057101
51
90.2187368
0
ARC
8
DEFAULT_255_1_388
10
4.8643431
20
124.6436421
40
0.2670929
50
89.380395
51
105.6763916
0
ARC
8
DEFAULT_255_1_388
10
4.8437153
20
124.718632
40
0.1893189
50
105.7980655
51
149.7387869
0
ARC
8
DEFAULT_255_1_388
10
4.9634293
20
124.6466719
40
0.3289892
50
149.4208441
51
163.628295
0
ARC
8
DEFAULT_255_1_388
10
5.1986522
20
124.5749345
40
0.5749004
50
163.3764549
51
172.141138
0
ARC
8
DEFAULT_255_1_388
10
5.5699244
20
124.5217582
40
0.9499585
50
172.0258462
51
178.0705453
0
ARC
8
DEFAULT_255_1_388
10
5.9120797
20
124.5055682
40
1.2924734
50
177.8639301
51
179.5036263
0
ARC
8
DEFAULT_255_1_388
10
5.7901815
20
124.2452151
40
1.170534
50
179.7995545
51
185.246089
0
ARC
8
DEFAULT_255_1_388
10
5.3353408
20
124.2021404
40
0.7136613
50
185.1411911
51
193.0082205
0
ARC
8
DEFAULT_255_1_388
10
5.0379669
20
124.1318441
40
0.4080987
50
192.7897338
51
205.2507384
0
ARC
8
DEFAULT_255_1_388
10
4.9201879
20
124.0792538
40
0.2791522
50
205.8001921
51
211.2545876
0
ARC
8
DEFAULT_255_1_388
10
4.8613418
20
124.0398132
40
0.2084074
50
210.3789935
51
238.4007996
0
ARC
8
DEFAULT_255_1_388
10
4.8591504
20
124.0450786
40
0.2117943
50
239.6521916
51
265.9793852
0
ARC
8
DEFAULT_255_1_388
10
4.8687353
20
124.1207358
40
0.2879689
50
265.1324455
51
270.0603288
0
ARC
8
DEFAULT_255_1_388
10
4.871973
20
124.0842418
40
0.2514919
50
269.3314378
51
287.2180039
0
ARC
8
DEFAULT_255_1_388
10
4.8874812
20
124.0276291
40
0.1928357
50
287.7957942
51
329.0808983
0
ARC
8
DEFAULT_255_1_388
10
4.7797569
20
124.0948651
40
0.319808
50
328.6635261
51
343.3325043
0
ARC
8
DEFAULT_255_1_388
10
4.5353028
20
124.1710195
40
0.5758408
50
343.0498092
51
351.9392499
0
ARC
8
DEFAULT_255_1_388
10
4.145235
20
124.2285205
40
0.9701202
50
351.8071632
51
357.7957897
0
ARC
8
DEFAULT_255_1_388
10
3.7817827
20
124.2473724
40
1.3340376
50
357.5870923
51
359.2682493
0
LINE
8
DEFAULT_255_1_388
10
23.1190856
20
132.429869
11
23.1190856
21
132.2130135
0
LINE
8
DEFAULT_255_1_388
10
22.2887099
20
132.1904244
11
22.2887099
21
132.4136048
0
LINE
8
DEFAULT_255_1_388
10
22.9519262
20
132.1678353
11
22.9519262
21
132.4416153
0
LINE
8
DEFAULT_255_1_388
10
22.4558693
20
132.4542652
11
22.4558693
21
132.1868102
0
ARC
8
DEFAULT_255_1_388
10
21.741319
20
132.2075118
40
1.3777776
50
353.8440855
51
0.2287917
0
ARC
8
DEFAULT_255_1_388
10
22.2632208
20
132.1492414
40
0.852639
50
344.4934746
51
353.9763743
0
ARC
8
DEFAULT_255_1_388
10
22.5999015
20
132.0535191
40
0.5026273
50
329.2803599
51
344.7473406
0
ARC
8
DEFAULT_255_1_388
10
22.7114511
20
131.9923038
40
0.3754848
50
324.9361395
51
328.6153007
0
ARC
8
DEFAULT_255_1_388
10
22.7540161
20
131.9625586
40
0.3235566
50
280.5801797
51
324.9173226
0
ARC
8
DEFAULT_255_1_388
10
22.7088789
20
132.1505236
40
0.5167077
50
269.5979457
51
281.6732777
0
ARC
8
DEFAULT_255_1_388
10
22.7007693
20
132.1370113
40
0.5032026
50
256.6228565
51
270.5105488
0
ARC
8
DEFAULT_255_1_388
10
22.6555435
20
131.9628345
40
0.3233092
50
215.8618351
51
257.2787793
0
ARC
8
DEFAULT_255_1_388
10
22.7704142
20
132.0399106
40
0.4615831
50
197.9695203
51
215.2622745
0
ARC
8
DEFAULT_255_1_388
10
23.0499818
20
132.1342641
40
0.7566307
50
187.8816486
51
198.2346584
0
ARC
8
DEFAULT_255_1_388
10
23.4953056
20
132.1985453
40
1.2065653
50
180.8977266
51
188.0054894
0
ARC
8
DEFAULT_255_1_388
10
23.800327
20
132.21004
40
1.5117443
50
180.7434591
51
181.152202
0
ARC
8
DEFAULT_255_1_388
10
23.6328266
20
132.4190371
40
1.3441277
50
173.7674302
51
180.2315596
0
ARC
8
DEFAULT_255_1_388
10
23.1246135
20
132.4764779
40
0.8326847
50
164.3058537
51
173.9000553
0
ARC
8
DEFAULT_255_1_388
10
22.7970135
20
132.5708652
40
0.4917711
50
148.7922028
51
164.5682288
0
ARC
8
DEFAULT_255_1_388
10
22.6900872
20
132.6305457
40
0.3694204
50
144.5883979
51
148.1161588
0
ARC
8
DEFAULT_255_1_388
10
22.6513618
20
132.6575667
40
0.322202
50
101.6440149
51
144.5142619
0
ARC
8
DEFAULT_255_1_388
10
22.699181
20
132.4675337
40
0.5180451
50
89.528284
51
102.5820197
0
ARC
8
DEFAULT_255_1_388
10
22.7080802
20
132.4631376
40
0.5224441
50
77.0437914
51
90.508231
0
ARC
8
DEFAULT_255_1_388
10
22.7533055
20
132.6479272
40
0.3322297
50
48.2777708
51
77.4996087
0
ARC
8
DEFAULT_255_1_388
10
22.7614795
20
132.6624557
40
0.315966
50
36.3141586
51
47.6307332
0
ARC
8
DEFAULT_255_1_388
10
22.6637518
20
132.5966159
40
0.4337313
50
18.2931065
51
35.6770203
0
ARC
8
DEFAULT_255_1_388
10
22.3776358
20
132.4984107
40
0.7362203
50
8.0246996
51
18.5605636
0
ARC
8
DEFAULT_255_1_388
10
21.9092714
20
132.4292432
40
1.2096583
50
1.127539
51
8.1718423
0
ARC
8
DEFAULT_255_1_388
10
21.5443847
20
132.4149374
40
1.5747719
50
0.5432713
51
1.38669
0
ARC
8
DEFAULT_255_1_388
10
21.7501226
20
132.4456163
40
1.2018103
50
359.8092569
51
4.9408001
0
ARC
8
DEFAULT_255_1_388
10
22.2237807
20
132.48789
40
0.7262727
50
4.8364937
51
12.2906017
0
ARC
8
DEFAULT_255_1_388
10
22.5337272
20
132.5569485
40
0.4087324
50
12.0806994
51
23.8171225
0
ARC
8
DEFAULT_255_1_388
10
22.6657668
20
132.6128508
40
0.2653719
50
24.2874621
51
31.3934353
0
ARC
8
DEFAULT_255_1_388
10
22.7248104
20
132.6514822
40
0.1948607
50
30.7407708
51
82.4658033
0
ARC
8
DEFAULT_255_1_388
10
22.7045765
20
132.5521017
40
0.2961198
50
81.1057101
51
90.2187368
0
ARC
8
DEFAULT_255_1_388
10
22.7005577
20
132.5811421
40
0.2670929
50
89.380395
51
105.6763916
0
ARC
8
DEFAULT_255_1_388
10
22.6799299
20
132.656132
40
0.1893189
50
105.7980655
51
149.7387869
0
ARC
8
DEFAULT_255_1_388
10
22.7996439
20
132.5841719
40
0.3289892
50
149.4208441
51
163.628295
0
ARC
8
DEFAULT_255_1_388
10
23.0348668
20
132.5124345
40
0.5749004
50
163.3764549
51
172.141138
0
ARC
8
DEFAULT_255_1_388
10
23.406139
20
132.4592582
40
0.9499585
50
172.0258462
51
178.0705453
0
ARC
8
DEFAULT_255_1_388
10
23.7482943
20
132.4430682
40
1.2924734
50
177.8639301
51
179.5036263
0
ARC
8
DEFAULT_255_1_388
10
23.6263961
20
132.1827151
40
1.170534
50
179.7995545
51
185.246089
0
ARC
8
DEFAULT_255_1_388
10
23.1715554
20
132.1396404
40
0.7136613
50
185.1411911
51
193.0082205
0
ARC
8
DEFAULT_255_1_388
10
22.8741815
20
132.0693441
40
0.4080987
50
192.7897338
51
205.2507384
0
ARC
8
DEFAULT_255_1_388
10
22.7564025
20
132.0167538
40
0.2791522
50
205.8001921
51
211.2545876
0
ARC
8
DEFAULT_255_1_388
10
22.6975564
20
131.9773132
40
0.2084074
50
210.3789935
51
238.4007996
0
ARC
8
DEFAULT_255_1_388
10
22.695365
20
131.9825786
40
0.2117943
50
239.6521916
51
265.9793852
0
ARC
8
DEFAULT_255_1_388
10
22.7049499
20
132.0582358
40
0.2879689
50
265.1324455
51
270.0603288
0
ARC
8
DEFAULT_255_1_388
10
22.7081876
20
132.0217418
40
0.2514919
50
269.3314378
51
287.2180039
0
ARC
8
DEFAULT_255_1_388
10
22.7236958
20
131.9651291
40
0.1928357
50
287.7957942
51
329.0808983
0
ARC
8
DEFAULT_255_1_388
10
22.6159715
20
132.0323651
40
0.319808
50
328.6635261
51
343.3325043
0
ARC
8
DEFAULT_255_1_388
10
22.3715174
20
132.1085195
40
0.5758408
50
343.0498092
51
351.9392499
0
ARC
8
DEFAULT_255_1_388
10
21.9814496
20
132.1660205
40
0.9701202
50
351.8071632
51
357.7957897
0
ARC
8
DEFAULT_255_1_388
10
21.6179973
20
132.1848724
40
1.3340376
50
357.5870923
51
359.2682493
0
LINE
8
DEFAULT_255_1_388
10
23.4380439
20
132.9674898
11
23.8121196
21
131.8823089
0
LINE
8
DEFAULT_255_1_388
10
23.8121196
20
131.8823089
11
24.1880024
21
132.9674898
0
LINE
8
DEFAULT_255_1_388
10
24.1880024
20
132.9674898
11
24.3777509
21
132.9674898
0
LINE
8
DEFAULT_255_1_388
10
24.3777509
20
132.9674898
11
23.8898261
21
131.6519
0
LINE
8
DEFAULT_255_1_388
10
23.8898261
20
131.6519
11
23.7362202
21
131.6519
0
LINE
8
DEFAULT_255_1_388
10
23.7362202
20
131.6519
11
23.2491989
21
132.9674898
0
LINE
8
DEFAULT_255_1_388
10
23.2491989
20
132.9674898
11
23.4380439
21
132.9674898
0
ENDSEC
0
EOF