0
SECTION
2
HEADER
9
$MEASUREMENT
70
1
0
ENDSEC
0
SECTION
2
TABLES
0
TABLE
2
LTYPE
0
LTYPE
72
65
70
64
2
CONTINUOUS
3
______
73
0
40
0
0
ENDTAB
0
TABLE
2
LAYER
0
LAYER
2
DEFAULT_255_2_778
70
0
62
255
6
CONTINUOUS
0
LAYER
2
DEFAULT_255_1_388
70
0
62
255
6
CONTINUOUS
0
ENDTAB
0
ENDSEC
0
SECTION
2
ENTITIES
0
ARC
8
DEFAULT_255_2_778
10
3.5700693
20
147.242652
40
0.7914215
50
129.1312896
51
180.1450914
0
ARC
8
DEFAULT_255_2_778
10
3.5703345
20
147.2431391
40
0.7912112
50
89.854026
51
129.1684493
0
ARC
8
DEFAULT_255_2_778
10
25.7993937
20
147.2428257
40
0.7915249
50
39.4792447
51
90.147911
0
ARC
8
DEFAULT_255_2_778
10
25.7999935
20
147.2426723
40
0.7911595
50
359.8533901
51
39.5154338
0
ARC
8
DEFAULT_255_2_778
10
25.7996693
20
-1.9864002
40
0.7914836
50
309.4761667
51
0.1482649
0
ARC
8
DEFAULT_255_2_778
10
25.799398
20
-1.9868313
40
0.7913235
50
269.8517415
51
309.511178
0
ARC
8
DEFAULT_255_2_778
10
3.570342
20
-1.9867731
40
0.7913815
50
219.1282118
51
270.1454017
0
ARC
8
DEFAULT_255_2_778
10
3.5700247
20
-1.9863907
40
0.7913769
50
179.8524075
51
219.1641908
0
LINE
8
DEFAULT_255_2_778
10
3.5723503
20
148.0343479
11
25.7973503
21
148.0343479
0
LINE
8
DEFAULT_255_2_778
10
26.5911503
20
147.2406479
11
26.5911503
21
-1.9843521
0
LINE
8
DEFAULT_255_2_778
10
25.7973503
20
-2.7781521
11
3.5723503
21
-2.7781521
0
LINE
8
DEFAULT_255_2_778
10
2.7786503
20
-1.9843521
11
2.7786503
21
147.2406479
0
LINE
8
DEFAULT_255_1_388
10
9.3871618
20
-0.0145334
11
9.2534343
21
0.0198021
0
LINE
8
DEFAULT_255_1_388
10
9.2534343
20
0.0198021
11
9.320298
21
0.6757898
0
LINE
8
DEFAULT_255_1_388
10
9.320298
20
0.6757898
11
9.9943571
21
0.6757898
0
LINE
8
DEFAULT_255_1_388
10
9.9943571
20
0.6757898
11
9.9943571
21
0.5212803
0
LINE
8
DEFAULT_255_1_388
10
9.9943571
20
0.5212803
11
9.4621577
21
0.5212803
0
LINE
8
DEFAULT_255_1_388
10
9.4621577
20
0.5212803
11
9.4224008
21
0.1625652
0
LINE
8
DEFAULT_255_1_388
10
9.2064489
20
-0.2937348
11
9.3645727
21
-0.2937348
0
LINE
8
DEFAULT_255_1_388
10
9.4314365
20
0.0216092
11
9.3871618
21
-0.0145334
0
ARC
8
DEFAULT_255_1_388
10
9.6310622
20
-0.1951759
40
0.4141476
50
93.7181681
51
120.253934
0
ARC
8
DEFAULT_255_1_388
10
9.6416674
20
-0.2860716
40
0.5055616
50
89.9660471
51
94.2495185
0
ARC
8
DEFAULT_255_1_388
10
9.6462496
20
-0.2197846
40
0.4392953
50
73.8045384
51
90.5585736
0
ARC
8
DEFAULT_255_1_388
10
9.6726754
20
-0.123248
40
0.3392225
50
41.3071072
51
73.543002
0
ARC
8
DEFAULT_255_1_388
10
9.6258574
20
-0.1635539
40
0.4009977
50
13.5075837
51
41.2174839
0
ARC
8
DEFAULT_255_1_388
10
9.4411671
20
-0.2119093
40
0.5918864
50
1.1330171
51
13.8830737
0
ARC
8
DEFAULT_255_1_388
10
9.2815317
20
-0.2204478
40
0.7516787
50
359.9925091
51
1.5431298
0
ARC
8
DEFAULT_255_1_388
10
9.4259932
20
-0.2250973
40
0.6072343
50
347.8572712
51
0.4294349
0
ARC
8
DEFAULT_255_1_388
10
9.6229066
20
-0.2697102
40
0.4053482
50
323.6727442
51
348.1674594
0
ARC
8
DEFAULT_255_1_388
10
9.6560031
20
-0.2898825
40
0.3667495
50
316.8171818
51
323.1486802
0
ARC
8
DEFAULT_255_1_388
10
9.6629155
20
-0.2940388
40
0.358869
50
281.839603
51
316.5458142
0
ARC
8
DEFAULT_255_1_388
10
9.6206442
20
-0.1190637
40
0.5388223
50
269.5770964
51
282.4214641
0
ARC
8
DEFAULT_255_1_388
10
9.6126363
20
-0.143107
40
0.5147801
50
256.2425863
51
270.4486481
0
ARC
8
DEFAULT_255_1_388
10
9.5789891
20
-0.2780876
40
0.3756708
50
228.9024379
51
256.33135
0
ARC
8
DEFAULT_255_1_388
10
9.5706871
20
-0.2911946
40
0.360344
50
193.7536029
51
228.5272638
0
ARC
8
DEFAULT_255_1_388
10
9.7099436
20
-0.2503537
40
0.5053599
50
184.9244437
51
194.4976052
0
ARC
8
DEFAULT_255_1_388
10
9.7316077
20
-0.2463278
40
0.3700839
50
187.3596909
51
198.6733728
0
ARC
8
DEFAULT_255_1_388
10
9.6135321
20
-0.2872627
40
0.2451195
50
198.4453795
51
217.7945479
0
ARC
8
DEFAULT_255_1_388
10
9.5802493
20
-0.3108437
40
0.2043754
50
218.2887146
51
228.5613203
0
ARC
8
DEFAULT_255_1_388
10
9.59125
20
-0.2960098
40
0.2227819
50
228.9652423
51
258.1237049
0
ARC
8
DEFAULT_255_1_388
10
9.6143937
20
-0.1969036
40
0.3245374
50
257.7260585
51
270.4013717
0
ARC
8
DEFAULT_255_1_388
10
9.6194435
20
-0.2469745
40
0.2744726
50
269.4204315
51
286.420998
0
ARC
8
DEFAULT_255_1_388
10
9.6361491
20
-0.3076295
40
0.2115721
50
286.7250065
51
320.6004665
0
ARC
8
DEFAULT_255_1_388
10
9.5930407
20
-0.2726473
40
0.2670878
50
320.6712228
51
344.5440474
0
ARC
8
DEFAULT_255_1_388
10
9.462912
20
-0.2344606
40
0.4026927
50
344.241448
51
356.735803
0
ARC
8
DEFAULT_255_1_388
10
9.3225428
20
-0.2228344
40
0.5435085
50
356.3547471
51
0.0507222
0
ARC
8
DEFAULT_255_1_388
10
9.4727693
20
-0.2193188
40
0.3932934
50
359.5579289
51
12.9534322
0
ARC
8
DEFAULT_255_1_388
10
9.5914533
20
-0.1905414
40
0.2711827
50
12.6489751
51
41.608121
0
ARC
8
DEFAULT_255_1_388
10
9.6173693
20
-0.1685054
40
0.2371737
50
41.7851122
51
85.9892156
0
ARC
8
DEFAULT_255_1_388
10
9.6035003
20
-0.2600262
40
0.3295244
50
84.6965848
51
90.0672125
0
ARC
8
DEFAULT_255_1_388
10
9.600857
20
-0.3351882
40
0.4046926
50
89.6804991
51
99.161352
0
ARC
8
DEFAULT_255_1_388
10
9.5777579
20
-0.1971152
40
0.2647044
50
98.9836248
51
113.8905702
0
ARC
8
DEFAULT_255_1_388
10
9.5519254
20
-0.1361882
40
0.1985386
50
114.195234
51
127.3641866
0
LINE
8
DEFAULT_255_1_388
10
11.0406848
20
0.138169
11
11.0406848
21
-0.0786865
0
LINE
8
DEFAULT_255_1_388
10
10.210309
20
-0.1012756
11
10.210309
21
0.1219048
0
LINE
8
DEFAULT_255_1_388
10
10.8735253
20
-0.1238647
11
10.8735253
21
0.1499153
0
LINE
8
DEFAULT_255_1_388
10
10.3774685
20
0.1625652
11
10.3774685
21
-0.1048898
0
ARC
8
DEFAULT_255_1_388
10
9.6629182
20
-0.0841882
40
1.3777776
50
353.8440855
51
0.2287917
0
ARC
8
DEFAULT_255_1_388
10
10.1848199
20
-0.1424586
40
0.852639
50
344.4934746
51
353.9763743
0
ARC
8
DEFAULT_255_1_388
10
10.5215006
20
-0.2381809
40
0.5026273
50
329.2803599
51
344.7473406
0
ARC
8
DEFAULT_255_1_388
10
10.6330502
20
-0.2993962
40
0.3754848
50
324.9361395
51
328.6153007
0
ARC
8
DEFAULT_255_1_388
10
10.6756152
20
-0.3291414
40
0.3235566
50
280.5801797
51
324.9173226
0
ARC
8
DEFAULT_255_1_388
10
10.630478
20
-0.1411764
40
0.5167077
50
269.5979457
51
281.6732777
0
ARC
8
DEFAULT_255_1_388
10
10.6223684
20
-0.1546887
40
0.5032026
50
256.6228565
51
270.5105488
0
ARC
8
DEFAULT_255_1_388
10
10.5771427
20
-0.3288655
40
0.3233092
50
215.8618351
51
257.2787793
0
ARC
8
DEFAULT_255_1_388
10
10.6920134
20
-0.2517894
40
0.4615831
50
197.9695203
51
215.2622745
0
ARC
8
DEFAULT_255_1_388
10
10.9715809
20
-0.1574359
40
0.7566307
50
187.8816486
51
198.2346584
0
ARC
8
DEFAULT_255_1_388
10
11.4169048
20
-0.0931547
40
1.2065653
50
180.8977266
51
188.0054894
0
ARC
8
DEFAULT_255_1_388
10
11.7219261
20
-0.08166
40
1.5117443
50
180.7434591
51
181.152202
0
ARC
8
DEFAULT_255_1_388
10
11.5544257
20
0.1273371
40
1.3441277
50
173.7674302
51
180.2315596
0
ARC
8
DEFAULT_255_1_388
10
11.0462126
20
0.1847779
40
0.8326847
50
164.3058537
51
173.9000553
0
ARC
8
DEFAULT_255_1_388
10
10.7186126
20
0.2791652
40
0.4917711
50
148.7922028
51
164.5682288
0
ARC
8
DEFAULT_255_1_388
10
10.6116864
20
0.3388457
40
0.3694204
50
144.5883979
51
148.1161588
0
ARC
8
DEFAULT_255_1_388
10
10.5729609
20
0.3658667
40
0.322202
50
101.6440149
51
144.5142619
0
ARC
8
DEFAULT_255_1_388
10
10.6207801
20
0.1758337
40
0.5180451
50
89.528284
51
102.5820197
0
ARC
8
DEFAULT_255_1_388
10
10.6296793
20
0.1714376
40
0.5224441
50
77.0437914
51
90.508231
0
ARC
8
DEFAULT_255_1_388
10
10.6749047
20
0.3562272
40
0.3322297
50
48.2777708
51
77.4996087
0
ARC
8
DEFAULT_255_1_388
10
10.6830787
20
0.3707557
40
0.315966
50
36.3141586
51
47.6307332
0
ARC
8
DEFAULT_255_1_388
10
10.5853509
20
0.3049159
40
0.4337313
50
18.2931065
51
35.6770203
0
ARC
8
DEFAULT_255_1_388
10
10.299235
20
0.2067107
40
0.7362203
50
8.0246996
51
18.5605636
0
ARC
8
DEFAULT_255_1_388
10
9.8308705
20
0.1375432
40
1.2096583
50
1.127539
51
8.1718423
0
ARC
8
DEFAULT_255_1_388
10
9.4659839
20
0.1232374
40
1.5747719
50
0.5432713
51
1.38669
0
ARC
8
DEFAULT_255_1_388
10
9.6717217
20
0.1539163
40
1.2018103
50
359.8092569
51
4.9408001
0
ARC
8
DEFAULT_255_1_388
10
10.1453799
20
0.19619
40
0.7262727
50
4.8364937
51
12.2906017
0
ARC
8
DEFAULT_255_1_388
10
10.4553263
20
0.2652485
40
0.4087324
50
12.0806994
51
23.8171225
0
ARC
8
DEFAULT_255_1_388
10
10.5873659
20
0.3211508
40
0.2653719
50
24.2874621
51
31.3934353
0
ARC
8
DEFAULT_255_1_388
10
10.6464095
20
0.3597822
40
0.1948607
50
30.7407708
51
82.4658033
0
ARC
8
DEFAULT_255_1_388
10
10.6261756
20
0.2604017
40
0.2961198
50
81.1057101
51
90.2187368
0
ARC
8
DEFAULT_255_1_388
10
10.6221568
20
0.2894421
40
0.2670929
50
89.380395
51
105.6763916
0
ARC
8
DEFAULT_255_1_388
10
10.601529
20
0.364432
40
0.1893189
50
105.7980655
51
149.7387869
0
ARC
8
DEFAULT_255_1_388
10
10.721243
20
0.2924719
40
0.3289892
50
149.4208441
51
163.628295
0
ARC
8
DEFAULT_255_1_388
10
10.956466
20
0.2207345
40
0.5749004
50
163.3764549
51
172.141138
0
ARC
8
DEFAULT_255_1_388
10
11.3277381
20
0.1675582
40
0.9499585
50
172.0258462
51
178.0705453
0
ARC
8
DEFAULT_255_1_388
10
11.6698934
20
0.1513682
40
1.2924734
50
177.8639301
51
179.5036263
0
ARC
8
DEFAULT_255_1_388
10
11.5479953
20
-0.1089849
40
1.170534
50
179.7995545
51
185.246089
0
ARC
8
DEFAULT_255_1_388
10
11.0931546
20
-0.1520596
40
0.7136613
50
185.1411911
51
193.0082205
0
ARC
8
DEFAULT_255_1_388
10
10.7957806
20
-0.2223559
40
0.4080987
50
192.7897338
51
205.2507384
0
ARC
8
DEFAULT_255_1_388
10
10.6780016
20
-0.2749462
40
0.2791522
50
205.8001921
51
211.2545876
0
ARC
8
DEFAULT_255_1_388
10
10.6191555
20
-0.3143868
40
0.2084074
50
210.3789935
51
238.4007996
0
ARC
8
DEFAULT_255_1_388
10
10.6169641
20
-0.3091214
40
0.2117943
50
239.6521916
51
265.9793852
0
ARC
8
DEFAULT_255_1_388
10
10.626549
20
-0.2334642
40
0.2879689
50
265.1324455
51
270.0603288
0
ARC
8
DEFAULT_255_1_388
10
10.6297867
20
-0.2699582
40
0.2514919
50
269.3314378
51
287.2180039
0
ARC
8
DEFAULT_255_1_388
10
10.645295
20
-0.3265709
40
0.1928357
50
287.7957942
51
329.0808983
0
ARC
8
DEFAULT_255_1_388
10
10.5375707
20
-0.2593349
40
0.319808
50
328.6635261
51
343.3325043
0
ARC
8
DEFAULT_255_1_388
10
10.2931165
20
-0.1831805
40
0.5758408
50
343.0498092
51
351.9392499
0
ARC
8
DEFAULT_255_1_388
10
9.9030487
20
-0.1256795
40
0.9701202
50
351.8071632
51
357.7957897
0
ARC
8
DEFAULT_255_1_388
10
9.5395964
20
-0.1068276
40
1.3340376
50
357.5870923
51
359.2682493
0
LINE
8
DEFAULT_255_1_388
10
11.8809997
20
0.6766934
11
11.9108173
21
0.6766934
0
LINE
8
DEFAULT_255_1_388
10
11.9108173
20
0.6766934
11
11.9108173
21
0.5348338
0
LINE
8
DEFAULT_255_1_388
10
11.9108173
20
0.5348338
11
11.8800961
21
0.5348338
0
LINE
8
DEFAULT_255_1_388
10
11.2647688
20
-0.1392253
11
11.2647688
21
-0.0750722
0
LINE
8
DEFAULT_255_1_388
10
11.4328317
20
-0.0967578
11
11.4328317
21
-0.1582001
0
ARC
8
DEFAULT_255_1_388
10
11.8859853
20
-0.0274174
40
0.562282
50
90.6001079
51
104.5146616
0
ARC
8
DEFAULT_255_1_388
10
11.8422812
20
0.13511
40
0.3939917
50
104.2855758
51
133.8630124
0
ARC
8
DEFAULT_255_1_388
10
11.8607065
20
0.1229243
40
0.4155734
50
134.5304124
51
161.6210222
0
ARC
8
DEFAULT_255_1_388
10
12.0466997
20
0.0573421
40
0.6127682
50
161.2850533
51
174.2074364
0
ARC
8
DEFAULT_255_1_388
10
12.2056564
20
0.0354437
40
0.7731446
50
173.7817938
51
174.9251711
0
ARC
8
DEFAULT_255_1_388
10
11.6930758
20
-0.120073
40
0.3412588
50
95.8332067
51
138.995412
0
ARC
8
DEFAULT_255_1_388
10
11.7182038
20
-0.2639305
40
0.4870358
50
89.8755506
51
97.0540979
0
ARC
8
DEFAULT_255_1_388
10
11.7235427
20
-0.1699159
40
0.3930432
50
71.6407016
51
90.6240821
0
ARC
8
DEFAULT_255_1_388
10
11.7404821
20
-0.1075567
40
0.3285421
50
39.6368051
51
71.0190743
0
ARC
8
DEFAULT_255_1_388
10
11.6688728
20
-0.1694414
40
0.4231706
50
10.6588054
51
39.9044509
0
ARC
8
DEFAULT_255_1_388
10
11.4947274
20
-0.2072777
40
0.60133
50
359.6827842
51
11.1326896
0
ARC
8
DEFAULT_255_1_388
10
11.490261
20
-0.2152285
40
0.6058047
50
347.2485908
51
0.4371098
0
ARC
8
DEFAULT_255_1_388
10
11.6778395
20
-0.2603621
40
0.4128987
50
318.1408565
51
347.6118497
0
ARC
8
DEFAULT_255_1_388
10
11.7143992
20
-0.2904097
40
0.3656244
50
275.6342406
51
317.824739
0
ARC
8
DEFAULT_255_1_388
10
11.6895513
20
-0.1442173
40
0.513655
50
269.8872513
51
276.7916069
0
ARC
8
DEFAULT_255_1_388
10
11.6833705
20
-0.2595819
40
0.398323
50
246.9139443
51
270.7436787
0
ARC
8
DEFAULT_255_1_388
10
11.6840901
20
-0.2755956
40
0.3839368
50
218.1665534
51
245.8780431
0
ARC
8
DEFAULT_255_1_388
10
11.7830273
20
-0.1928097
40
0.5128958
50
191.4115343
51
218.6077624
0
ARC
8
DEFAULT_255_1_388
10
12.001059
20
-0.1439223
40
0.7363054
50
179.6344971
51
191.7836758
0
ARC
8
DEFAULT_255_1_388
10
12.6290464
20
-0.0675505
40
1.3642984
50
171.4523743
51
180.3158856
0
ARC
8
DEFAULT_255_1_388
10
12.1346191
20
0.0093895
40
0.8639311
50
157.9802296
51
171.6246761
0
ARC
8
DEFAULT_255_1_388
10
11.8855542
20
0.1087038
40
0.5958004
50
141.4299236
51
157.8541251
0
ARC
8
DEFAULT_255_1_388
10
11.8133625
20
0.1597746
40
0.5075416
50
102.871586
51
140.8564533
0
ARC
8
DEFAULT_255_1_388
10
11.8862178
20
-0.1147057
40
0.7914163
50
90.377773
51
103.5868422
0
ARC
8
DEFAULT_255_1_388
10
11.6906699
20
-0.1827457
40
0.2667015
50
89.8751238
51
126.2072139
0
ARC
8
DEFAULT_255_1_388
10
11.695817
20
-0.2001153
40
0.2838229
50
124.9742447
51
144.8960197
0
ARC
8
DEFAULT_255_1_388
10
11.6760415
20
-0.1840019
40
0.2583845
50
145.2974778
51
160.2660922
0
ARC
8
DEFAULT_255_1_388
10
12.0216903
20
-0.1617849
40
0.5888695
50
179.6512124
51
190.285571
0
ARC
8
DEFAULT_255_1_388
10
11.8311383
20
-0.1977032
40
0.3949683
50
190.0944895
51
207.5099647
0
ARC
8
DEFAULT_255_1_388
10
11.7674965
20
-0.2279823
40
0.3245464
50
207.9585471
51
216.325377
0
ARC
8
DEFAULT_255_1_388
10
11.7292602
20
-0.2594288
40
0.2751259
50
215.7661336
51
232.5457193
0
ARC
8
DEFAULT_255_1_388
10
11.6861718
20
-0.3141727
40
0.2054668
50
232.8005815
51
270.6605497
0
ARC
8
DEFAULT_255_1_388
10
11.6913142
20
-0.2732147
40
0.2464268
50
269.3550767
51
288.474612
0
ARC
8
DEFAULT_255_1_388
10
11.7017649
20
-0.3125279
40
0.2058436
50
289.1831976
51
322.9685307
0
ARC
8
DEFAULT_255_1_388
10
11.6329751
20
-0.2582721
40
0.2934408
50
322.6007085
51
346.5183319
0
ARC
8
DEFAULT_255_1_388
10
11.5027507
20
-0.2250566
40
0.4278249
50
346.2584622
51
358.7739592
0
ARC
8
DEFAULT_255_1_388
10
11.3876082
20
-0.2188171
40
0.5430876
50
358.3757628
51
0.0082477
0
ARC
8
DEFAULT_255_1_388
10
11.47329
20
-0.2157144
40
0.4574157
50
359.6211417
51
11.28403
0
ARC
8
DEFAULT_255_1_388
10
11.6169507
20
-0.1857465
40
0.3106708
50
11.0483152
51
31.8145585
0
ARC
8
DEFAULT_255_1_388
10
11.6517212
20
-0.1668955
40
0.2711963
50
32.3028554
51
38.0820598
0
ARC
8
DEFAULT_255_1_388
10
11.6990445
20
-0.1240283
40
0.2075566
50
36.8249851
51
85.741667
0
ARC
8
DEFAULT_255_1_388
10
11.6914857
20
-0.1803935
40
0.2643487
50
85.0150021
51
90.050843
0
LINE
8
DEFAULT_255_1_388
10
13.1026188
20
0.1499153
11
13.1026188
21
0.1011229
0
LINE
8
DEFAULT_255_1_388
10
12.4927128
20
-0.6407036
11
12.4601845
21
-0.6407036
0
LINE
8
DEFAULT_255_1_388
10
12.4601845
20
-0.6407036
11
12.4601845
21
-0.4997475
0
LINE
8
DEFAULT_255_1_388
10
12.4601845
20
-0.4997475
11
12.4954235
21
-0.4997475
0
LINE
8
DEFAULT_255_1_388
10
12.9354594
20
0.117387
11
12.9354594
21
0.1842508
0
ARC
8
DEFAULT_255_1_388
10
12.6211686
20
0.2012877
40
0.4089973
50
297.4036461
51
320.0168133
0
ARC
8
DEFAULT_255_1_388
10
12.6537866
20
0.1386072
40
0.3383378
50
270.2631886
51
297.3852322
0
ARC
8
DEFAULT_255_1_388
10
12.6499542
20
0.1923343
40
0.3920983
50
269.9969069
51
270.7871389
0
ARC
8
DEFAULT_255_1_388
10
12.6470866
20
0.1905737
40
0.3903482
50
254.5997295
51
270.4178147
0
ARC
8
DEFAULT_255_1_388
10
12.6310397
20
0.1270693
40
0.3248657
50
236.4717231
51
254.3539376
0
ARC
8
DEFAULT_255_1_388
10
12.6486129
20
0.1506999
40
0.3542746
50
208.4727261
51
236.2134628
0
ARC
8
DEFAULT_255_1_388
10
12.7204892
20
0.1946676
40
0.4384402
50
204.3450776
51
209.0455365
0
ARC
8
DEFAULT_255_1_388
10
12.7969268
20
0.22708
40
0.5214459
50
183.9375459
51
204.1275509
0
ARC
8
DEFAULT_255_1_388
10
12.8991574
20
0.2380863
40
0.6242037
50
179.9652726
51
184.3010611
0
ARC
8
DEFAULT_255_1_388
10
12.872112
20
0.2418004
40
0.5971675
50
166.7585952
51
180.3200491
0
ARC
8
DEFAULT_255_1_388
10
12.7768928
20
0.2624979
40
0.4997418
50
154.6954866
51
166.5679151
0
ARC
8
DEFAULT_255_1_388
10
12.6809168
20
0.3108411
40
0.3923208
50
136.3325251
51
155.0871367
0
ARC
8
DEFAULT_255_1_388
10
12.6493087
20
0.3379271
40
0.3507618
50
121.2365985
51
135.9680081
0
ARC
8
DEFAULT_255_1_388
10
12.6651152
20
0.3086541
40
0.3839917
50
96.8454764
51
120.9881329
0
ARC
8
DEFAULT_255_1_388
10
12.6814958
20
0.2033942
40
0.4904679
50
89.887204
51
97.2797758
0
ARC
8
DEFAULT_255_1_388
10
12.6873931
20
0.2751652
40
0.418725
50
70.6505767
51
90.6748382
0
ARC
8
DEFAULT_255_1_388
10
12.7021628
20
0.3329091
40
0.3593866
50
36.7493297
51
69.8220487
0
ARC
8
DEFAULT_255_1_388
10
12.5897975
20
0.2453446
40
0.5018201
50
15.3958155
51
37.0841102
0
ARC
8
DEFAULT_255_1_388
10
12.350226
20
0.1755111
40
0.7513436
50
3.9487796
51
15.6798517
0
ARC
8
DEFAULT_255_1_388
10
12.0800902
20
0.151181
40
1.0225293
50
359.9290791
51
4.266464
0
ARC
8
DEFAULT_255_1_388
10
11.5619819
20
0.0936372
40
1.5406551
50
352.8365702
51
0.2783851
0
ARC
8
DEFAULT_255_1_388
10
12.156805
20
0.0163664
40
0.9408425
50
341.8359339
51
352.9884057
0
ARC
8
DEFAULT_255_1_388
10
12.5189037
20
-0.1056856
40
0.5587481
50
322.8579243
51
342.1527461
0
ARC
8
DEFAULT_255_1_388
10
12.6160729
20
-0.171965
40
0.4413099
50
319.3348471
51
322.100194
0
ARC
8
DEFAULT_255_1_388
10
12.581266
20
-0.1370186
40
0.4904992
50
285.954114
51
318.8878716
0
ARC
8
DEFAULT_255_1_388
10
12.4995098
20
0.1228865
40
0.7628991
50
272.9280841
51
286.4924389
0
ARC
8
DEFAULT_255_1_388
10
12.4781402
20
0.376324
40
1.017132
50
270.8209173
51
273.4010121
0
ARC
8
DEFAULT_255_1_388
10
12.4881425
20
0.1715073
40
0.6712943
50
270.6214576
51
281.4062333
0
ARC
8
DEFAULT_255_1_388
10
12.5365149
20
-0.059775
40
0.4350167
50
281.1852583
51
299.0622058
0
ARC
8
DEFAULT_255_1_388
10
12.5785394
20
-0.1408862
40
0.3437146
50
299.5068171
51
313.1200142
0
ARC
8
DEFAULT_255_1_388
10
12.5810132
20
-0.1498041
40
0.3355418
50
313.8525725
51
338.5989631
0
ARC
8
DEFAULT_255_1_388
10
12.398326
20
-0.0747424
40
0.5330317
50
338.2523315
51
351.2431701
0
ARC
8
DEFAULT_255_1_388
10
12.1271011
20
-0.0286506
40
0.8081235
50
350.940933
51
357.6690137
0
ARC
8
DEFAULT_255_1_388
10
12.6772891
20
0.1966048
40
0.2581236
50
269.9447107
51
306.8249644
0
ARC
8
DEFAULT_255_1_388
10
12.6506193
20
0.244206
40
0.3122948
50
305.5071046
51
327.0773808
0
ARC
8
DEFAULT_255_1_388
10
12.6639244
20
0.2335445
40
0.2953369
50
327.4106457
51
336.8396801
0
ARC
8
DEFAULT_255_1_388
10
12.3158958
20
0.1878932
40
0.6195743
50
359.663158
51
10.1176387
0
ARC
8
DEFAULT_255_1_388
10
12.5131721
20
0.2243922
40
0.4189561
50
9.9431549
51
26.7699242
0
ARC
8
DEFAULT_255_1_388
10
12.5803707
20
0.2553796
40
0.3450125
50
27.2018067
51
34.6833639
0
ARC
8
DEFAULT_255_1_388
10
12.635432
20
0.296756
40
0.2762035
50
34.124913
51
50.30709
0
ARC
8
DEFAULT_255_1_388
10
12.6856803
20
0.3568741
40
0.1978518
50
50.3850304
51
90.6705051
0
ARC
8
DEFAULT_255_1_388
10
12.6804196
20
0.3226074
40
0.2321235
50
89.2729817
51
111.9140267
0
ARC
8
DEFAULT_255_1_388
10
12.6782284
20
0.3384308
40
0.2166604
50
112.9381864
51
142.5320936
0
ARC
8
DEFAULT_255_1_388
10
12.7396773
20
0.2885392
40
0.2957902
50
142.1024021
51
166.3835244
0
ARC
8
DEFAULT_255_1_388
10
12.8725743
20
0.2542213
40
0.4330361
50
166.1100968
51
178.6653563
0
ARC
8
DEFAULT_255_1_388
10
12.9907668
20
0.2476061
40
0.5513642
50
178.2641888
51
180.010994
0
ARC
8
DEFAULT_255_1_388
10
12.900217
20
0.2444136
40
0.4608248
50
179.6162225
51
191.8786013
0
ARC
8
DEFAULT_255_1_388
10
12.762948
20
0.214059
40
0.3202502
50
191.6192934
51
215.2970746
0
ARC
8
DEFAULT_255_1_388
10
12.7390135
20
0.1997963
40
0.2924827
50
215.7258926
51
216.5355437
0
ARC
8
DEFAULT_255_1_388
10
12.6801755
20
0.1524919
40
0.2170661
50
215.7486606
51
239.9728403
0
ARC
8
DEFAULT_255_1_388
10
12.6722921
20
0.1467838
40
0.208217
50
241.065081
51
269.280972
0
ARC
8
DEFAULT_255_1_388
10
12.6770079
20
0.2023327
40
0.2638514
50
268.4083352
51
270.0069622
0
LINE
8
DEFAULT_255_1_388
10
13.6980678
20
-0.0127263
11
13.6980678
21
-0.1491645
0
LINE
8
DEFAULT_255_1_388
10
13.6980678
20
-0.1491645
11
13.2571284
21
-0.1491645
0
LINE
8
DEFAULT_255_1_388
10
13.2571284
20
-0.1491645
11
13.2571284
21
-0.0127263
0
LINE
8
DEFAULT_255_1_388
10
13.2571284
20
-0.0127263
11
13.6980678
21
-0.0127263
0
LINE
8
DEFAULT_255_1_388
10
14.898905
20
0.0586553
11
14.898905
21
-0.0244726
0
LINE
8
DEFAULT_255_1_388
10
13.840831
20
-0.0362189
11
13.840831
21
0.0586553
0
LINE
8
DEFAULT_255_1_388
10
14.7263242
20
-0.0371225
11
14.7263242
21
0.0604625
0
LINE
8
DEFAULT_255_1_388
10
14.0134118
20
0.0722088
11
14.0134118
21
-0.0244726
0
ARC
8
DEFAULT_255_1_388
10
13.9266788
20
-0.0289274
40
0.9722364
50
350.4878118
51
0.2625322
0
ARC
8
DEFAULT_255_1_388
10
14.1846748
20
-0.0733006
40
0.7104556
50
336.0277991
51
350.5787241
0
ARC
8
DEFAULT_255_1_388
10
14.3359855
20
-0.1416757
40
0.544417
50
319.887443
51
336.1331163
0
ARC
8
DEFAULT_255_1_388
10
14.4037667
20
-0.1959267
40
0.4576311
50
302.4806296
51
319.6144102
0
ARC
8
DEFAULT_255_1_388
10
14.3908288
20
-0.1709933
40
0.4856183
50
275.8196423
51
302.1885521
0
ARC
8
DEFAULT_255_1_388
10
14.372115
20
-0.0424534
40
0.6154183
50
269.9169897
51
276.339506
0
ARC
8
DEFAULT_255_1_388
10
14.367075
20
-0.119632
40
0.5382553
50
252.5221437
51
270.441579
0
ARC
8
DEFAULT_255_1_388
10
14.3509001
20
-0.1802954
40
0.4755426
50
237.5349961
51
252.1858334
0
ARC
8
DEFAULT_255_1_388
10
14.3609377
20
-0.167488
40
0.4917393
50
209.0632754
51
237.3492577
0
ARC
8
DEFAULT_255_1_388
10
14.4588703
20
-0.1059896
40
0.6072464
50
205.118533
51
209.6465345
0
ARC
8
DEFAULT_255_1_388
10
14.5484705
20
-0.0679826
40
0.7045164
50
188.7216633
51
204.8239753
0
ARC
8
DEFAULT_255_1_388
10
14.773148
20
-0.0301613
40
0.9323368
50
180.3722704
51
188.9253909
0
ARC
8
DEFAULT_255_1_388
10
14.7701042
20
0.0631416
40
0.929284
50
169.5253055
51
180.2766048
0
ARC
8
DEFAULT_255_1_388
10
14.5560841
20
0.1025024
40
0.7116745
50
155.8314601
51
169.5088611
0
ARC
8
DEFAULT_255_1_388
10
14.4120304
20
0.1693312
40
0.5528904
50
139.6259579
51
156.0379072
0
ARC
8
DEFAULT_255_1_388
10
14.3456838
20
0.2227143
40
0.4677708
50
122.6414784
51
139.3431662
0
ARC
8
DEFAULT_255_1_388
10
14.3570092
20
0.2020787
40
0.4912586
50
93.0224537
51
122.4556091
0
ARC
8
DEFAULT_255_1_388
10
14.3691613
20
0.0934776
40
0.6003837
50
89.9756766
51
93.6340839
0
ARC
8
DEFAULT_255_1_388
10
14.3735211
20
0.1383879
40
0.5554884
50
73.7463329
51
90.4234008
0
ARC
8
DEFAULT_255_1_388
10
14.3932684
20
0.2148772
40
0.4765353
50
57.663051
51
73.4516911
0
ARC
8
DEFAULT_255_1_388
10
14.3923722
20
0.2173108
40
0.4749629
50
29.1441355
51
57.4146687
0
ARC
8
DEFAULT_255_1_388
10
14.2871533
20
0.1516046
40
0.5988917
50
24.0985653
51
29.732054
0
ARC
8
DEFAULT_255_1_388
10
14.1709165
20
0.1034154
40
0.7246823
50
8.6654943
51
23.8241215
0
ARC
8
DEFAULT_255_1_388
10
13.9195583
20
0.0624037
40
0.9793537
50
359.7807044
51
8.8218476
0
ARC
8
DEFAULT_255_1_388
10
13.7905288
20
0.0652731
40
0.9358078
50
359.7054632
51
8.0359751
0
ARC
8
DEFAULT_255_1_388
10
14.1280339
20
0.1144252
40
0.5947474
50
7.8926278
51
20.2962188
0
ARC
8
DEFAULT_255_1_388
10
14.3111189
20
0.1819367
40
0.3996117
50
20.3231056
51
36.4990255
0
ARC
8
DEFAULT_255_1_388
10
14.3882487
20
0.2413399
40
0.3022818
50
36.1436715
51
85.6627846
0
ARC
8
DEFAULT_255_1_388
10
14.3699742
20
0.1243881
40
0.4203853
50
84.3845912
51
90.076054
0
ARC
8
DEFAULT_255_1_388
10
14.3652097
20
0.1986416
40
0.346157
50
89.3037228
51
109.9046209
0
ARC
8
DEFAULT_255_1_388
10
14.354793
20
0.2416379
40
0.3022217
50
110.8229774
51
143.917961
0
ARC
8
DEFAULT_255_1_388
10
14.4598289
20
0.1614455
40
0.434348
50
143.5289166
51
163.2980252
0
ARC
8
DEFAULT_255_1_388
10
14.6744576
20
0.0939685
40
0.659321
50
163.0418884
51
174.3139873
0
ARC
8
DEFAULT_255_1_388
10
14.9449541
20
0.0627378
40
0.9315905
50
174.050934
51
179.4174954
0
ARC
8
DEFAULT_255_1_388
10
14.8881485
20
-0.0291618
40
0.8747493
50
179.6928582
51
188.7908948
0
ARC
8
DEFAULT_255_1_388
10
14.5885285
20
-0.0770914
40
0.5713262
50
188.6328449
51
202.5630732
0
ARC
8
DEFAULT_255_1_388
10
14.4474122
20
-0.1337858
40
0.4192612
50
202.8078931
51
216.1195888
0
ARC
8
DEFAULT_255_1_388
10
14.3563639
20
-0.2070521
40
0.3025752
50
215.0755613
51
264.6379773
0
ARC
8
DEFAULT_255_1_388
10
14.3706476
20
-0.1135624
40
0.3970284
50
263.8464302
51
270.0830805
0
ARC
8
DEFAULT_255_1_388
10
14.3753021
20
-0.1426192
40
0.3679937
50
269.3649295
51
287.5149684
0
ARC
8
DEFAULT_255_1_388
10
14.3953462
20
-0.2154286
40
0.2925408
50
288.0629019
51
323.8115617
0
ARC
8
DEFAULT_255_1_388
10
14.2973438
20
-0.1423246
40
0.4148018
50
323.6546541
51
342.6591359
0
ARC
8
DEFAULT_255_1_388
10
14.0688096
20
-0.067972
40
0.6551163
50
342.4092446
51
353.6451501
0
ARC
8
DEFAULT_255_1_388
10
13.7502889
20
-0.0283435
40
0.9760748
50
353.4027553
51
359.4846611
0
LINE
8
DEFAULT_255_1_388
10
15.6154316
20
-0.6398
11
15.1591315
21
-0.6398
0
LINE
8
DEFAULT_255_1_388
10
15.1591315
20
-0.6398
11
15.1591315
21
0.6757898
0
LINE
8
DEFAULT_255_1_388
10
15.1591315
20
0.6757898
11
15.5892282
21
0.6757898
0
LINE
8
DEFAULT_255_1_388
10
15.6217565
20
-0.0244726
11
15.3326159
21
-0.0244726
0
LINE
8
DEFAULT_255_1_388
10
15.3326159
20
-0.0244726
11
15.3326159
21
-0.4979404
0
LINE
8
DEFAULT_255_1_388
10
15.3326159
20
-0.4979404
11
15.6190458
21
-0.4979404
0
LINE
8
DEFAULT_255_1_388
10
15.3326159
20
0.5330267
11
15.3326159
21
0.1146763
0
LINE
8
DEFAULT_255_1_388
10
15.3326159
20
0.1146763
11
15.5946496
21
0.1146763
0
LINE
8
DEFAULT_255_1_388
10
15.5892282
20
0.5330267
11
15.3326159
21
0.5330267
0
ARC
8
DEFAULT_255_1_388
10
15.5934703
20
-0.1530176
40
0.8288183
50
82.1256322
51
90.2932506
0
ARC
8
DEFAULT_255_1_388
10
15.6372277
20
0.152759
40
0.5199321
50
69.9044202
51
82.2857574
0
ARC
8
DEFAULT_255_1_388
10
15.701427
20
0.3262993
40
0.3348993
50
51.1840204
51
70.018125
0
ARC
8
DEFAULT_255_1_388
10
15.7301102
20
0.3679945
40
0.2844579
50
12.1018086
51
50.421322
0
ARC
8
DEFAULT_255_1_388
10
15.5743974
20
0.3288937
40
0.4449429
50
359.5252354
51
12.8212369
0
ARC
8
DEFAULT_255_1_388
10
15.7521404
20
0.3210943
40
0.2672162
50
323.4907456
51
0.8818258
0
ARC
8
DEFAULT_255_1_388
10
15.7050816
20
0.3574523
40
0.3266736
50
298.6824053
51
323.2758285
0
ARC
8
DEFAULT_255_1_388
10
15.6644108
20
0.4250509
40
0.4055105
50
293.1994739
51
299.139634
0
ARC
8
DEFAULT_255_1_388
10
15.7401057
20
-0.2595349
40
0.3229926
50
54.0009997
51
74.9168635
0
ARC
8
DEFAULT_255_1_388
10
15.7531984
20
-0.2373489
40
0.2973581
50
36.3578854
51
53.5293172
0
ARC
8
DEFAULT_255_1_388
10
15.7389352
20
-0.247515
40
0.3148715
50
4.8189348
51
36.3090187
0
ARC
8
DEFAULT_255_1_388
10
15.6512377
20
-0.2598617
40
0.4033265
50
359.9373213
51
5.5201284
0
ARC
8
DEFAULT_255_1_388
10
15.6147707
20
-0.2644267
40
0.4398126
50
344.7479357
51
0.5372278
0
ARC
8
DEFAULT_255_1_388
10
15.7262605
20
-0.2944795
40
0.3243441
50
311.1785587
51
344.6887681
0
ARC
8
DEFAULT_255_1_388
10
15.6934149
20
-0.2535916
40
0.3767511
50
286.0417804
51
310.8440924
0
ARC
8
DEFAULT_255_1_388
10
15.6363558
20
-0.0683115
40
0.5705957
50
274.1044074
51
286.4070149
0
ARC
8
DEFAULT_255_1_388
10
15.6164773
20
0.1434901
40
0.7832907
50
269.9235077
51
274.4458593
0
ARC
8
DEFAULT_255_1_388
10
15.6216491
20
-0.1196538
40
0.3782955
50
269.6057074
51
281.3740795
0
ARC
8
DEFAULT_255_1_388
10
15.647599
20
-0.2426431
40
0.2526069
50
281.105298
51
302.5134029
0
ARC
8
DEFAULT_255_1_388
10
15.6641377
20
-0.2723056
40
0.2187131
50
303.0365425
51
311.8818034
0
ARC
8
DEFAULT_255_1_388
10
15.6721555
20
-0.2818398
40
0.2062624
50
311.9916937
51
351.7143773
0
ARC
8
DEFAULT_255_1_388
10
15.5802579
20
-0.2632729
40
0.2999202
50
350.7343295
51
0.2221526
0
ARC
8
DEFAULT_255_1_388
10
15.5681667
20
-0.256913
40
0.3120525
50
359.045729
51
17.2295312
0
ARC
8
DEFAULT_255_1_388
10
15.6850698
20
-0.2221845
40
0.1901144
50
17.6685208
51
78.9940245
0
ARC
8
DEFAULT_255_1_388
10
15.6269059
20
-0.4309989
40
0.4065575
50
76.565218
51
90.7103392
0
LINE
8
DEFAULT_255_1_388
10
15.6218656
20
-0.0244726
11
15.6217565
21
-0.0244726
0
ARC
8
DEFAULT_255_1_388
10
15.5971885
20
0.4842949
40
0.3696273
50
269.6064514
51
281.4533785
0
ARC
8
DEFAULT_255_1_388
10
15.6222525
20
0.3660283
40
0.2487412
50
281.2044438
51
302.5143998
0
ARC
8
DEFAULT_255_1_388
10
15.6376779
20
0.3382576
40
0.2170405
50
303.0211308
51
309.8378766
0
ARC
8
DEFAULT_255_1_388
10
15.6582897
20
0.3151486
40
0.1860946
50
309.5229446
51
356.9509628
0
ARC
8
DEFAULT_255_1_388
10
15.5837023
20
0.3258831
40
0.2612347
50
355.4699226
51
0.0498632
0
ARC
8
DEFAULT_255_1_388
10
15.5522696
20
0.3283789
40
0.2926762
50
359.5558955
51
11.2092924
0
ARC
8
DEFAULT_255_1_388
10
15.6599663
20
0.3506667
40
0.1827036
50
10.9185717
51
31.322519
0
ARC
8
DEFAULT_255_1_388
10
15.6921212
20
0.3685571
40
0.1459418
50
31.8850633
51
52.1415586
0
ARC
8
DEFAULT_255_1_388
10
15.6612641
20
0.3249674
40
0.1993088
50
52.8283418
51
71.9850132
0
ARC
8
DEFAULT_255_1_388
10
15.6189801
20
0.2005158
40
0.3307407
50
71.686634
51
82.8453416
0
ARC
8
DEFAULT_255_1_388
10
15.5920449
20
-0.0030108
40
0.536039
50
82.6981895
51
90.1730083
0
ARC
8
DEFAULT_255_1_388
10
15.589528
20
0.0848836
40
0.4481429
50
89.8851568
51
90.0383283
0
LINE
8
DEFAULT_255_1_388
10
16.8171723
20
0.6821148
11
16.8171723
21
-0.6398
0
LINE
8
DEFAULT_255_1_388
10
16.8171723
20
-0.6398
11
16.6491093
21
-0.6398
0
LINE
8
DEFAULT_255_1_388
10
16.6491093
20
-0.6398
11
16.6491093
21
0.474295
0
LINE
8
DEFAULT_255_1_388
10
16.6491093
20
0.474295
11
16.3120798
21
0.3505066
0
LINE
8
DEFAULT_255_1_388
10
16.3120798
20
0.3505066
11
16.3120798
21
0.5023055
0
LINE
8
DEFAULT_255_1_388
10
16.3120798
20
0.5023055
11
16.7909689
21
0.6821148
0
LINE
8
DEFAULT_255_1_388
10
16.7909689
20
0.6821148
11
16.8171723
21
0.6821148
0
LINE
8
DEFAULT_255_1_388
10
17.9330744
20
0.6766934
11
17.962892
21
0.6766934
0
LINE
8
DEFAULT_255_1_388
10
17.962892
20
0.6766934
11
17.962892
21
0.5348338
0
LINE
8
DEFAULT_255_1_388
10
17.962892
20
0.5348338
11
17.9321708
21
0.5348338
0
LINE
8
DEFAULT_255_1_388
10
17.3168435
20
-0.1392253
11
17.3168435
21
-0.0750722
0
LINE
8
DEFAULT_255_1_388
10
17.4849064
20
-0.0967578
11
17.4849064
21
-0.1582001
0
ARC
8
DEFAULT_255_1_388
10
17.93806
20
-0.0274174
40
0.562282
50
90.6001079
51
104.5146616
0
ARC
8
DEFAULT_255_1_388
10
17.8943559
20
0.13511
40
0.3939917
50
104.2855758
51
133.8630124
0
ARC
8
DEFAULT_255_1_388
10
17.9127812
20
0.1229243
40
0.4155734
50
134.5304124
51
161.6210222
0
ARC
8
DEFAULT_255_1_388
10
18.0987744
20
0.0573421
40
0.6127682
50
161.2850533
51
174.2074364
0
ARC
8
DEFAULT_255_1_388
10
18.2577311
20
0.0354437
40
0.7731446
50
173.7817938
51
174.9251711
0
ARC
8
DEFAULT_255_1_388
10
17.7451505
20
-0.120073
40
0.3412588
50
95.8332067
51
138.995412
0
ARC
8
DEFAULT_255_1_388
10
17.7702785
20
-0.2639305
40
0.4870358
50
89.8755506
51
97.0540979
0
ARC
8
DEFAULT_255_1_388
10
17.7756174
20
-0.1699159
40
0.3930432
50
71.6407016
51
90.6240821
0
ARC
8
DEFAULT_255_1_388
10
17.7925568
20
-0.1075567
40
0.3285421
50
39.6368051
51
71.0190743
0
ARC
8
DEFAULT_255_1_388
10
17.7209475
20
-0.1694414
40
0.4231706
50
10.6588054
51
39.9044509
0
ARC
8
DEFAULT_255_1_388
10
17.5468021
20
-0.2072777
40
0.60133
50
359.6827842
51
11.1326896
0
ARC
8
DEFAULT_255_1_388
10
17.5423357
20
-0.2152285
40
0.6058047
50
347.2485908
51
0.4371098
0
ARC
8
DEFAULT_255_1_388
10
17.7299142
20
-0.2603621
40
0.4128987
50
318.1408565
51
347.6118497
0
ARC
8
DEFAULT_255_1_388
10
17.7664739
20
-0.2904097
40
0.3656244
50
275.6342406
51
317.824739
0
ARC
8
DEFAULT_255_1_388
10
17.741626
20
-0.1442173
40
0.513655
50
269.8872513
51
276.7916069
0
ARC
8
DEFAULT_255_1_388
10
17.7354452
20
-0.2595819
40
0.398323
50
246.9139443
51
270.7436787
0
ARC
8
DEFAULT_255_1_388
10
17.7361648
20
-0.2755956
40
0.3839368
50
218.1665534
51
245.8780431
0
ARC
8
DEFAULT_255_1_388
10
17.835102
20
-0.1928097
40
0.5128958
50
191.4115343
51
218.6077624
0
ARC
8
DEFAULT_255_1_388
10
18.0531337
20
-0.1439223
40
0.7363054
50
179.6344971
51
191.7836758
0
ARC
8
DEFAULT_255_1_388
10
18.6811211
20
-0.0675505
40
1.3642984
50
171.4523743
51
180.3158856
0
ARC
8
DEFAULT_255_1_388
10
18.1866938
20
0.0093895
40
0.8639311
50
157.9802296
51
171.6246761
0
ARC
8
DEFAULT_255_1_388
10
17.9376289
20
0.1087038
40
0.5958004
50
141.4299236
51
157.8541251
0
ARC
8
DEFAULT_255_1_388
10
17.8654372
20
0.1597746
40
0.5075416
50
102.871586
51
140.8564533
0
ARC
8
DEFAULT_255_1_388
10
17.9382925
20
-0.1147057
40
0.7914163
50
90.377773
51
103.5868422
0
ARC
8
DEFAULT_255_1_388
10
17.7427446
20
-0.1827457
40
0.2667015
50
89.8751238
51
126.2072139
0
ARC
8
DEFAULT_255_1_388
10
17.7478917
20
-0.2001153
40
0.2838229
50
124.9742447
51
144.8960197
0
ARC
8
DEFAULT_255_1_388
10
17.7281162
20
-0.1840019
40
0.2583845
50
145.2974778
51
160.2660922
0
ARC
8
DEFAULT_255_1_388
10
18.073765
20
-0.1617849
40
0.5888695
50
179.6512124
51
190.285571
0
ARC
8
DEFAULT_255_1_388
10
17.883213
20
-0.1977032
40
0.3949683
50
190.0944895
51
207.5099647
0
ARC
8
DEFAULT_255_1_388
10
17.8195712
20
-0.2279823
40
0.3245464
50
207.9585471
51
216.325377
0
ARC
8
DEFAULT_255_1_388
10
17.7813349
20
-0.2594288
40
0.2751259
50
215.7661336
51
232.5457193
0
ARC
8
DEFAULT_255_1_388
10
17.7382465
20
-0.3141727
40
0.2054668
50
232.8005815
51
270.6605497
0
ARC
8
DEFAULT_255_1_388
10
17.7433889
20
-0.2732147
40
0.2464268
50
269.3550767
51
288.474612
0
ARC
8
DEFAULT_255_1_388
10
17.7538396
20
-0.3125279
40
0.2058436
50
289.1831976
51
322.9685307
0
ARC
8
DEFAULT_255_1_388
10
17.6850498
20
-0.2582721
40
0.2934408
50
322.6007085
51
346.5183319
0
ARC
8
DEFAULT_255_1_388
10
17.5548254
20
-0.2250566
40
0.4278249
50
346.2584622
51
358.7739592
0
ARC
8
DEFAULT_255_1_388
10
17.4396829
20
-0.2188171
40
0.5430876
50
358.3757628
51
0.0082477
0
ARC
8
DEFAULT_255_1_388
10
17.5253648
20
-0.2157144
40
0.4574157
50
359.6211417
51
11.28403
0
ARC
8
DEFAULT_255_1_388
10
17.6690254
20
-0.1857465
40
0.3106708
50
11.0483152
51
31.8145585
0
ARC
8
DEFAULT_255_1_388
10
17.7037959
20
-0.1668955
40
0.2711963
50
32.3028554
51
38.0820598
0
ARC
8
DEFAULT_255_1_388
10
17.7511192
20
-0.1240283
40
0.2075566
50
36.8249851
51
85.741667
0
ARC
8
DEFAULT_255_1_388
10
17.7435605
20
-0.1803935
40
0.2643487
50
85.0150021
51
90.050843
0
LINE
8
DEFAULT_255_1_388
10
19.1149367
20
0.0830516
11
19.1149367
21
-0.0588081
0
LINE
8
DEFAULT_255_1_388
10
19.1149367
20
-0.0588081
11
18.5628588
21
-0.0588081
0
LINE
8
DEFAULT_255_1_388
10
18.5628588
20
-0.0588081
11
18.5628588
21
-0.6398
0
LINE
8
DEFAULT_255_1_388
10
18.5628588
20
-0.6398
11
18.3893745
21
-0.6398
0
LINE
8
DEFAULT_255_1_388
10
18.3893745
20
-0.6398
11
18.3893745
21
0.6757898
0
LINE
8
DEFAULT_255_1_388
10
18.3893745
20
0.6757898
11
19.2043896
21
0.6757898
0
LINE
8
DEFAULT_255_1_388
10
19.2043896
20
0.6757898
11
19.2043896
21
0.5330267
0
LINE
8
DEFAULT_255_1_388
10
19.2043896
20
0.5330267
11
18.5628588
21
0.5330267
0
LINE
8
DEFAULT_255_1_388
10
18.5628588
20
0.5330267
11
18.5628588
21
0.0830516
0
LINE
8
DEFAULT_255_1_388
10
18.5628588
20
0.0830516
11
19.1149367
21
0.0830516
0
LINE
8
DEFAULT_255_2_778
10
11.0359959
20
144.5606531
11
10.9838959
21
144.8979531
0
LINE
8
DEFAULT_255_2_778
10
10.9838959
20
144.8979531
11
10.4068959
21
144.8979531
0
LINE
8
DEFAULT_255_2_778
10
10.4068959
20
144.8979531
11
10.2364959
21
144.5606531
0
LINE
8
DEFAULT_255_2_778
10
10.2364959
20
144.5606531
11
9.8694959
21
144.5606531
0
LINE
8
DEFAULT_255_2_778
10
9.8694959
20
144.5606531
11
10.7531959
21
146.1981531
0
LINE
8
DEFAULT_255_2_778
10
10.7531959
20
146.1981531
11
11.0608959
21
146.1981531
0
LINE
8
DEFAULT_255_2_778
10
11.0608959
20
146.1981531
11
11.3754959
21
144.5606531
0
LINE
8
DEFAULT_255_2_778
10
11.3754959
20
144.5606531
11
11.0357959
21
144.5606531
0
LINE
8
DEFAULT_255_2_778
10
11.0357959
20
144.5606531
11
11.0359959
21
144.5606531
0
LINE
8
DEFAULT_255_2_778
10
10.8486959
20
145.7809531
11
10.5430959
21
145.1713531
0
LINE
8
DEFAULT_255_2_778
10
10.5430959
20
145.1713531
11
10.9418959
21
145.1713531
0
LINE
8
DEFAULT_255_2_778
10
10.9418959
20
145.1713531
11
10.8486959
21
145.7809531
0
LINE
8
DEFAULT_255_2_778
10
10.8486959
20
145.7809531
11
10.8486959
21
145.7809531
0
LINE
8
DEFAULT_255_2_778
10
12.1615594
20
146.2881646
11
11.8593594
21
144.5604646
0
LINE
8
DEFAULT_255_2_778
10
11.8593594
20
144.5604646
11
11.5368594
21
144.5604646
0
LINE
8
DEFAULT_255_2_778
10
11.5368594
20
144.5604646
11
11.8400594
21
146.2881646
0
LINE
8
DEFAULT_255_2_778
10
11.8400594
20
146.2881646
11
12.1615594
21
146.2881646
0
LINE
8
DEFAULT_255_2_778
10
12.1615594
20
146.2881646
11
12.1615594
21
146.2881646
0
LINE
8
DEFAULT_255_2_778
10
12.7717594
20
146.2881646
11
12.4695594
21
144.5604646
0
LINE
8
DEFAULT_255_2_778
10
12.4695594
20
144.5604646
11
12.1470594
21
144.5604646
0
LINE
8
DEFAULT_255_2_778
10
12.1470594
20
144.5604646
11
12.4502594
21
146.2881646
0
LINE
8
DEFAULT_255_2_778
10
12.4502594
20
146.2881646
11
12.7717594
21
146.2881646
0
LINE
8
DEFAULT_255_2_778
10
12.7717594
20
146.2881646
11
12.7717594
21
146.2881646
0
ARC
8
DEFAULT_255_2_778
10
13.3180767
20
145.0762764
40
0.5383522
50
238.763891
51
270.7055166
0
ARC
8
DEFAULT_255_2_778
10
13.2867625
20
145.020952
40
0.4748131
50
204.061185
51
238.5328679
0
ARC
8
DEFAULT_255_2_778
10
13.3693681
20
145.0605331
40
0.5663841
50
179.4896096
51
204.3103027
0
ARC
8
DEFAULT_255_2_778
10
13.4933843
20
145.0650727
40
0.6903781
50
175.123126
51
179.9580366
0
ARC
8
DEFAULT_255_2_778
10
13.5850479
20
145.1000152
40
0.7790728
50
149.5392097
51
174.9446897
0
ARC
8
DEFAULT_255_2_778
10
13.459184
20
145.1835212
40
0.628301
50
120.7003982
51
150.2846053
0
ARC
8
DEFAULT_255_2_778
10
13.4196851
20
145.2432024
40
0.556829
50
89.4236852
51
120.3409826
0
ARC
8
DEFAULT_255_2_778
10
13.4252352
20
145.1444671
40
0.6555361
50
88.4553682
51
89.9955718
0
ARC
8
DEFAULT_255_2_778
10
13.4481363
20
145.3286369
40
0.4711572
50
58.4514404
51
90.636095
0
ARC
8
DEFAULT_255_2_778
10
13.4744403
20
145.3920423
40
0.403504
50
35.6058989
51
56.9235594
0
ARC
8
DEFAULT_255_2_778
10
13.3641882
20
145.3182058
40
0.5361477
50
0.6851965
51
35.1616077
0
ARC
8
DEFAULT_255_2_778
10
13.1616313
20
145.2978229
40
0.7391521
50
359.9888194
51
2.0774415
0
ARC
8
DEFAULT_255_2_778
10
13.0480025
20
145.2995249
40
0.852783
50
353.383538
51
359.8759623
0
ARC
8
DEFAULT_255_2_778
10
13.534221
20
145.0471119
40
0.4107176
50
177.8018731
51
179.9839782
0
ARC
8
DEFAULT_255_2_778
10
13.3756217
20
145.035624
40
0.2523852
50
177.3650374
51
219.8309448
0
ARC
8
DEFAULT_255_2_778
10
13.3462068
20
145.0223401
40
0.2214564
50
222.0668323
51
271.55222
0
ARC
8
DEFAULT_255_2_778
10
13.3632002
20
145.2271289
40
0.4263057
50
268.5221572
51
269.9980687
0
ARC
8
DEFAULT_255_2_778
10
13.3616001
20
145.1975217
40
0.3967017
50
270.2290309
51
318.5203973
0
ARC
8
DEFAULT_255_2_778
10
13.4310056
20
145.0142979
40
0.4555006
50
292.4982989
51
325.2807674
0
ARC
8
DEFAULT_255_2_778
10
13.3411907
20
145.1928545
40
0.6549996
50
269.6158853
51
293.7802026
0
ARC
8
DEFAULT_255_2_778
10
13.3368026
20
145.279733
40
0.7418635
50
269.0811303
51
269.9997673
0
ARC
8
DEFAULT_255_2_778
10
13.4205249
20
145.2726977
40
0.2651417
50
88.6426435
51
89.9971979
0
ARC
8
DEFAULT_255_2_778
10
13.4187009
20
145.3079788
40
0.2298681
50
89.5421073
51
130.5025885
0
ARC
8
DEFAULT_255_2_778
10
13.5174398
20
145.2078327
40
0.370282
50
132.0556576
51
154.4346079
0
ARC
8
DEFAULT_255_2_778
10
13.9187288
20
144.9902869
40
0.8264843
50
152.8348001
51
159.2008974
0
ARC
8
DEFAULT_255_2_778
10
13.283715
20
145.3612268
40
0.3137404
50
351.1327381
51
359.8552777
0
ARC
8
DEFAULT_255_2_778
10
13.3301744
20
145.3608274
40
0.2672803
50
359.9157472
51
8.073482
0
ARC
8
DEFAULT_255_2_778
10
13.4328726
20
145.3761276
40
0.1634528
50
7.8192239
51
49.4174523
0
ARC
8
DEFAULT_255_2_778
10
13.4309336
20
145.3629377
40
0.174876
50
51.746929
51
91.3525911
0
LINE
8
DEFAULT_255_2_778
10
12.8055056
20
145.123765
11
12.8090056
21
145.168665
0
LINE
8
DEFAULT_255_2_778
10
13.8951056
20
145.201265
11
13.8768056
21
145.062865
0
LINE
8
DEFAULT_255_2_778
10
13.8768056
20
145.062865
11
13.1238056
21
145.062865
0
LINE
8
DEFAULT_255_2_778
10
13.6588056
20
144.934765
11
13.8054056
21
144.754865
0
LINE
8
DEFAULT_255_2_778
10
13.3249056
20
144.537965
11
13.3247056
21
144.537965
0
LINE
8
DEFAULT_255_2_778
10
13.1461056
20
145.283765
11
13.5868056
21
145.283765
0
LINE
8
DEFAULT_255_2_778
10
13.5868056
20
145.283765
11
13.5937056
21
145.312865
0
LINE
8
DEFAULT_255_2_778
10
13.4268056
20
145.537765
11
13.4268056
21
145.537765
0
ARC
8
DEFAULT_255_2_778
10
14.7973588
20
145.3563783
40
0.4439397
50
89.8554796
51
141.1589213
0
ARC
8
DEFAULT_255_2_778
10
14.7984572
20
145.295443
40
0.5048737
50
88.7717605
51
89.9975792
0
ARC
8
DEFAULT_255_2_778
10
14.8178417
20
145.4843406
40
0.315976
50
50.4893295
51
91.5528058
0
ARC
8
DEFAULT_255_2_778
10
14.8339359
20
145.5187178
40
0.2793745
50
33.8414583
51
48.5499238
0
ARC
8
DEFAULT_255_2_778
10
14.731985
20
145.4598286
40
0.3969262
50
4.3932888
51
32.7062485
0
ARC
8
DEFAULT_255_2_778
10
14.4819065
20
145.4244301
40
0.6491822
50
359.8769204
51
5.8177478
0
ARC
8
DEFAULT_255_2_778
10
14.2701804
20
145.4253881
40
0.8609097
50
353.9399056
51
359.8434284
0
ARC
8
DEFAULT_255_2_778
10
14.4164047
20
145.3910967
40
0.3954956
50
352.2407688
51
359.7520116
0
ARC
8
DEFAULT_255_2_778
10
14.5201997
20
145.3899041
40
0.2916973
50
359.8980094
51
5.448398
0
ARC
8
DEFAULT_255_2_778
10
14.6814536
20
145.4070865
40
0.129553
50
4.6550554
51
97.2610773
0
ARC
8
DEFAULT_255_2_778
10
14.655996
20
145.2813531
40
0.2544097
50
87.9539208
51
89.9945997
0
ARC
8
DEFAULT_255_2_778
10
14.6629447
20
145.2657668
40
0.2700847
50
91.4691634
51
141.078713
0
ARC
8
DEFAULT_255_2_778
10
14.7966376
20
145.1239301
40
0.4639576
50
137.8219849
51
140.394746
0
ARC
8
DEFAULT_255_2_778
10
16.9661161
20
145.170711
40
1.026426
50
77.5141066
51
90.4821212
0
ARC
8
DEFAULT_255_2_778
10
17.0845798
20
145.6799611
40
0.5036389
50
52.814306
51
78.1469212
0
ARC
8
DEFAULT_255_2_778
10
17.1732245
20
145.8082438
40
0.3479303
50
357.5432245
51
51.6759047
0
ARC
8
DEFAULT_255_2_778
10
16.9814613
20
145.7936938
40
0.5393738
50
356.248244
51
359.9613012
0
ARC
8
DEFAULT_255_2_778
10
17.128092
20
145.7810882
40
0.3922439
50
295.0867564
51
356.6841236
0
ARC
8
DEFAULT_255_2_778
10
16.9599154
20
146.0438279
40
0.7026958
50
292.6018649
51
298.4245718
0
ARC
8
DEFAULT_255_2_778
10
17.1412835
20
145.131175
40
0.2784307
50
29.5992916
51
71.4243751
0
ARC
8
DEFAULT_255_2_778
10
17.0686219
20
145.0889727
40
0.3624559
50
358.8250622
51
29.7265593
0
ARC
8
DEFAULT_255_2_778
10
16.932071
20
145.0818262
40
0.4989307
50
356.3312443
51
359.9671937
0
ARC
8
DEFAULT_255_2_778
10
16.9581925
20
145.0630387
40
0.4719696
50
307.6792206
51
358.4048608
0
ARC
8
DEFAULT_255_2_778
10
16.8807048
20
145.1838643
40
0.6150877
50
279.1080464
51
306.5123219
0
ARC
8
DEFAULT_255_2_778
10
16.7961448
20
145.6059116
40
1.0453321
50
269.63465
51
280.0226117
0
ARC
8
DEFAULT_255_2_778
10
16.8094212
20
145.1710308
40
0.3407431
50
267.9747348
51
304.6141501
0
ARC
8
DEFAULT_255_2_778
10
16.8661516
20
145.0848067
40
0.2375665
50
305.166569
51
352.3059676
0
ARC
8
DEFAULT_255_2_778
10
16.775822
20
145.1058166
40
0.3300111
50
350.7906063
51
359.6837465
0
ARC
8
DEFAULT_255_2_778
10
16.9356152
20
145.1114465
40
0.170376
50
357.4933304
51
35.754963
0
ARC
8
DEFAULT_255_2_778
10
16.9423472
20
145.0971963
40
0.1739313
50
40.8670445
51
88.9145542
0
ARC
8
DEFAULT_255_2_778
10
16.9113357
20
144.9119792
40
0.360752
50
84.5431107
51
87.5464559
0
ARC
8
DEFAULT_255_2_778
10
16.8864523
20
145.8840688
40
0.3741259
50
268.9933192
51
299.9063201
0
ARC
8
DEFAULT_255_2_778
10
16.9296435
20
145.7912438
40
0.2722705
50
301.7671328
51
305.0688299
0
ARC
8
DEFAULT_255_2_778
10
16.9572403
20
145.7551463
40
0.2268776
50
304.6024496
51
352.3134516
0
ARC
8
DEFAULT_255_2_778
10
16.9035208
20
145.7658322
40
0.2815642
50
351.6205962
51
359.745937
0
ARC
8
DEFAULT_255_2_778
10
17.0391775
20
145.7719083
40
0.1460884
50
357.1260689
51
87.9509322
0
ARC
8
DEFAULT_255_2_778
10
16.9733166
20
145.4925677
40
0.4312349
50
80.5121161
51
90.1776895
0
ARC
8
DEFAULT_255_2_778
10
18.304359
20
144.8207308
40
0.6634375
50
79.3314563
51
88.7113465
0
ARC
8
DEFAULT_255_2_778
10
18.3079683
20
145.0541839
40
0.4299655
50
88.4925657
51
89.9946723
0
ARC
8
DEFAULT_255_2_778
10
18.2982438
20
145.1742608
40
0.3100425
50
88.1952228
51
143.885382
0
ARC
8
DEFAULT_255_2_778
10
18.4077805
20
145.4192129
40
0.3980768
50
117.0828142
51
147.9763761
0
ARC
8
DEFAULT_255_2_778
10
18.3544747
20
145.5025295
40
0.2997784
50
89.5977622
51
115.2613452
0
ARC
8
DEFAULT_255_2_778
10
18.3464621
20
145.3303482
40
0.4720608
50
75.0830674
51
88.7719532
0
ARC
8
DEFAULT_255_2_778
10
19.3883565
20
144.6475588
40
0.303463
50
178.9513385
51
196.6911244
0
ARC
8
DEFAULT_255_2_778
10
19.5567182
20
144.6529238
40
0.4717738
50
177.8405456
51
179.9770623
0
ARC
8
DEFAULT_255_2_778
10
18.7787325
20
144.9575947
40
0.4198561
50
270.5473861
51
316.8967404
0
ARC
8
DEFAULT_255_2_778
10
18.7827705
20
144.9679581
40
0.4302003
50
268.5226571
51
269.9964175
0
ARC
8
DEFAULT_255_2_778
10
18.7647216
20
144.9160252
40
0.3781887
50
226.455184
51
271.0541416
0
ARC
8
DEFAULT_255_2_778
10
18.7161161
20
144.8706869
40
0.311866
50
179.0506747
51
227.1894377
0
ARC
8
DEFAULT_255_2_778
10
18.7977006
20
144.8757683
40
0.3934079
50
177.4603384
51
179.9875271
0
ARC
8
DEFAULT_255_2_778
10
18.7677222
20
144.8917892
40
0.3630457
50
122.3464314
51
179.7772632
0
ARC
8
DEFAULT_255_2_778
10
18.9127921
20
144.6646577
40
0.6325515
50
98.6956815
51
122.4402135
0
ARC
8
DEFAULT_255_2_778
10
18.9977072
20
144.2096789
40
1.0952432
50
89.6404969
51
99.4883828
0
ARC
8
DEFAULT_255_2_778
10
18.91142
20
145.424956
40
0.2635833
50
349.2520325
51
359.7979352
0
ARC
8
DEFAULT_255_2_778
10
18.9485896
20
145.4241836
40
0.2264121
50
359.9602232
51
5.7075699
0
ARC
8
DEFAULT_255_2_778
10
19.0517084
20
145.4383244
40
0.1224577
50
3.9221136
51
47.9806675
0
ARC
8
DEFAULT_255_2_778
10
19.0461009
20
145.4209028
40
0.1393558
50
51.0640414
51
91.6537281
0
ARC
8
DEFAULT_255_2_778
10
19.0343864
20
145.2867856
40
0.2735232
50
88.3883484
51
89.9950272
0
ARC
8
DEFAULT_255_2_778
10
19.0289472
20
145.3646996
40
0.1956856
50
88.4002709
51
125.6558116
0
ARC
8
DEFAULT_255_2_778
10
19.0229477
20
145.3829867
40
0.1774238
50
127.5242925
51
170.6536699
0
ARC
8
DEFAULT_255_2_778
10
18.8789596
20
145.3967573
40
0.3527561
50
122.7014157
51
177.7346919
0
ARC
8
DEFAULT_255_2_778
10
19.030198
20
145.1917043
40
0.6072396
50
91.7146868
51
124.2570002
0
ARC
8
DEFAULT_255_2_778
10
19.05893
20
144.9348064
40
0.865138
50
89.9735854
51
93.1077226
0
ARC
8
DEFAULT_255_2_778
10
19.0592938
20
144.878256
40
0.9216883
50
89.4414218
51
89.9978259
0
ARC
8
DEFAULT_255_2_778
10
19.0704714
20
145.2797068
40
0.5201984
50
63.6868659
51
90.2414521
0
ARC
8
DEFAULT_255_2_778
10
19.1244671
20
145.4076249
40
0.3816898
50
44.805062
51
62.4405121
0
ARC
8
DEFAULT_255_2_778
10
19.1511934
20
145.4318957
40
0.3456276
50
358.4368244
51
45.0725574
0
ARC
8
DEFAULT_255_2_778
10
18.9988451
20
145.4232092
40
0.4978477
50
354.0151208
51
359.9146153
0
ARC
8
DEFAULT_255_2_778
10
19.916384
20
144.7009006
40
0.5223437
50
178.2666392
51
179.9853875
0
ARC
8
DEFAULT_255_2_778
10
19.7189724
20
144.6930635
40
0.3250299
50
178.5948625
51
200.018038
0
ARC
8
DEFAULT_255_2_778
10
18.8607749
20
145.0819835
40
0.2979407
50
268.1351457
51
269.9967975
0
ARC
8
DEFAULT_255_2_778
10
18.8555143
20
145.0794809
40
0.2954847
50
271.0168715
51
323.4470831
0
ARC
8
DEFAULT_255_2_778
10
19.0185177
20
144.7199003
40
0.3950093
50
89.6139406
51
115.9632081
0
ARC
8
DEFAULT_255_2_778
10
18.9568146
20
144.8610476
40
0.2411766
50
117.4642621
51
142.4598629
0
ARC
8
DEFAULT_255_2_778
10
18.9147894
20
144.8979762
40
0.1853888
50
143.595728
51
174.110017
0
ARC
8
DEFAULT_255_2_778
10
18.8922711
20
144.8924244
40
0.1637466
50
171.368069
51
179.7835889
0
ARC
8
DEFAULT_255_2_778
10
18.8267207
20
144.8893088
40
0.098266
50
177.8221965
51
224.0379617
0
ARC
8
DEFAULT_255_2_778
10
18.8464576
20
144.9143517
40
0.1299333
50
225.9269812
51
272.0384171
0
ARC
8
DEFAULT_255_2_778
10
20.216987
20
145.4494976
40
0.3515032
50
37.8132465
51
89.9360651
0
ARC
8
DEFAULT_255_2_778
10
20.0346749
20
144.9592418
40
0.4267183
50
285.291584
51
321.0175046
0
ARC
8
DEFAULT_255_2_778
10
20.0570669
20
144.9130225
40
0.3763475
50
269.8450062
51
283.8588709
0
ARC
8
DEFAULT_255_2_778
10
20.0560587
20
144.9457286
40
0.4090522
50
268.5880369
51
269.9986183
0
ARC
8
DEFAULT_255_2_778
10
20.0420305
20
144.8925487
40
0.3557701
50
236.3475668
51
270.6359501
0
ARC
8
DEFAULT_255_2_778
10
20.0598141
20
144.9040321
40
0.3752788
50
201.8435891
51
235.058908
0
ARC
8
DEFAULT_255_2_778
10
20.3322211
20
145.0230871
40
0.6724873
50
181.1917384
51
202.6233367
0
ARC
8
DEFAULT_255_2_778
10
20.6351677
20
145.0561339
40
0.9764219
50
180.0156472
51
182.7609519
0
ARC
8
DEFAULT_255_2_778
10
20.5470549
20
145.0567658
40
0.8883095
50
174.2087211
51
180.0579587
0
ARC
8
DEFAULT_255_2_778
10
20.6346038
20
145.0696468
40
0.9727968
50
152.6606942
51
172.4775279
0
ARC
8
DEFAULT_255_2_778
10
20.4685375
20
145.1441269
40
0.7911386
50
151.1967159
51
151.9287309
0
ARC
8
DEFAULT_255_2_778
10
20.2724416
20
145.2681657
40
0.559722
50
125.8155177
51
152.6517649
0
ARC
8
DEFAULT_255_2_778
10
20.1926864
20
145.3626789
40
0.4365104
50
121.2895022
51
124.5859333
0
ARC
8
DEFAULT_255_2_778
10
20.2005174
20
145.3483255
40
0.4528439
50
89.3885498
51
121.1930117
0
ARC
8
DEFAULT_255_2_778
10
20.205315
20
145.2665492
40
0.5345942
50
88.6747242
51
89.9962477
0
ARC
8
DEFAULT_255_2_778
10
21.0229427
20
145.0291181
40
1.044966
50
173.5557888
51
179.5636493
0
ARC
8
DEFAULT_255_2_778
10
20.5582157
20
145.036089
40
0.5802095
50
179.9025124
51
183.3187157
0
ARC
8
DEFAULT_255_2_778
10
20.270534
20
145.007149
40
0.2915917
50
180.9134286
51
207.6247443
0
ARC
8
DEFAULT_255_2_778
10
20.135005
20
144.9427881
40
0.1417894
50
209.9763709
51
272.172214
0
ARC
8
DEFAULT_255_2_778
10
20.1512082
20
145.0665383
40
0.2656585
50
267.6638236
51
269.9934853
0
ARC
8
DEFAULT_255_2_778
10
20.1452669
20
145.0703962
40
0.2695812
50
271.2564257
51
323.4819236
0
ARC
8
DEFAULT_255_2_778
10
20.0042443
20
145.2092425
40
0.4663623
50
320.0808185
51
322.7722781
0
ARC
8
DEFAULT_255_2_778
10
20.2905955
20
145.3555938
40
0.1811681
50
17.7085133
51
91.4917236
0
ARC
8
DEFAULT_255_2_778
10
20.2776466
20
145.2548302
40
0.2819906
50
88.3270304
51
89.9962875
0
ARC
8
DEFAULT_255_2_778
10
20.2751839
20
145.3029886
40
0.2338453
50
89.3920923
51
141.8934507
0
ARC
8
DEFAULT_255_2_778
10
20.4150372
20
145.1933724
40
0.411538
50
141.9009784
51
164.0634131
0
ARC
8
DEFAULT_255_2_778
10
20.9401614
20
145.0256385
40
0.9626867
50
163.0454941
51
172.7936709
0
LINE
8
DEFAULT_255_2_778
10
14.1790793
20
145.7777006
11
14.4788793
21
145.7788006
0
LINE
8
DEFAULT_255_2_778
10
14.4788793
20
145.7788006
11
14.4515793
21
145.6348006
0
LINE
8
DEFAULT_255_2_778
10
15.1262793
20
145.3345006
11
14.9968793
21
144.5606006
0
LINE
8
DEFAULT_255_2_778
10
14.9968793
20
144.5606006
11
14.6764793
21
144.5606006
0
LINE
8
DEFAULT_255_2_778
10
14.6764793
20
144.5606006
11
14.8082793
21
145.3377006
0
LINE
8
DEFAULT_255_2_778
10
14.4391793
20
145.4197006
11
14.2856793
21
144.5604006
0
LINE
8
DEFAULT_255_2_778
10
14.2856793
20
144.5604006
11
13.9652793
21
144.5604006
0
LINE
8
DEFAULT_255_2_778
10
13.9652793
20
144.5604006
11
14.1787793
21
145.7775006
0
LINE
8
DEFAULT_255_2_778
10
14.1787793
20
145.7775006
11
14.1790793
21
145.7777006
0
LINE
8
DEFAULT_255_2_778
10
16.0157793
20
145.3928006
11
15.9692793
21
145.1308006
0
LINE
8
DEFAULT_255_2_778
10
15.9692793
20
145.1308006
11
15.3466793
21
145.1308006
0
LINE
8
DEFAULT_255_2_778
10
15.3466793
20
145.1308006
11
15.3921793
21
145.3928006
0
LINE
8
DEFAULT_255_2_778
10
15.3921793
20
145.3928006
11
16.0157793
21
145.3928006
0
LINE
8
DEFAULT_255_2_778
10
16.0157793
20
145.3928006
11
16.0157793
21
145.3928006
0
LINE
8
DEFAULT_255_2_778
10
16.7894793
20
144.5606006
11
16.1544793
21
144.5606006
0
LINE
8
DEFAULT_255_2_778
10
16.1544793
20
144.5606006
11
16.4417793
21
146.1981006
0
LINE
8
DEFAULT_255_2_778
10
16.4417793
20
146.1981006
11
16.9574793
21
146.1971006
0
LINE
8
DEFAULT_255_2_778
10
16.7894793
20
144.5606006
11
16.7894793
21
144.5606006
0
LINE
8
DEFAULT_255_2_778
10
16.9267793
20
145.2726006
11
16.6131793
21
145.2737006
0
LINE
8
DEFAULT_255_2_778
10
16.6131793
20
145.2737006
11
16.5348793
21
144.8316006
0
LINE
8
DEFAULT_255_2_778
10
16.5348793
20
144.8316006
11
16.7973793
21
144.8305006
0
LINE
8
DEFAULT_255_2_778
10
16.9267793
20
145.2724006
11
16.9267793
21
145.2726006
0
LINE
8
DEFAULT_255_2_778
10
16.7267793
20
145.9251006
11
16.6539793
21
145.5123006
0
LINE
8
DEFAULT_255_2_778
10
16.6539793
20
145.5123006
11
16.8798793
21
145.5100006
0
LINE
8
DEFAULT_255_2_778
10
16.9719793
20
145.9238006
11
16.7267793
21
145.9248006
0
LINE
8
DEFAULT_255_2_778
10
16.7267793
20
145.9248006
11
16.7267793
21
145.9251006
0
LINE
8
DEFAULT_255_2_778
10
18.4681793
20
145.7865006
11
18.4271793
21
145.4727006
0
LINE
8
DEFAULT_255_2_778
10
18.0477793
20
145.3570006
11
17.9056793
21
144.5606006
0
LINE
8
DEFAULT_255_2_778
10
17.9056793
20
144.5606006
11
17.5852793
21
144.5606006
0
LINE
8
DEFAULT_255_2_778
10
17.5852793
20
144.5606006
11
17.7987793
21
145.7777006
0
LINE
8
DEFAULT_255_2_778
10
17.7987793
20
145.7777006
11
18.0998793
21
145.7788006
0
LINE
8
DEFAULT_255_2_778
10
18.0998793
20
145.7788006
11
18.0702793
21
145.6303006
0
LINE
8
DEFAULT_255_2_778
10
18.4679793
20
145.7865006
11
18.4681793
21
145.7865006
0
LINE
8
DEFAULT_255_2_778
10
19.4122793
20
144.5604006
11
19.0976793
21
144.5604006
0
LINE
8
DEFAULT_255_2_778
10
19.0045793
20
145.3049006
11
19.1545793
21
145.3028006
0
LINE
8
DEFAULT_255_2_778
10
19.1545793
20
145.3028006
11
19.1703793
21
145.3758006
0
LINE
8
DEFAULT_255_2_778
10
18.8478793
20
145.4118006
11
18.5264793
21
145.4107006
0
LINE
8
DEFAULT_255_2_778
10
19.4939793
20
145.3713006
11
19.3997793
21
144.7887006
0
LINE
8
DEFAULT_255_2_778
10
19.3997793
20
144.7887006
11
19.3942793
21
144.7167006
0
LINE
8
DEFAULT_255_2_778
10
19.4135793
20
144.5818006
11
19.4124793
21
144.5604006
0
LINE
8
DEFAULT_255_2_778
10
19.4124793
20
144.5604006
11
19.4122793
21
144.5604006
0
LINE
8
DEFAULT_255_2_778
10
19.0928793
20
144.9035006
11
19.1325793
21
145.1139006
0
LINE
8
DEFAULT_255_2_778
10
19.1325793
20
145.1139006
11
19.0211793
21
145.1149006
0
LINE
8
DEFAULT_255_2_778
10
18.8510793
20
144.7845006
11
18.8510793
21
144.7842006
0
LINE
8
DEFAULT_255_2_778
10
20.4946793
20
145.6650006
11
20.6150793
21
146.2881006
0
LINE
8
DEFAULT_255_2_778
10
20.6150793
20
146.2881006
11
20.9364793
21
146.2881006
0
LINE
8
DEFAULT_255_2_778
10
20.9364793
20
146.2881006
11
20.6343793
21
144.5604006
0
LINE
8
DEFAULT_255_2_778
10
20.6343793
20
144.5604006
11
20.3480793
21
144.5604006
0
LINE
8
DEFAULT_255_2_778
10
20.3480793
20
144.5604006
11
20.3663793
21
144.6908006
0
LINE
8
DEFAULT_255_2_778
10
19.6632793
20
145.1464006
11
19.6701793
21
145.1970006
0
LINE
8
DEFAULT_255_2_778
10
20.2176793
20
145.8010006
11
20.2173793
21
145.8010006
0
LINE
8
DEFAULT_255_2_778
10
20.3755793
20
144.9271006
11
20.4631793
21
145.4107006
0
LINE
8
DEFAULT_255_2_778
10
19.9850793
20
145.1464006
11
19.9845793
21
145.1464006
0
LINE
8
DEFAULT_255_2_778
10
21.5304594
20
146.2881646
11
21.2282594
21
144.5604646
0
LINE
8
DEFAULT_255_2_778
10
21.2282594
20
144.5604646
11
20.9057594
21
144.5604646
0
LINE
8
DEFAULT_255_2_778
10
20.9057594
20
144.5604646
11
21.2089594
21
146.2881646
0
LINE
8
DEFAULT_255_2_778
10
21.2089594
20
146.2881646
11
21.5304594
21
146.2881646
0
LINE
8
DEFAULT_255_2_778
10
21.5304594
20
146.2881646
11
21.5304594
21
146.2881646
0
ARC
8
DEFAULT_255_2_778
10
22.0768767
20
145.0762764
40
0.5383522
50
238.763891
51
270.7055166
0
ARC
8
DEFAULT_255_2_778
10
22.0455625
20
145.020952
40
0.4748131
50
204.061185
51
238.5328679
0
ARC
8
DEFAULT_255_2_778
10
22.1281681
20
145.0605331
40
0.5663841
50
179.4896096
51
204.3103027
0
ARC
8
DEFAULT_255_2_778
10
22.2521843
20
145.0650727
40
0.6903781
50
175.123126
51
179.9580366
0
ARC
8
DEFAULT_255_2_778
10
22.3438479
20
145.1000152
40
0.7790728
50
149.5392097
51
174.9446897
0
ARC
8
DEFAULT_255_2_778
10
22.217984
20
145.1835212
40
0.628301
50
120.7003982
51
150.2846053
0
ARC
8
DEFAULT_255_2_778
10
22.1784851
20
145.2432024
40
0.556829
50
89.4236852
51
120.3409826
0
ARC
8
DEFAULT_255_2_778
10
22.1840352
20
145.1444671
40
0.6555361
50
88.4553682
51
89.9955718
0
ARC
8
DEFAULT_255_2_778
10
22.2069363
20
145.3286369
40
0.4711572
50
58.4514404
51
90.636095
0
ARC
8
DEFAULT_255_2_778
10
22.2332403
20
145.3920423
40
0.403504
50
35.6058989
51
56.9235594
0
ARC
8
DEFAULT_255_2_778
10
22.1229882
20
145.3182058
40
0.5361477
50
0.6851965
51
35.1616077
0
ARC
8
DEFAULT_255_2_778
10
21.9204313
20
145.2978229
40
0.7391521
50
359.9888194
51
2.0774415
0
ARC
8
DEFAULT_255_2_778
10
21.8068025
20
145.2995249
40
0.852783
50
353.383538
51
359.8759623
0
ARC
8
DEFAULT_255_2_778
10
22.293021
20
145.0471119
40
0.4107176
50
177.8018731
51
179.9839782
0
ARC
8
DEFAULT_255_2_778
10
22.1344217
20
145.035624
40
0.2523852
50
177.3650374
51
219.8309448
0
ARC
8
DEFAULT_255_2_778
10
22.1050068
20
145.0223401
40
0.2214564
50
222.0668323
51
271.55222
0
ARC
8
DEFAULT_255_2_778
10
22.1220002
20
145.2271289
40
0.4263057
50
268.5221572
51
269.9980687
0
ARC
8
DEFAULT_255_2_778
10
22.1204001
20
145.1975217
40
0.3967017
50
270.2290309
51
318.5203973
0
ARC
8
DEFAULT_255_2_778
10
22.1898056
20
145.0142979
40
0.4555006
50
292.4982989
51
325.2807674
0
ARC
8
DEFAULT_255_2_778
10
22.0999907
20
145.1928545
40
0.6549996
50
269.6158853
51
293.7802026
0
ARC
8
DEFAULT_255_2_778
10
22.0956026
20
145.279733
40
0.7418635
50
269.0811303
51
269.9997673
0
ARC
8
DEFAULT_255_2_778
10
22.1793249
20
145.2726977
40
0.2651417
50
88.6426435
51
89.9971979
0
ARC
8
DEFAULT_255_2_778
10
22.1775009
20
145.3079788
40
0.2298681
50
89.5421073
51
130.5025885
0
ARC
8
DEFAULT_255_2_778
10
22.2762398
20
145.2078327
40
0.370282
50
132.0556576
51
154.4346079
0
ARC
8
DEFAULT_255_2_778
10
22.6775288
20
144.9902869
40
0.8264843
50
152.8348001
51
159.2008974
0
ARC
8
DEFAULT_255_2_778
10
22.042515
20
145.3612268
40
0.3137404
50
351.1327381
51
359.8552777
0
ARC
8
DEFAULT_255_2_778
10
22.0889744
20
145.3608274
40
0.2672803
50
359.9157472
51
8.073482
0
ARC
8
DEFAULT_255_2_778
10
22.1916726
20
145.3761276
40
0.1634528
50
7.8192239
51
49.4174523
0
ARC
8
DEFAULT_255_2_778
10
22.1897336
20
145.3629377
40
0.174876
50
51.746929
51
91.3525911
0
LINE
8
DEFAULT_255_2_778
10
21.5643056
20
145.123765
11
21.5678056
21
145.168665
0
LINE
8
DEFAULT_255_2_778
10
22.6539056
20
145.201265
11
22.6356056
21
145.062865
0
LINE
8
DEFAULT_255_2_778
10
22.6356056
20
145.062865
11
21.8826056
21
145.062865
0
LINE
8
DEFAULT_255_2_778
10
22.4176056
20
144.934765
11
22.5642056
21
144.754865
0
LINE
8
DEFAULT_255_2_778
10
22.0837056
20
144.537965
11
22.0835056
21
144.537965
0
LINE
8
DEFAULT_255_2_778
10
21.9049056
20
145.283765
11
22.3456056
21
145.283765
0
LINE
8
DEFAULT_255_2_778
10
22.3456056
20
145.283765
11
22.3525056
21
145.312865
0
LINE
8
DEFAULT_255_2_778
10
22.1856056
20
145.537765
11
22.1856056
21
145.537765
0
ARC
8
DEFAULT_255_2_778
10
22.5732251
20
144.6768848
40
0.7187609
50
318.1171527
51
335.3457065
0
ARC
8
DEFAULT_255_2_778
10
22.7861338
20
144.4947586
40
0.4387075
50
306.2044829
51
317.2623563
0
ARC
8
DEFAULT_255_2_778
10
22.8118587
20
144.4640063
40
0.3987066
50
269.0092455
51
305.8318035
0
ARC
8
DEFAULT_255_2_778
10
22.8209703
20
144.6286254
40
0.5634934
50
257.9736769
51
268.3723286
0
ARC
8
DEFAULT_255_2_778
10
22.976467
20
145.4828273
40
1.431581
50
256.8370098
51
259.0102636
0
ARC
8
DEFAULT_255_2_778
10
22.7299218
20
144.730881
40
0.396887
50
268.3457775
51
269.9906226
0
ARC
8
DEFAULT_255_2_778
10
22.744688
20
144.5714479
40
0.2379166
50
266.425992
51
328.6474802
0
LINE
8
DEFAULT_255_2_778
10
23.1491646
20
145.7774594
11
23.2378646
21
145.0239594
0
LINE
8
DEFAULT_255_2_778
10
23.2378646
20
145.0239594
11
23.5889646
21
145.7774594
0
LINE
8
DEFAULT_255_2_778
10
23.5889646
20
145.7774594
11
23.9453646
21
145.7774594
0
LINE
8
DEFAULT_255_2_778
10
23.9453646
20
145.7774594
11
23.2264646
21
144.3770594
0
LINE
8
DEFAULT_255_2_778
10
22.6504646
20
144.0888594
11
22.6742646
21
144.3362594
0
LINE
8
DEFAULT_255_2_778
10
22.6742646
20
144.3362594
11
22.7184646
21
144.3341594
0
LINE
8
DEFAULT_255_2_778
10
22.9478646
20
144.4476594
11
23.0182646
21
144.5770594
0
LINE
8
DEFAULT_255_2_778
10
23.0182646
20
144.5770594
11
22.8171646
21
145.7771594
0
LINE
8
DEFAULT_255_2_778
10
22.8171646
20
145.7771594
11
23.1489646
21
145.7771594
0
LINE
8
DEFAULT_255_2_778
10
23.1489646
20
145.7771594
11
23.1491646
21
145.7774594
0
LINE
8
DEFAULT_255_2_778
10
5.4244542
20
146.1769666
11
5.4244542
21
144.9916666
0
LINE
8
DEFAULT_255_2_778
10
5.4244542
20
144.9916666
11
8.3507542
21
144.9546666
0
LINE
8
DEFAULT_255_2_778
10
8.3507542
20
144.9546666
11
8.3507542
21
146.1769666
0
LINE
8
DEFAULT_255_2_778
10
8.3507542
20
146.1769666
11
7.4246542
21
147.0289666
0
LINE
8
DEFAULT_255_2_778
10
7.4246542
20
147.0289666
11
6.2764542
21
147.0289666
0
LINE
8
DEFAULT_255_2_778
10
6.2764542
20
147.0289666
11
5.4244542
21
146.1769666
0
LINE
8
DEFAULT_255_2_778
10
5.5726542
20
144.7694666
11
8.2025542
21
144.7694666
0
LINE
8
DEFAULT_255_2_778
10
8.2025542
20
144.7694666
11
7.4617542
21
144.0656666
0
LINE
8
DEFAULT_255_2_778
10
7.4617542
20
144.0656666
11
6.3504542
21
144.0656666
0
LINE
8
DEFAULT_255_2_778
10
6.3504542
20
144.0656666
11
5.5726542
21
144.7694666
0
ARC
8
DEFAULT_255_2_778
10
7.8458226
20
145.3185768
40
0.1423419
50
264.5115721
51
318.4176283
0
ARC
8
DEFAULT_255_2_778
10
7.8189879
20
145.3156225
40
0.1616977
50
325.5297452
51
3.3557414
0
ARC
8
DEFAULT_255_2_778
10
7.8389795
20
145.6721157
40
0.142084
50
354.4959081
51
48.5537602
0
ARC
8
DEFAULT_255_2_778
10
7.8416444
20
145.6449068
40
0.1619557
50
55.6500697
51
93.3401169
0
ARC
8
DEFAULT_255_2_778
10
7.8414709
20
145.871425
40
0.0654958
50
261.8698976
51
8.1301024
0
ARC
8
DEFAULT_255_2_778
10
7.7988672
20
146.2541455
40
0.1074847
50
358.3696885
51
95.9524071
0
ARC
8
DEFAULT_255_2_778
10
7.7588839
20
146.0257916
40
0.3364968
50
85.0838783
51
90.1320543
0
LINE
8
DEFAULT_255_2_778
10
5.6838084
20
145.1768875
11
6.1283084
21
146.3992875
0
LINE
8
DEFAULT_255_2_778
10
6.1283084
20
146.3992875
11
6.3876084
21
146.3992875
0
LINE
8
DEFAULT_255_2_778
10
6.3876084
20
146.3992875
11
6.8691084
21
145.2139875
0
LINE
8
DEFAULT_255_2_778
10
6.8691084
20
145.2139875
11
6.5358084
21
145.2139875
0
LINE
8
DEFAULT_255_2_778
10
6.5358084
20
145.2139875
11
6.4246084
21
145.4732875
0
LINE
8
DEFAULT_255_2_778
10
6.4246084
20
145.4732875
11
6.0913084
21
145.4732875
0
LINE
8
DEFAULT_255_2_778
10
6.0913084
20
145.4732875
11
6.0913084
21
145.6213875
0
LINE
8
DEFAULT_255_2_778
10
6.0913084
20
145.6213875
11
6.3876084
21
145.6213875
0
LINE
8
DEFAULT_255_2_778
10
6.3876084
20
145.6213875
11
6.2024084
21
146.0658875
0
LINE
8
DEFAULT_255_2_778
10
6.2024084
20
146.0658875
11
5.8690084
21
145.1768875
0
LINE
8
DEFAULT_255_2_778
10
5.8690084
20
145.1768875
11
5.6838084
21
145.1768875
0
LINE
8
DEFAULT_255_2_778
10
5.6838084
20
145.1768875
11
5.6838084
21
145.1768875
0
LINE
8
DEFAULT_255_2_778
10
6.7580084
20
145.8436875
11
6.9062084
21
145.8436875
0
LINE
8
DEFAULT_255_2_778
10
6.9062084
20
145.8436875
11
6.9062084
21
145.6954875
0
LINE
8
DEFAULT_255_2_778
10
6.9062084
20
145.6954875
11
6.7580084
21
145.6954875
0
LINE
8
DEFAULT_255_2_778
10
6.7580084
20
145.6954875
11
6.7580084
21
145.8436875
0
LINE
8
DEFAULT_255_2_778
10
7.2766084
20
146.1770875
11
7.6100084
21
146.1770875
0
LINE
8
DEFAULT_255_2_778
10
7.6100084
20
146.1770875
11
7.6100084
21
145.8065875
0
LINE
8
DEFAULT_255_2_778
10
7.6100084
20
145.8065875
11
7.3507084
21
145.8065875
0
LINE
8
DEFAULT_255_2_778
10
7.3507084
20
145.8065875
11
7.3507084
21
145.6584875
0
LINE
8
DEFAULT_255_2_778
10
7.3507084
20
145.6584875
11
7.6840084
21
145.6584875
0
LINE
8
DEFAULT_255_2_778
10
7.6840084
20
145.6584875
11
7.6840084
21
145.3250875
0
LINE
8
DEFAULT_255_2_778
10
7.6840084
20
145.3250875
11
7.2766084
21
145.3250875
0
LINE
8
DEFAULT_255_2_778
10
7.2766084
20
145.3250875
11
7.2766084
21
146.1770875
0
LINE
8
DEFAULT_255_2_778
10
7.2766084
20
146.1770875
11
7.2766084
21
146.1770875
0
LINE
8
DEFAULT_255_2_778
10
6.9803084
20
146.3622875
11
6.9803084
21
145.1768875
0
LINE
8
DEFAULT_255_2_778
10
6.9803084
20
145.1768875
11
7.8322084
21
145.1768875
0
LINE
8
DEFAULT_255_2_778
10
7.9804084
20
145.3250875
11
7.9804084
21
145.6584875
0
LINE
8
DEFAULT_255_2_778
10
7.9063084
20
145.8806875
11
7.9063084
21
146.2510875
0
LINE
8
DEFAULT_255_2_778
10
7.7581084
20
146.3622875
11
6.9803084
21
146.3622875
0
LINE
8
DEFAULT_255_2_778
10
6.9803084
20
146.3622875
11
6.9803084
21
146.3622875
0
LINE
8
DEFAULT_255_2_778
10
6.3394427
20
144.3865198
11
6.3367427
21
144.3865198
0
ARC
8
DEFAULT_255_2_778
10
6.3340483
20
144.5115854
40
0.1250946
50
247.1356448
51
271.2341787
0
ARC
8
DEFAULT_255_2_778
10
6.3160916
20
144.4692164
40
0.0790776
50
215.0349981
51
247.1960091
0
ARC
8
DEFAULT_255_2_778
10
6.3109464
20
144.4638964
40
0.0718243
50
178.625123
51
213.9163394
0
ARC
8
DEFAULT_255_2_778
10
6.3131693
20
144.5809391
40
0.0740421
50
147.0420611
51
181.175799
0
ARC
8
DEFAULT_255_2_778
10
6.3147919
20
144.5770628
40
0.0775487
50
112.4780918
51
145.2909011
0
ARC
8
DEFAULT_255_2_778
10
6.333917
20
144.5326534
40
0.1258981
50
88.7138988
51
112.7934617
0
ARC
8
DEFAULT_255_2_778
10
6.339481
20
144.5331878
40
0.1253619
50
67.159311
51
91.2516049
0
ARC
8
DEFAULT_255_2_778
10
6.3569794
20
144.5751852
40
0.0798654
50
35.1978461
51
67.0331611
0
ARC
8
DEFAULT_255_2_778
10
6.3626391
20
144.5811431
40
0.0718243
50
358.625123
51
33.9163394
0
ARC
8
DEFAULT_255_2_778
10
6.3604162
20
144.4641004
40
0.0740421
50
327.0420611
51
1.175799
0
ARC
8
DEFAULT_255_2_778
10
6.361381
20
144.4653218
40
0.0739133
50
291.6436853
51
325.8406333
0
ARC
8
DEFAULT_255_2_778
10
6.3401809
20
144.474374
40
0.0482768
50
265.9160158
51
308.3617549
0
ARC
8
DEFAULT_255_2_778
10
6.3451719
20
144.4633207
40
0.036631
50
312.9754563
51
3.2850623
0
ARC
8
DEFAULT_255_2_778
10
6.3448152
20
144.581002
40
0.0369754
50
357.082104
51
47.4006092
0
ARC
8
DEFAULT_255_2_778
10
6.339634
20
144.5708686
40
0.0480383
50
51.0349629
51
93.4505724
0
ARC
8
DEFAULT_255_2_778
10
6.3340455
20
144.570549
40
0.0483461
50
86.8017862
51
128.8135095
0
ARC
8
DEFAULT_255_2_778
10
6.3287702
20
144.581002
40
0.0369754
50
132.5993908
51
182.917896
0
ARC
8
DEFAULT_255_2_778
10
6.3284135
20
144.4633207
40
0.036631
50
176.7149377
51
227.0245437
0
ARC
8
DEFAULT_255_2_778
10
6.3334908
20
144.474686
40
0.0485752
50
231.7867693
51
273.8385805
0
ARC
8
DEFAULT_255_2_778
10
6.5570034
20
144.4630567
40
0.0766655
50
226.2029837
51
273.3195937
0
ARC
8
DEFAULT_255_2_778
10
6.5622798
20
144.4610746
40
0.0790566
50
176.8492311
51
222.4458356
0
ARC
8
DEFAULT_255_2_778
10
6.5699928
20
144.4629647
40
0.043631
50
176.5112098
51
217.639275
0
ARC
8
DEFAULT_255_2_778
10
6.5593879
20
144.4578664
40
0.0322122
50
221.9818643
51
273.6574471
0
ARC
8
DEFAULT_255_2_778
10
6.5632217
20
144.4583151
40
0.0326438
50
266.8760675
51
317.6392064
0
ARC
8
DEFAULT_255_2_778
10
6.5527926
20
144.4629647
40
0.043631
50
322.360725
51
3.4887902
0
ARC
8
DEFAULT_255_2_778
10
6.5605056
20
144.4610746
40
0.0790566
50
317.5541644
51
3.1507689
0
ARC
8
DEFAULT_255_2_778
10
6.5656687
20
144.4633223
40
0.0769357
50
266.6274163
51
313.7210327
0
LINE
8
DEFAULT_255_2_778
10
6.4394427
20
144.3249198
11
6.3828427
21
144.3249198
0
LINE
8
DEFAULT_255_2_778
10
6.3828427
20
144.3249198
11
6.3394427
21
144.3865198
0
LINE
8
DEFAULT_255_2_778
10
6.2391427
20
144.4656198
11
6.2391427
21
144.5794198
0
LINE
8
DEFAULT_255_2_778
10
6.4344427
20
144.5794198
11
6.4344427
21
144.4656198
0
LINE
8
DEFAULT_255_2_778
10
6.3886427
20
144.3966198
11
6.4394427
21
144.3251198
0
LINE
8
DEFAULT_255_2_778
10
6.4394427
20
144.3251198
11
6.4394427
21
144.3249198
0
LINE
8
DEFAULT_255_2_778
10
6.3817427
20
144.4654198
11
6.3817427
21
144.5791198
0
LINE
8
DEFAULT_255_2_778
10
6.2918427
20
144.5791198
11
6.2918427
21
144.4654198
0
LINE
8
DEFAULT_255_2_778
10
6.3367427
20
144.4262198
11
6.3367427
21
144.4262198
0
LINE
8
DEFAULT_255_2_778
10
6.4833427
20
144.4654198
11
6.4833427
21
144.6545198
0
LINE
8
DEFAULT_255_2_778
10
6.4833427
20
144.6545198
11
6.5264427
21
144.6545198
0
LINE
8
DEFAULT_255_2_778
10
6.5264427
20
144.6545198
11
6.5264427
21
144.4656198
0
LINE
8
DEFAULT_255_2_778
10
6.5963427
20
144.4656198
11
6.5963427
21
144.6545198
0
LINE
8
DEFAULT_255_2_778
10
6.5963427
20
144.6545198
11
6.6394427
21
144.6545198
0
LINE
8
DEFAULT_255_2_778
10
6.6394427
20
144.6545198
11
6.6394427
21
144.4654198
0
LINE
8
DEFAULT_255_2_778
10
6.5611427
20
144.3865198
11
6.5614427
21
144.3865198
0
ARC
8
DEFAULT_255_2_778
10
12.1641553
20
145.6896635
40
5.5033955
50
191.4837585
51
191.8239227
0
ARC
8
DEFAULT_255_2_778
10
8.3589245
20
144.8858972
40
1.6145995
50
189.6626565
51
190.4158531
0
ARC
8
DEFAULT_255_2_778
10
6.1197449
20
144.7187409
40
0.6557616
50
349.0334606
51
350.8880298
0
ARC
8
DEFAULT_255_2_778
10
6.0674183
20
144.7223866
40
0.7078549
50
346.9283592
51
349.5494987
0
ARC
8
DEFAULT_255_2_778
10
7.2958769
20
144.4915243
40
0.1856762
50
15.5793022
51
22.5708948
0
ARC
8
DEFAULT_255_2_778
10
7.3328007
20
144.4963058
40
0.1489195
50
11.1061152
51
17.6230497
0
ARC
8
DEFAULT_255_2_778
10
8.063214
20
144.3805593
40
0.6018696
50
164.5010167
51
166.1150622
0
ARC
8
DEFAULT_255_2_778
10
7.6620856
20
144.4915243
40
0.1856762
50
157.4291052
51
164.4206978
0
LINE
8
DEFAULT_255_2_778
10
6.7201313
20
144.3899917
11
6.6762313
21
144.3899917
0
LINE
8
DEFAULT_255_2_778
10
6.6762313
20
144.3899917
11
6.7392313
21
144.6545917
0
LINE
8
DEFAULT_255_2_778
10
6.7392313
20
144.6545917
11
6.7942313
21
144.6545917
0
LINE
8
DEFAULT_255_2_778
10
6.7942313
20
144.6545917
11
6.8577313
21
144.3899917
0
LINE
8
DEFAULT_255_2_778
10
6.8577313
20
144.3899917
11
6.8138313
21
144.3899917
0
LINE
8
DEFAULT_255_2_778
10
6.8138313
20
144.3899917
11
6.8000313
21
144.4539917
0
LINE
8
DEFAULT_255_2_778
10
6.8000313
20
144.4539917
11
6.7336313
21
144.4539917
0
LINE
8
DEFAULT_255_2_778
10
6.7336313
20
144.4539917
11
6.7199313
21
144.3899917
0
LINE
8
DEFAULT_255_2_778
10
6.7199313
20
144.3899917
11
6.7201313
21
144.3899917
0
LINE
8
DEFAULT_255_2_778
10
6.7569313
20
144.5624917
11
6.7418313
21
144.4910917
0
LINE
8
DEFAULT_255_2_778
10
6.7418313
20
144.4910917
11
6.7926313
21
144.4910917
0
LINE
8
DEFAULT_255_2_778
10
6.7926313
20
144.4910917
11
6.7775313
21
144.5619917
0
LINE
8
DEFAULT_255_2_778
10
6.7569313
20
144.5622917
11
6.7569313
21
144.5624917
0
LINE
8
DEFAULT_255_2_778
10
7.0231313
20
144.3899917
11
6.8741313
21
144.3899917
0
LINE
8
DEFAULT_255_2_778
10
6.8741313
20
144.3899917
11
6.8741313
21
144.6545917
0
LINE
8
DEFAULT_255_2_778
10
6.8741313
20
144.6545917
11
6.9170313
21
144.6545917
0
LINE
8
DEFAULT_255_2_778
10
6.9170313
20
144.6545917
11
6.9170313
21
144.4309917
0
LINE
8
DEFAULT_255_2_778
10
6.9170313
20
144.4309917
11
7.0231313
21
144.4309917
0
LINE
8
DEFAULT_255_2_778
10
7.0231313
20
144.4309917
11
7.0231313
21
144.3899917
0
LINE
8
DEFAULT_255_2_778
10
7.0231313
20
144.3899917
11
7.0231313
21
144.3899917
0
LINE
8
DEFAULT_255_2_778
10
7.1760313
20
144.3899917
11
7.0321313
21
144.3899917
0
LINE
8
DEFAULT_255_2_778
10
7.0321313
20
144.3899917
11
7.0321313
21
144.4309917
0
LINE
8
DEFAULT_255_2_778
10
7.0321313
20
144.4309917
11
7.0823313
21
144.4309917
0
LINE
8
DEFAULT_255_2_778
10
7.0823313
20
144.4309917
11
7.0823313
21
144.6135917
0
LINE
8
DEFAULT_255_2_778
10
7.0823313
20
144.6135917
11
7.0321313
21
144.6135917
0
LINE
8
DEFAULT_255_2_778
10
7.0321313
20
144.6135917
11
7.0321313
21
144.6545917
0
LINE
8
DEFAULT_255_2_778
10
7.0321313
20
144.6545917
11
7.1760313
21
144.6545917
0
LINE
8
DEFAULT_255_2_778
10
7.1760313
20
144.6545917
11
7.1760313
21
144.6135917
0
LINE
8
DEFAULT_255_2_778
10
7.1760313
20
144.6135917
11
7.1257313
21
144.6135917
0
LINE
8
DEFAULT_255_2_778
10
7.1257313
20
144.6135917
11
7.1257313
21
144.4309917
0
LINE
8
DEFAULT_255_2_778
10
7.1257313
20
144.4309917
11
7.1760313
21
144.4309917
0
LINE
8
DEFAULT_255_2_778
10
7.1760313
20
144.4309917
11
7.1760313
21
144.3899917
0
LINE
8
DEFAULT_255_2_778
10
7.1760313
20
144.3899917
11
7.1760313
21
144.3899917
0
LINE
8
DEFAULT_255_2_778
10
7.2940313
20
144.3899917
11
7.2509313
21
144.3899917
0
LINE
8
DEFAULT_255_2_778
10
7.2509313
20
144.3899917
11
7.2509313
21
144.6135917
0
LINE
8
DEFAULT_255_2_778
10
7.2509313
20
144.6135917
11
7.1855313
21
144.6135917
0
LINE
8
DEFAULT_255_2_778
10
7.1855313
20
144.6135917
11
7.1855313
21
144.6545917
0
LINE
8
DEFAULT_255_2_778
10
7.1855313
20
144.6545917
11
7.3596313
21
144.6545917
0
LINE
8
DEFAULT_255_2_778
10
7.3596313
20
144.6545917
11
7.3596313
21
144.6135917
0
LINE
8
DEFAULT_255_2_778
10
7.3596313
20
144.6135917
11
7.2943313
21
144.6135917
0
LINE
8
DEFAULT_255_2_778
10
7.2943313
20
144.6135917
11
7.2943313
21
144.3899917
0
LINE
8
DEFAULT_255_2_778
10
7.2943313
20
144.3899917
11
7.2940313
21
144.3899917
0
LINE
8
DEFAULT_255_2_778
10
7.4996313
20
144.3899917
11
7.4565313
21
144.3899917
0
LINE
8
DEFAULT_255_2_778
10
7.4565313
20
144.3899917
11
7.4565313
21
144.4860917
0
LINE
8
DEFAULT_255_2_778
10
7.4565313
20
144.4860917
11
7.3832313
21
144.6545917
0
LINE
8
DEFAULT_255_2_778
10
7.3832313
20
144.6545917
11
7.4281313
21
144.6545917
0
LINE
8
DEFAULT_255_2_778
10
7.4281313
20
144.6545917
11
7.4673313
21
144.5627917
0
LINE
8
DEFAULT_255_2_778
10
7.4906313
20
144.5627917
11
7.5287313
21
144.6545917
0
LINE
8
DEFAULT_255_2_778
10
7.5287313
20
144.6545917
11
7.5731313
21
144.6545917
0
LINE
8
DEFAULT_255_2_778
10
7.5731313
20
144.6545917
11
7.4998313
21
144.4860917
0
LINE
8
DEFAULT_255_2_778
10
7.4998313
20
144.4860917
11
7.4998313
21
144.3899917
0
LINE
8
DEFAULT_255_2_778
10
7.4998313
20
144.3899917
11
7.4996313
21
144.3899917
0
LINE
8
DEFAULT_255_1_388
10
9.052132
20
141.9912468
11
9.2265199
21
141.9912468
0
LINE
8
DEFAULT_255_1_388
10
8.2136242
20
142.1701525
11
8.2136242
21
142.2966516
0
LINE
8
DEFAULT_255_1_388
10
9.2265199
20
142.4665217
11
9.052132
21
142.4665217
0
LINE
8
DEFAULT_255_1_388
10
8.3880121
20
142.2921337
11
8.3880121
21
142.1647312
0
ARC
8
DEFAULT_255_1_388
10
8.6099433
20
142.0584329
40
0.6202263
50
340.1774904
51
353.7812217
0
ARC
8
DEFAULT_255_1_388
10
8.7867286
20
141.9925893
40
0.4315926
50
311.4560052
51
340.4420756
0
ARC
8
DEFAULT_255_1_388
10
8.7829826
20
142.0050665
40
0.4434573
50
282.4332229
51
310.7514507
0
ARC
8
DEFAULT_255_1_388
10
8.7335644
20
142.2092703
40
0.6535262
50
269.9358869
51
282.8096729
0
ARC
8
DEFAULT_255_1_388
10
8.7277583
20
142.3605329
40
0.8048043
50
269.9995752
51
270.3612856
0
ARC
8
DEFAULT_255_1_388
10
8.7218073
20
142.0806781
40
0.5249831
50
250.7885263
51
270.6488451
0
ARC
8
DEFAULT_255_1_388
10
8.7028898
20
142.0089853
40
0.4510942
50
219.3628377
51
250.0611024
0
ARC
8
DEFAULT_255_1_388
10
8.7961772
20
142.0882653
40
0.5735046
50
193.5480293
51
219.5755675
0
ARC
8
DEFAULT_255_1_388
10
9.0629981
20
142.157552
40
0.849146
50
181.1220183
51
193.8754971
0
ARC
8
DEFAULT_255_1_388
10
9.2953214
20
142.1699914
40
1.0816971
50
179.9914644
51
181.5398227
0
ARC
8
DEFAULT_255_1_388
10
9.0876525
20
142.3008586
40
0.8740384
50
169.5837606
51
180.275782
0
ARC
8
DEFAULT_255_1_388
10
8.8809873
20
142.3390439
40
0.6638751
50
155.0367033
51
169.6002779
0
ARC
8
DEFAULT_255_1_388
10
8.7532331
20
142.4006336
40
0.5220662
50
136.7831557
51
155.2472983
0
ARC
8
DEFAULT_255_1_388
10
8.7094122
20
142.4378577
40
0.4646502
50
121.7633063
51
136.4281161
0
ARC
8
DEFAULT_255_1_388
10
8.7245962
20
142.4098049
40
0.4964979
50
95.6460018
51
121.5489589
0
ARC
8
DEFAULT_255_1_388
10
8.7422936
20
142.2850704
40
0.6223912
50
89.9245727
51
96.1375919
0
ARC
8
DEFAULT_255_1_388
10
8.7479641
20
142.2984721
40
0.6090084
50
76.6779212
51
90.456405
0
ARC
8
DEFAULT_255_1_388
10
8.7922454
20
142.477406
40
0.42469
50
47.4858803
51
76.9287069
0
ARC
8
DEFAULT_255_1_388
10
8.7757068
20
142.4661623
40
0.4441778
50
16.5424081
51
46.8934505
0
ARC
8
DEFAULT_255_1_388
10
8.5948118
20
142.4067265
40
0.6345318
50
5.4072971
51
17.0363711
0
ARC
8
DEFAULT_255_1_388
10
8.4329843
20
142.3807304
40
0.6250632
50
7.8888693
51
15.9242022
0
ARC
8
DEFAULT_255_1_388
10
8.6564828
20
142.4456309
40
0.3923364
50
15.7650676
51
27.9410069
0
ARC
8
DEFAULT_255_1_388
10
8.7806997
20
142.5121317
40
0.2514401
50
27.8167196
51
46.4007942
0
ARC
8
DEFAULT_255_1_388
10
8.7862839
20
142.5114882
40
0.2480958
50
47.4372362
51
75.0695672
0
ARC
8
DEFAULT_255_1_388
10
8.7515675
20
142.3906277
40
0.3738281
50
74.7009379
51
87.8124314
0
ARC
8
DEFAULT_255_1_388
10
8.7433292
20
142.2722659
40
0.4924321
50
87.3802571
51
90.0251599
0
ARC
8
DEFAULT_255_1_388
10
8.7389939
20
142.4042997
40
0.3604218
50
89.3451886
51
108.5744412
0
ARC
8
DEFAULT_255_1_388
10
8.7235931
20
142.4620836
40
0.3007661
50
109.2998307
51
143.3037387
0
ARC
8
DEFAULT_255_1_388
10
8.8093221
20
142.3961584
40
0.4089031
50
143.075267
51
163.1918576
0
ARC
8
DEFAULT_255_1_388
10
9.0289055
20
142.3268652
40
0.6391492
50
162.9375929
51
174.6208776
0
ARC
8
DEFAULT_255_1_388
10
9.3243437
20
142.2944711
40
0.9363344
50
174.342123
51
180.1430283
0
ARC
8
DEFAULT_255_1_388
10
9.2195978
20
142.1601117
40
0.8315986
50
179.6817261
51
189.150555
0
ARC
8
DEFAULT_255_1_388
10
8.9382727
20
142.1132559
40
0.5464044
50
188.9911061
51
203.5772363
0
ARC
8
DEFAULT_255_1_388
10
8.8168019
20
142.0628539
40
0.4149206
50
203.9075402
51
215.1312435
0
ARC
8
DEFAULT_255_1_388
10
8.7129817
20
141.9823907
40
0.2837747
50
213.9071511
51
263.8848919
0
ARC
8
DEFAULT_255_1_388
10
8.727081
20
142.0706519
40
0.3730641
50
263.1757928
51
270.1031044
0
ARC
8
DEFAULT_255_1_388
10
8.730689
20
142.2109511
40
0.5133712
50
269.6722503
51
279.0606936
0
ARC
8
DEFAULT_255_1_388
10
8.7607045
20
142.029515
40
0.3294739
50
278.8749101
51
293.6349581
0
ARC
8
DEFAULT_255_1_388
10
8.7967249
20
141.9449251
40
0.2375405
50
293.8553806
51
310.0518171
0
ARC
8
DEFAULT_255_1_388
10
8.7972758
20
141.9379021
40
0.2318463
50
311.0644687
51
332.0111037
0
ARC
8
DEFAULT_255_1_388
10
8.6631431
20
142.0118702
40
0.3850112
50
331.6586806
51
343.2877423
0
ARC
8
DEFAULT_255_1_388
10
8.4310896
20
142.0831806
40
0.6277712
50
343.1446576
51
351.0103568
0
ARC
8
DEFAULT_255_1_388
10
8.267822
20
142.1131873
40
0.7937327
50
350.71248
51
351.1626997
0
LINE
8
DEFAULT_255_1_388
10
9.3927758
20
142.0599177
11
9.3927758
21
142.071664
0
LINE
8
DEFAULT_255_1_388
10
10.2827868
20
142.0635319
11
10.2827868
21
142.0517856
0
ARC
8
DEFAULT_255_1_388
10
10.0212202
20
142.075304
40
0.628455
50
166.3005265
51
180.3318609
0
ARC
8
DEFAULT_255_1_388
10
9.9241552
20
142.0970267
40
0.52901
50
153.8608648
51
166.0965672
0
ARC
8
DEFAULT_255_1_388
10
9.8492718
20
142.1371652
40
0.4441126
50
135.1317053
51
154.2534962
0
ARC
8
DEFAULT_255_1_388
10
9.8179369
20
142.1648431
40
0.4023863
50
121.7042632
51
134.7771455
0
ARC
8
DEFAULT_255_1_388
10
9.8254801
20
142.1503469
40
0.4186852
50
93.4001111
51
121.5399523
0
ARC
8
DEFAULT_255_1_388
10
9.8361635
20
142.0573759
40
0.5121521
50
89.9706387
51
93.9763381
0
ARC
8
DEFAULT_255_1_388
10
9.8414619
20
142.1013563
40
0.4681988
50
71.3321659
51
90.6162917
0
ARC
8
DEFAULT_255_1_388
10
9.8597653
20
142.1691003
40
0.3981841
50
41.1813875
51
70.7072086
0
ARC
8
DEFAULT_255_1_388
10
9.8060369
20
142.120313
40
0.4707474
50
12.1971434
51
41.3446641
0
ARC
8
DEFAULT_255_1_388
10
9.5893633
20
142.0687328
40
0.6934429
50
359.5702713
51
12.5803533
0
ARC
8
DEFAULT_255_1_388
10
9.6425949
20
142.0482207
40
0.6402018
50
347.0196754
51
0.3190452
0
ARC
8
DEFAULT_255_1_388
10
9.7504002
20
142.0250189
40
0.5299421
50
334.350439
51
346.8460534
0
ARC
8
DEFAULT_255_1_388
10
9.8455249
20
141.9756244
40
0.4228234
50
310.4228125
51
334.8045131
0
ARC
8
DEFAULT_255_1_388
10
9.8547227
20
141.9684301
40
0.4113892
50
301.8488154
51
310.0972985
0
ARC
8
DEFAULT_255_1_388
10
9.8510967
20
141.9769573
40
0.4205483
50
274.3078723
51
301.6554173
0
ARC
8
DEFAULT_255_1_388
10
9.8386423
20
142.0756943
40
0.5199658
50
269.954904
51
274.859116
0
ARC
8
DEFAULT_255_1_388
10
9.8331247
20
142.0193239
40
0.4636233
50
250.8887647
51
270.6313164
0
ARC
8
DEFAULT_255_1_388
10
9.8162407
20
141.9564405
40
0.398705
50
221.1701369
51
250.2227012
0
ARC
8
DEFAULT_255_1_388
10
9.8707073
20
142.0060716
40
0.4723796
50
191.6263861
51
221.3526879
0
ARC
8
DEFAULT_255_1_388
10
10.0830918
20
142.0552203
40
0.6903321
50
179.6101251
51
192.0694841
0
ARC
8
DEFAULT_255_1_388
10
10.1307266
20
142.0481681
40
0.5698993
50
179.636304
51
190.6161344
0
ARC
8
DEFAULT_255_1_388
10
9.9459598
20
142.0121635
40
0.3816643
50
190.4136062
51
208.7168709
0
ARC
8
DEFAULT_255_1_388
10
9.8885632
20
141.9836905
40
0.3176572
50
209.187109
51
217.4221816
0
ARC
8
DEFAULT_255_1_388
10
9.8290102
20
141.9312729
40
0.2385702
50
216.1156863
51
265.2575395
0
ARC
8
DEFAULT_255_1_388
10
9.8379139
20
141.9957608
40
0.3035941
50
264.5891546
51
270.0602378
0
ARC
8
DEFAULT_255_1_388
10
9.8416335
20
141.9530539
40
0.2609091
50
269.2532353
51
291.8793864
0
ARC
8
DEFAULT_255_1_388
10
9.8449214
20
141.9330359
40
0.241148
50
292.9269367
51
323.1777736
0
ARC
8
DEFAULT_255_1_388
10
9.79785
20
141.9743762
40
0.3036446
50
322.25666
51
323.087958
0
ARC
8
DEFAULT_255_1_388
10
9.7675757
20
141.9926332
40
0.3388345
50
323.6941379
51
343.8493587
0
ARC
8
DEFAULT_255_1_388
10
9.5900193
20
142.0466698
40
0.5244204
50
343.5746655
51
355.008149
0
ARC
8
DEFAULT_255_1_388
10
9.3641885
20
142.0700797
40
0.7514406
50
354.728272
51
0.1208026
0
ARC
8
DEFAULT_255_1_388
10
9.5630911
20
142.0752947
40
0.5525482
50
359.6235211
51
11.2016685
0
ARC
8
DEFAULT_255_1_388
10
9.7356738
20
142.1108284
40
0.3763527
50
10.9991302
51
30.8317616
0
ARC
8
DEFAULT_255_1_388
10
9.7802042
20
142.1342988
40
0.3260975
50
31.3007463
51
37.395541
0
ARC
8
DEFAULT_255_1_388
10
9.8360761
20
142.1814773
40
0.253082
50
36.5918894
51
62.2439906
0
ARC
8
DEFAULT_255_1_388
10
9.8413052
20
142.1811378
40
0.2509927
50
63.3364883
51
89.7193846
0
ARC
8
DEFAULT_255_1_388
10
9.8364506
20
142.1163375
40
0.3158485
50
88.8962924
51
90.004475
0
ARC
8
DEFAULT_255_1_388
10
9.8328933
20
142.1816071
40
0.250604
50
89.1923115
51
114.7099029
0
ARC
8
DEFAULT_255_1_388
10
9.8361275
20
142.1858675
40
0.2481307
50
115.7996284
51
142.2901353
0
ARC
8
DEFAULT_255_1_388
10
9.8829546
20
142.1439752
40
0.310833
50
141.4607507
51
142.383894
0
ARC
8
DEFAULT_255_1_388
10
9.8977397
20
142.1371449
40
0.3267335
50
143.0176473
51
163.2340089
0
ARC
8
DEFAULT_255_1_388
10
10.0752686
20
142.0809553
40
0.5129308
50
162.9446504
51
174.3733893
0
ARC
8
DEFAULT_255_1_388
10
10.3166659
20
142.0538483
40
0.75583
50
174.1225809
51
180.1563667
0
LINE
8
DEFAULT_255_1_388
10
10.4915102
20
142.5514567
11
10.6496339
21
142.5514567
0
LINE
8
DEFAULT_255_1_388
10
10.6496339
20
142.5514567
11
10.6541518
21
142.443029
0
LINE
8
DEFAULT_255_1_388
10
11.8622174
20
142.2288842
11
11.8622174
21
141.5738
0
LINE
8
DEFAULT_255_1_388
10
11.8622174
20
141.5738
11
11.695058
21
141.5738
0
LINE
8
DEFAULT_255_1_388
10
11.695058
20
141.5738
11
11.695058
21
142.218945
0
LINE
8
DEFAULT_255_1_388
10
11.2604435
20
142.2225593
11
11.2604435
21
141.5738
0
LINE
8
DEFAULT_255_1_388
10
11.2604435
20
141.5738
11
11.0923805
21
141.5738
0
LINE
8
DEFAULT_255_1_388
10
11.0923805
20
141.5738
11
11.0923805
21
142.2144272
0
LINE
8
DEFAULT_255_1_388
10
10.6586696
20
142.2876159
11
10.6586696
21
141.5738
0
LINE
8
DEFAULT_255_1_388
10
10.6586696
20
141.5738
11
10.4915102
21
141.5738
0
LINE
8
DEFAULT_255_1_388
10
10.4915102
20
141.5738
11
10.4915102
21
142.5514567
0
ARC
8
DEFAULT_255_1_388
10
10.9237714
20
142.2160947
40
0.3524116
50
93.0261693
51
139.913241
0
ARC
8
DEFAULT_255_1_388
10
10.9437789
20
142.0762673
40
0.493261
50
89.9515559
51
94.4896559
0
ARC
8
DEFAULT_255_1_388
10
10.9485267
20
142.1565293
40
0.4130214
50
75.8912256
51
90.6007843
0
ARC
8
DEFAULT_255_1_388
10
10.9896563
20
142.3082686
40
0.2558497
50
23.9940553
51
76.5407673
0
ARC
8
DEFAULT_255_1_388
10
11.5274998
20
142.2009138
40
0.3703589
50
118.5760068
51
145.1952627
0
ARC
8
DEFAULT_255_1_388
10
11.5131051
20
142.2284672
40
0.3392772
50
99.1481537
51
118.6669021
0
ARC
8
DEFAULT_255_1_388
10
11.5333764
20
142.1152244
40
0.454307
50
89.7792127
51
99.4015557
0
ARC
8
DEFAULT_255_1_388
10
11.5420877
20
142.1338109
40
0.4357727
50
73.2646335
51
90.9152299
0
ARC
8
DEFAULT_255_1_388
10
11.5914954
20
142.3016955
40
0.2607739
50
10.756495
51
73.0388383
0
ARC
8
DEFAULT_255_1_388
10
11.3225521
20
142.2259448
40
0.5396733
50
0.3120729
51
13.3293082
0
ARC
8
DEFAULT_255_1_388
10
11.3288
20
142.2210363
40
0.366264
50
359.6728567
51
8.7129231
0
ARC
8
DEFAULT_255_1_388
10
11.4634914
20
142.2424524
40
0.2298841
50
8.5221448
51
22.6803231
0
ARC
8
DEFAULT_255_1_388
10
11.5318614
20
142.2708786
40
0.1558403
50
22.7298708
51
42.2763259
0
ARC
8
DEFAULT_255_1_388
10
11.5457315
20
142.2796235
40
0.1397242
50
43.4492352
51
69.272112
0
ARC
8
DEFAULT_255_1_388
10
11.5111545
20
142.1932568
40
0.2327451
50
68.836098
51
81.9786568
0
ARC
8
DEFAULT_255_1_388
10
11.4885981
20
142.0422247
40
0.385449
50
81.7913044
51
90.3003404
0
LINE
8
DEFAULT_255_1_388
10
11.4865777
20
142.4276683
11
11.4863346
21
142.4276684
0
ARC
8
DEFAULT_255_1_388
10
11.4840155
20
142.1716083
40
0.2560706
50
89.4810922
51
106.5055613
0
ARC
8
DEFAULT_255_1_388
10
11.4712064
20
142.2187872
40
0.2071998
50
106.8160071
51
132.2750747
0
ARC
8
DEFAULT_255_1_388
10
11.4760587
20
142.2136017
40
0.2143007
50
132.3023562
51
166.9931148
0
ARC
8
DEFAULT_255_1_388
10
11.5488825
20
142.1927518
40
0.2899752
50
166.2176327
51
174.0999541
0
ARC
8
DEFAULT_255_1_388
10
10.7773954
20
142.218709
40
0.3150142
50
359.2211859
51
14.4876062
0
ARC
8
DEFAULT_255_1_388
10
10.9252177
20
142.2612235
40
0.1613108
50
13.0021013
51
76.7082612
0
ARC
8
DEFAULT_255_1_388
10
10.8875377
20
142.1281286
40
0.299565
50
75.5470628
51
90.7422407
0
ARC
8
DEFAULT_255_1_388
10
10.8799003
20
142.1315964
40
0.2960958
50
89.2730201
51
106.8379289
0
ARC
8
DEFAULT_255_1_388
10
10.8576408
20
142.2123973
40
0.2123216
50
107.4046439
51
156.621812
0
ARC
8
DEFAULT_255_1_388
10
10.9341222
20
142.1685952
40
0.3000669
50
154.7390611
51
156.6312403
0
LINE
8
DEFAULT_255_1_388
10
12.9401698
20
142.0671462
11
12.9401698
21
142.0517856
0
LINE
8
DEFAULT_255_1_388
10
12.2814713
20
141.6686743
11
12.2814713
21
141.1979172
0
LINE
8
DEFAULT_255_1_388
10
12.2814713
20
141.1979172
11
12.1143119
21
141.1979172
0
LINE
8
DEFAULT_255_1_388
10
12.1143119
20
141.1979172
11
12.1143119
21
142.5514567
0
LINE
8
DEFAULT_255_1_388
10
12.1143119
20
142.5514567
11
12.2670143
21
142.5514567
0
LINE
8
DEFAULT_255_1_388
10
12.2670143
20
142.5514567
11
12.2751464
21
142.443029
0
LINE
8
DEFAULT_255_1_388
10
12.2814713
20
142.2930373
11
12.2814713
21
141.8258945
0
ARC
8
DEFAULT_255_1_388
10
12.1448935
20
142.0468831
40
0.7952914
50
349.5457689
51
0.3531959
0
ARC
8
DEFAULT_255_1_388
10
12.4007713
20
141.9977711
40
0.5347531
50
331.7801944
51
349.7458841
0
ARC
8
DEFAULT_255_1_388
10
12.4824032
20
141.9580052
40
0.4440347
50
323.2239993
51
331.320727
0
ARC
8
DEFAULT_255_1_388
10
12.5750519
20
141.8794189
40
0.3228626
50
275.1519108
51
324.5512858
0
ARC
8
DEFAULT_255_1_388
10
12.5620891
20
141.9695763
40
0.4138479
50
269.929002
51
275.8184771
0
ARC
8
DEFAULT_255_1_388
10
12.5574254
20
142.0071586
40
0.451449
50
255.0666642
51
270.5268285
0
ARC
8
DEFAULT_255_1_388
10
12.5256746
20
141.8883476
40
0.3284686
50
221.9730059
51
255.0773797
0
ARC
8
DEFAULT_255_1_388
10
12.5350905
20
142.2352287
40
0.3327941
50
94.4346057
51
141.3610235
0
ARC
8
DEFAULT_255_1_388
10
12.5581435
20
142.0926867
40
0.4768419
50
89.913234
51
95.8721355
0
ARC
8
DEFAULT_255_1_388
10
12.5632973
20
142.1935946
40
0.3759596
50
70.3260364
51
90.6753935
0
ARC
8
DEFAULT_255_1_388
10
12.5746416
20
142.2402349
40
0.328261
50
36.7636238
51
69.44976
0
ARC
8
DEFAULT_255_1_388
10
12.4785025
20
142.1652455
40
0.4501685
50
16.0027939
51
37.086172
0
ARC
8
DEFAULT_255_1_388
10
12.2490792
20
142.0960013
40
0.6897988
50
4.5018317
51
16.2779312
0
ARC
8
DEFAULT_255_1_388
10
11.9708939
20
142.068776
40
0.9692771
50
359.9036593
51
4.8154966
0
ARC
8
DEFAULT_255_1_388
10
12.144423
20
142.0742646
40
0.6285971
50
359.6805954
51
9.1297647
0
ARC
8
DEFAULT_255_1_388
10
12.3591326
20
142.1100143
40
0.4109369
50
8.9584658
51
23.6939885
0
ARC
8
DEFAULT_255_1_388
10
12.4531084
20
142.1493721
40
0.3090717
50
24.0136272
51
36.1951724
0
ARC
8
DEFAULT_255_1_388
10
12.519668
20
142.2036253
40
0.2233637
50
35.0467028
51
84.5489768
0
ARC
8
DEFAULT_255_1_388
10
12.5095874
20
142.1369397
40
0.2907289
50
83.8197232
51
90.0823413
0
ARC
8
DEFAULT_255_1_388
10
12.5052005
20
142.1591874
40
0.2685104
50
89.1530367
51
112.3459134
0
ARC
8
DEFAULT_255_1_388
10
12.5001093
20
142.1850252
40
0.2427311
50
113.5532703
51
146.2373945
0
ARC
8
DEFAULT_255_1_388
10
12.572372
20
142.1295111
40
0.3337124
50
145.2086902
51
150.6580233
0
ARC
8
DEFAULT_255_1_388
10
12.5221197
20
141.9563753
40
0.273746
50
208.46678
51
230.7447697
0
ARC
8
DEFAULT_255_1_388
10
12.4981737
20
141.9348351
40
0.2419641
50
231.9080157
51
266.0622442
0
ARC
8
DEFAULT_255_1_388
10
12.5106249
20
142.0240434
40
0.3318765
50
264.9752933
51
270.060741
0
ARC
8
DEFAULT_255_1_388
10
12.5141849
20
141.9355683
40
0.2434225
50
269.2448363
51
292.3382162
0
ARC
8
DEFAULT_255_1_388
10
12.5161163
20
141.9197065
40
0.2280566
50
293.4040635
51
323.0231773
0
ARC
8
DEFAULT_255_1_388
10
12.4703412
20
141.9599037
40
0.2888399
50
322.1147526
51
323.3512864
0
ARC
8
DEFAULT_255_1_388
10
12.4522824
20
141.9687269
40
0.3086176
50
324.0383098
51
342.5340044
0
ARC
8
DEFAULT_255_1_388
10
12.265082
20
142.0300984
40
0.5056129
50
342.2670619
51
353.2817647
0
ARC
8
DEFAULT_255_1_388
10
11.9691477
20
142.067297
40
0.8038702
50
353.1162085
51
0.2468587
0
LINE
8
DEFAULT_255_1_388
10
13.93138
20
141.5738
11
13.7560885
21
141.5738
0
LINE
8
DEFAULT_255_1_388
10
13.5672436
20
142.1665383
11
13.7298852
21
142.1665383
0
LINE
8
DEFAULT_255_1_388
10
13.7298852
20
142.1665383
11
13.7298852
21
142.2433413
0
LINE
8
DEFAULT_255_1_388
10
13.3124384
20
142.2803874
11
13.1443754
21
142.2803874
0
LINE
8
DEFAULT_255_1_388
10
13.8970446
20
142.2523769
11
13.8970446
21
141.8024018
0
LINE
8
DEFAULT_255_1_388
10
13.93138
20
141.588257
11
13.93138
21
141.5738
0
LINE
8
DEFAULT_255_1_388
10
13.7298852
20
141.84758
11
13.7298852
21
142.0481713
0
LINE
8
DEFAULT_255_1_388
10
13.7298852
20
142.0481713
11
13.5988683
21
142.0481713
0
ARC
8
DEFAULT_255_1_388
10
13.8730035
20
141.63051
40
0.1299428
50
197.0784902
51
205.8758668
0
ARC
8
DEFAULT_255_1_388
10
14.0124621
20
141.6746959
40
0.2762313
50
192.2927663
51
197.3441989
0
ARC
8
DEFAULT_255_1_388
10
14.2320126
20
141.723476
40
0.5011345
50
189.1573793
51
192.3977084
0
ARC
8
DEFAULT_255_1_388
10
14.5484973
20
141.7750878
40
0.8217995
50
186.8686098
51
189.1982636
0
ARC
8
DEFAULT_255_1_388
10
13.4430064
20
141.949126
40
0.3975173
50
294.0079259
51
316.7603918
0
ARC
8
DEFAULT_255_1_388
10
13.4575246
20
141.9286902
40
0.3729755
50
269.5043226
51
293.2478373
0
ARC
8
DEFAULT_255_1_388
10
13.4508298
20
141.9737915
40
0.4180772
50
255.4034155
51
270.4753052
0
ARC
8
DEFAULT_255_1_388
10
13.4249512
20
141.8733652
40
0.3143705
50
228.6141063
51
255.3550831
0
ARC
8
DEFAULT_255_1_388
10
13.3875493
20
141.837554
40
0.2628114
50
181.8954381
51
229.5703134
0
ARC
8
DEFAULT_255_1_388
10
13.4540429
20
141.8447824
40
0.329546
50
179.9848815
51
182.7691528
0
ARC
8
DEFAULT_255_1_388
10
13.4447496
20
141.8486827
40
0.3202753
50
161.0342928
51
180.6822077
0
ARC
8
DEFAULT_255_1_388
10
13.3953111
20
141.8615422
40
0.2693695
50
125.0525065
51
160.2034058
0
ARC
8
DEFAULT_255_1_388
10
13.4697832
20
141.7599275
40
0.3953338
50
106.2670809
51
125.4300189
0
ARC
8
DEFAULT_255_1_388
10
13.5341874
20
141.5494795
40
0.6154041
50
95.4857579
51
106.5348562
0
ARC
8
DEFAULT_255_1_388
10
13.5649161
20
141.2682993
40
0.8982419
50
89.8515405
51
95.7222579
0
ARC
8
DEFAULT_255_1_388
10
13.4929742
20
142.2453925
40
0.2369198
50
359.5039339
51
14.3181205
0
ARC
8
DEFAULT_255_1_388
10
13.5575747
20
142.2621862
40
0.170173
50
14.2184556
51
45.2028524
0
ARC
8
DEFAULT_255_1_388
10
13.5616443
20
142.2637862
40
0.1661795
50
45.8098216
51
73.0032926
0
ARC
8
DEFAULT_255_1_388
10
13.5336269
20
142.178126
40
0.2562942
50
72.6112517
51
85.7231489
0
ARC
8
DEFAULT_255_1_388
10
13.5235054
20
142.0754339
40
0.3594635
50
85.335019
51
90.0855069
0
ARC
8
DEFAULT_255_1_388
10
13.5208487
20
142.1418472
40
0.2930574
50
89.5854741
51
103.459124
0
ARC
8
DEFAULT_255_1_388
10
13.5037026
20
142.2133134
40
0.2195632
50
103.448332
51
126.5403399
0
ARC
8
DEFAULT_255_1_388
10
13.4768002
20
142.2477224
40
0.1759039
50
126.1730306
51
141.5008224
0
ARC
8
DEFAULT_255_1_388
10
13.4342317
20
142.2811266
40
0.1217955
50
141.3332087
51
180.3477313
0
ARC
8
DEFAULT_255_1_388
10
13.3583741
20
142.2791904
40
0.214002
50
151.6373605
51
179.6795088
0
ARC
8
DEFAULT_255_1_388
10
13.4260976
20
142.2454768
40
0.2896224
50
142.4981529
51
152.1330509
0
ARC
8
DEFAULT_255_1_388
10
13.4618981
20
142.2173781
40
0.3351307
50
120.8284906
51
142.4132156
0
ARC
8
DEFAULT_255_1_388
10
13.5086956
20
142.1441185
40
0.4220297
50
113.9634885
51
121.1871733
0
ARC
8
DEFAULT_255_1_388
10
13.5240265
20
142.1067705
40
0.4623867
50
93.3784336
51
113.8197902
0
ARC
8
DEFAULT_255_1_388
10
13.5326648
20
142.0206549
40
0.5488732
50
89.9745993
51
93.7488475
0
ARC
8
DEFAULT_255_1_388
10
13.5365894
20
142.0247587
40
0.5447818
50
79.1327128
51
90.3871707
0
ARC
8
DEFAULT_255_1_388
10
13.5731658
20
142.2075597
40
0.3583662
50
60.1434453
51
79.365517
0
ARC
8
DEFAULT_255_1_388
10
13.6020424
20
142.2630195
40
0.2959028
50
48.6191018
51
59.6466565
0
ARC
8
DEFAULT_255_1_388
10
13.6074136
20
142.2701356
40
0.2870136
50
9.0349502
51
48.4845487
0
ARC
8
DEFAULT_255_1_388
10
13.4863434
20
142.2437084
40
0.4107927
50
1.2091359
51
10.0234369
0
ARC
8
DEFAULT_255_1_388
10
14.7560882
20
141.7996422
40
0.8590481
50
179.8159449
51
185.3205667
0
ARC
8
DEFAULT_255_1_388
10
14.4528728
20
141.7706945
40
0.5544553
50
185.2475628
51
192.7952551
0
ARC
8
DEFAULT_255_1_388
10
14.2546552
20
141.7252024
40
0.3510853
50
192.7195981
51
202.9584216
0
ARC
8
DEFAULT_255_1_388
10
13.4786588
20
141.9949895
40
0.2937869
50
270.006916
51
300.503478
0
ARC
8
DEFAULT_255_1_388
10
13.4924523
20
141.9805888
40
0.2744162
50
299.5482616
51
315.609538
0
ARC
8
DEFAULT_255_1_388
10
13.5250819
20
141.9472072
40
0.2277499
50
315.8682065
51
334.0592465
0
ARC
8
DEFAULT_255_1_388
10
13.5939792
20
141.26359
40
0.7845965
50
89.64297
51
97.2867877
0
ARC
8
DEFAULT_255_1_388
10
13.544339
20
141.6352936
40
0.4096042
50
96.9938706
51
109.7783917
0
ARC
8
DEFAULT_255_1_388
10
13.4694852
20
141.8356851
40
0.1957225
50
109.0087985
51
135.3265591
0
ARC
8
DEFAULT_255_1_388
10
13.4387272
20
141.8737764
40
0.1471704
50
137.4537784
51
182.1083946
0
ARC
8
DEFAULT_255_1_388
10
13.4807971
20
141.8665101
40
0.1891498
50
179.4390335
51
195.7201623
0
ARC
8
DEFAULT_255_1_388
10
13.4345006
20
141.8538585
40
0.1411576
50
195.8683556
51
230.157074
0
ARC
8
DEFAULT_255_1_388
10
13.4617729
20
141.8865228
40
0.1837102
50
230.1532486
51
259.7486257
0
ARC
8
DEFAULT_255_1_388
10
13.4773772
20
141.9600472
40
0.258848
50
259.2461118
51
270.2915316
0
LINE
8
DEFAULT_255_1_388
10
14.7816342
20
141.8819155
11
14.939758
21
141.8819155
0
LINE
8
DEFAULT_255_1_388
10
14.1157072
20
142.0535927
11
14.1157072
21
142.0816032
0
LINE
8
DEFAULT_255_1_388
10
14.939758
20
142.2153308
11
14.7816342
21
142.2153308
0
LINE
8
DEFAULT_255_1_388
10
14.2828666
20
142.0752783
11
14.2828666
21
142.0436535
0
ARC
8
DEFAULT_255_1_388
10
14.5552899
20
141.9329109
40
0.2407783
50
269.0327343
51
309.2224588
0
ARC
8
DEFAULT_255_1_388
10
14.5788902
20
141.908719
40
0.207135
50
308.3965377
51
329.6987678
0
ARC
8
DEFAULT_255_1_388
10
14.5943961
20
141.8969899
40
0.1878439
50
330.4013397
51
355.3970937
0
ARC
8
DEFAULT_255_1_388
10
14.6457945
20
141.8989312
40
0.2944555
50
329.2357424
51
356.6872018
0
ARC
8
DEFAULT_255_1_388
10
14.583984
20
141.9316153
40
0.3643032
50
324.8702872
51
329.7911998
0
ARC
8
DEFAULT_255_1_388
10
14.5751122
20
141.9392113
40
0.3759315
50
298.8769973
51
324.7015261
0
ARC
8
DEFAULT_255_1_388
10
14.5377666
20
141.998729
40
0.4461015
50
296.902888
51
299.3854973
0
ARC
8
DEFAULT_255_1_388
10
14.5523663
20
141.9663595
40
0.4106323
50
269.8407861
51
297.1298875
0
ARC
8
DEFAULT_255_1_388
10
14.5463659
20
142.0381354
40
0.4824312
50
253.3156606
51
270.5771301
0
ARC
8
DEFAULT_255_1_388
10
14.5185837
20
141.9375943
40
0.3781531
50
221.1002518
51
252.9743523
0
ARC
8
DEFAULT_255_1_388
10
14.5703307
20
141.9820131
40
0.4463481
50
194.5394284
51
221.0302764
0
ARC
8
DEFAULT_255_1_388
10
14.7783128
20
142.0399897
40
0.6622359
50
182.0498004
51
194.8774376
0
ARC
8
DEFAULT_255_1_388
10
14.9776218
20
142.0532778
40
0.8619146
50
179.9790673
51
182.4586753
0
ARC
8
DEFAULT_255_1_388
10
14.7819531
20
142.0849412
40
0.6662543
50
168.615001
51
180.2870547
0
ARC
8
DEFAULT_255_1_388
10
14.646744
20
142.1114636
40
0.5284705
50
154.9162417
51
168.5402053
0
ARC
8
DEFAULT_255_1_388
10
14.5430716
20
142.1626942
40
0.4128641
50
133.5745308
51
155.2559538
0
ARC
8
DEFAULT_255_1_388
10
14.5247559
20
142.1783116
40
0.3889328
50
122.0165845
51
133.2056002
0
ARC
8
DEFAULT_255_1_388
10
14.5287883
20
142.1683977
40
0.3994808
50
97.8732516
51
121.753124
0
ARC
8
DEFAULT_255_1_388
10
14.5489341
20
142.049459
40
0.5200708
50
89.8471322
51
98.2768545
0
ARC
8
DEFAULT_255_1_388
10
14.5544189
20
142.1180809
40
0.4514657
50
73.3760755
51
90.5199878
0
ARC
8
DEFAULT_255_1_388
10
14.5765105
20
142.199355
40
0.3672743
50
47.7085939
51
73.0510707
0
ARC
8
DEFAULT_255_1_388
10
14.5911208
20
142.2120231
40
0.3480795
50
3.7442743
51
48.0844373
0
ARC
8
DEFAULT_255_1_388
10
14.4799202
20
142.1942946
40
0.4603187
50
2.6192831
51
5.0424684
0
ARC
8
DEFAULT_255_1_388
10
14.5314673
20
142.1987986
40
0.2507126
50
3.78087
51
23.9354314
0
ARC
8
DEFAULT_255_1_388
10
14.5571932
20
142.2078644
40
0.2235311
50
24.4867863
51
46.9439952
0
ARC
8
DEFAULT_255_1_388
10
14.5572878
20
142.2104874
40
0.2215567
50
46.4987715
51
89.3298168
0
ARC
8
DEFAULT_255_1_388
10
14.5503537
20
142.1438742
40
0.2883121
50
88.1066411
51
90.0063536
0
ARC
8
DEFAULT_255_1_388
10
14.5472512
20
142.1496548
40
0.2825481
50
89.3773571
51
107.2070287
0
ARC
8
DEFAULT_255_1_388
10
14.5311781
20
142.2078667
40
0.2221946
50
107.688418
51
143.3582986
0
ARC
8
DEFAULT_255_1_388
10
14.5950075
20
142.1599064
40
0.3020337
50
143.2845866
51
162.9352432
0
ARC
8
DEFAULT_255_1_388
10
14.7644091
20
142.1055401
40
0.4799362
50
162.6652705
51
174.0802646
0
ARC
8
DEFAULT_255_1_388
10
15.0054572
20
142.0775287
40
0.7225942
50
173.8422673
51
180.1784414
0
ARC
8
DEFAULT_255_1_388
10
14.9438242
20
142.0402276
40
0.6609665
50
179.7030218
51
188.2277356
0
ARC
8
DEFAULT_255_1_388
10
14.707385
20
142.0048143
40
0.4218948
50
188.0630838
51
201.115837
0
ARC
8
DEFAULT_255_1_388
10
14.5838735
20
141.957673
40
0.2896941
50
201.2186162
51
216.9761863
0
ARC
8
DEFAULT_255_1_388
10
14.5330892
20
141.9196225
40
0.2262366
50
217.0136373
51
265.2055518
0
ARC
8
DEFAULT_255_1_388
10
14.5506229
20
142.0233503
40
0.3311837
50
263.6824874
51
270.1042034
0
LINE
8
DEFAULT_255_1_388
10
15.1873346
20
142.7881906
11
15.354494
21
142.7881906
0
LINE
8
DEFAULT_255_1_388
10
15.354494
20
142.7881906
11
15.354494
21
142.5514567
0
LINE
8
DEFAULT_255_1_388
10
15.354494
20
142.5514567
11
15.5370141
21
142.5514567
0
LINE
8
DEFAULT_255_1_388
10
15.5370141
20
142.5514567
11
15.5370141
21
142.422247
0
LINE
8
DEFAULT_255_1_388
10
15.5370141
20
142.422247
11
15.354494
21
142.422247
0
LINE
8
DEFAULT_255_1_388
10
15.354494
20
142.422247
11
15.354494
21
141.8159553
0
LINE
8
DEFAULT_255_1_388
10
15.5415319
20
141.7093347
11
15.5415319
21
141.5738
0
LINE
8
DEFAULT_255_1_388
10
15.1873346
20
141.8159553
11
15.1873346
21
142.422247
0
LINE
8
DEFAULT_255_1_388
10
15.1873346
20
142.422247
11
15.0093324
21
142.422247
0
LINE
8
DEFAULT_255_1_388
10
15.0093324
20
142.422247
11
15.0093324
21
142.5514567
0
LINE
8
DEFAULT_255_1_388
10
15.0093324
20
142.5514567
11
15.1873346
21
142.5514567
0
LINE
8
DEFAULT_255_1_388
10
15.1873346
20
142.5514567
11
15.1873346
21
142.7881906
0
ARC
8
DEFAULT_255_1_388
10
15.5803448
20
141.8147842
40
0.2258538
50
179.7029045
51
187.9180047
0
ARC
8
DEFAULT_255_1_388
10
15.4964022
20
141.8027019
40
0.1410477
50
187.7540838
51
200.2454047
0
ARC
8
DEFAULT_255_1_388
10
15.4490928
20
141.7850591
40
0.0905561
50
200.1304287
51
219.1733455
0
ARC
8
DEFAULT_255_1_388
10
15.4338094
20
141.7746695
40
0.0721626
50
220.4434631
51
249.6169985
0
ARC
8
DEFAULT_255_1_388
10
15.4512321
20
141.8184919
40
0.1193141
50
249.1038184
51
262.7745376
0
ARC
8
DEFAULT_255_1_388
10
15.4611502
20
141.8892481
40
0.1907583
50
262.4921618
51
270.2607019
0
ARC
8
DEFAULT_255_1_388
10
15.4608584
20
141.9134817
40
0.2149929
50
270.309081
51
275.6615459
0
ARC
8
DEFAULT_255_1_388
10
15.4447992
20
142.0823342
40
0.3846066
50
275.5607354
51
279.087751
0
ARC
8
DEFAULT_255_1_388
10
15.4075924
20
142.3184428
40
0.6236283
50
279.0369545
51
281.5000133
0
ARC
8
DEFAULT_255_1_388
10
15.3685192
20
142.5161499
40
0.825157
50
281.4217093
51
282.1031556
0
ARC
8
DEFAULT_255_1_388
10
15.4061167
20
142.0618229
40
0.5064619
50
275.2597791
51
285.5081125
0
ARC
8
DEFAULT_255_1_388
10
15.4130181
20
141.9992452
40
0.4435166
50
270.0268175
51
275.1130565
0
ARC
8
DEFAULT_255_1_388
10
15.4107633
20
141.8499367
40
0.2942182
50
257.3572424
51
270.4795428
0
ARC
8
DEFAULT_255_1_388
10
15.3867903
20
141.7488952
40
0.1903838
50
230.8036715
51
257.7414447
0
ARC
8
DEFAULT_255_1_388
10
15.3791399
20
141.7365723
40
0.1760087
50
219.9745381
51
230.1985446
0
ARC
8
DEFAULT_255_1_388
10
15.4164687
20
141.7651116
40
0.2229598
50
196.5081334
51
219.4319996
0
ARC
8
DEFAULT_255_1_388
10
15.5307298
20
141.8009617
40
0.3427033
50
184.6408645
51
196.8266009
0
ARC
8
DEFAULT_255_1_388
10
15.6708203
20
141.815101
40
0.4834863
50
179.8987586
51
184.9677262
0
LINE
8
DEFAULT_255_1_388
10
16.383654
20
142.1990666
11
16.2499264
21
142.2334021
0
LINE
8
DEFAULT_255_1_388
10
16.2499264
20
142.2334021
11
16.3167902
21
142.8893898
0
LINE
8
DEFAULT_255_1_388
10
16.3167902
20
142.8893898
11
16.9908493
21
142.8893898
0
LINE
8
DEFAULT_255_1_388
10
16.9908493
20
142.8893898
11
16.9908493
21
142.7348803
0
LINE
8
DEFAULT_255_1_388
10
16.9908493
20
142.7348803
11
16.4586498
21
142.7348803
0
LINE
8
DEFAULT_255_1_388
10
16.4586498
20
142.7348803
11
16.418893
21
142.3761652
0
LINE
8
DEFAULT_255_1_388
10
16.2029411
20
141.9198652
11
16.3610648
21
141.9198652
0
LINE
8
DEFAULT_255_1_388
10
16.4279286
20
142.2352092
11
16.383654
21
142.1990666
0
ARC
8
DEFAULT_255_1_388
10
16.6275543
20
142.0184241
40
0.4141476
50
93.7181681
51
120.253934
0
ARC
8
DEFAULT_255_1_388
10
16.6381595
20
141.9275284
40
0.5055616
50
89.9660471
51
94.2495185
0
ARC
8
DEFAULT_255_1_388
10
16.6427417
20
141.9938154
40
0.4392953
50
73.8045384
51
90.5585736
0
ARC
8
DEFAULT_255_1_388
10
16.6691675
20
142.090352
40
0.3392225
50
41.3071072
51
73.543002
0
ARC
8
DEFAULT_255_1_388
10
16.6223495
20
142.0500461
40
0.4009977
50
13.5075837
51
41.2174839
0
ARC
8
DEFAULT_255_1_388
10
16.4376592
20
142.0016907
40
0.5918864
50
1.1330171
51
13.8830737
0
ARC
8
DEFAULT_255_1_388
10
16.2780238
20
141.9931522
40
0.7516787
50
359.9925091
51
1.5431298
0
ARC
8
DEFAULT_255_1_388
10
16.4224853
20
141.9885027
40
0.6072343
50
347.8572712
51
0.4294349
0
ARC
8
DEFAULT_255_1_388
10
16.6193988
20
141.9438898
40
0.4053482
50
323.6727442
51
348.1674594
0
ARC
8
DEFAULT_255_1_388
10
16.6524952
20
141.9237175
40
0.3667495
50
316.8171818
51
323.1486802
0
ARC
8
DEFAULT_255_1_388
10
16.6594076
20
141.9195612
40
0.358869
50
281.839603
51
316.5458142
0
ARC
8
DEFAULT_255_1_388
10
16.6171364
20
142.0945363
40
0.5388223
50
269.5770964
51
282.4214641
0
ARC
8
DEFAULT_255_1_388
10
16.6091284
20
142.070493
40
0.5147801
50
256.2425863
51
270.4486481
0
ARC
8
DEFAULT_255_1_388
10
16.5754812
20
141.9355124
40
0.3756708
50
228.9024379
51
256.33135
0
ARC
8
DEFAULT_255_1_388
10
16.5671792
20
141.9224054
40
0.360344
50
193.7536029
51
228.5272638
0
ARC
8
DEFAULT_255_1_388
10
16.7064357
20
141.9632463
40
0.5053599
50
184.9244437
51
194.4976052
0
ARC
8
DEFAULT_255_1_388
10
16.7280999
20
141.9672722
40
0.3700839
50
187.3596909
51
198.6733728
0
ARC
8
DEFAULT_255_1_388
10
16.6100242
20
141.9263373
40
0.2451195
50
198.4453795
51
217.7945479
0
ARC
8
DEFAULT_255_1_388
10
16.5767415
20
141.9027563
40
0.2043754
50
218.2887146
51
228.5613203
0
ARC
8
DEFAULT_255_1_388
10
16.5877421
20
141.9175902
40
0.2227819
50
228.9652423
51
258.1237049
0
ARC
8
DEFAULT_255_1_388
10
16.6108859
20
142.0166964
40
0.3245374
50
257.7260585
51
270.4013717
0
ARC
8
DEFAULT_255_1_388
10
16.6159357
20
141.9666255
40
0.2744726
50
269.4204315
51
286.420998
0
ARC
8
DEFAULT_255_1_388
10
16.6326413
20
141.9059705
40
0.2115721
50
286.7250065
51
320.6004665
0
ARC
8
DEFAULT_255_1_388
10
16.5895328
20
141.9409527
40
0.2670878
50
320.6712228
51
344.5440474
0
ARC
8
DEFAULT_255_1_388
10
16.4594042
20
141.9791394
40
0.4026927
50
344.241448
51
356.735803
0
ARC
8
DEFAULT_255_1_388
10
16.3190349
20
141.9907656
40
0.5435085
50
356.3547471
51
0.0507222
0
ARC
8
DEFAULT_255_1_388
10
16.4692614
20
141.9942812
40
0.3932934
50
359.5579289
51
12.9534322
0
ARC
8
DEFAULT_255_1_388
10
16.5879454
20
142.0230586
40
0.2711827
50
12.6489751
51
41.608121
0
ARC
8
DEFAULT_255_1_388
10
16.6138614
20
142.0450946
40
0.2371737
50
41.7851122
51
85.9892156
0
ARC
8
DEFAULT_255_1_388
10
16.5999924
20
141.9535738
40
0.3295244
50
84.6965848
51
90.0672125
0
ARC
8
DEFAULT_255_1_388
10
16.5973492
20
141.8784118
40
0.4046926
50
89.6804991
51
99.161352
0
ARC
8
DEFAULT_255_1_388
10
16.5742501
20
142.0164848
40
0.2647044
50
98.9836248
51
113.8905702
0
ARC
8
DEFAULT_255_1_388
10
16.5484176
20
142.0774118
40
0.1985386
50
114.195234
51
127.3641866
0
LINE
8
DEFAULT_255_1_388
10
18.0371769
20
142.351769
11
18.0371769
21
142.1349135
0
LINE
8
DEFAULT_255_1_388
10
17.2068012
20
142.1123244
11
17.2068012
21
142.3355048
0
LINE
8
DEFAULT_255_1_388
10
17.8700175
20
142.0897353
11
17.8700175
21
142.3635153
0
LINE
8
DEFAULT_255_1_388
10
17.3739606
20
142.3761652
11
17.3739606
21
142.1087102
0
ARC
8
DEFAULT_255_1_388
10
16.6594103
20
142.1294118
40
1.3777776
50
353.8440855
51
0.2287917
0
ARC
8
DEFAULT_255_1_388
10
17.181312
20
142.0711414
40
0.852639
50
344.4934746
51
353.9763743
0
ARC
8
DEFAULT_255_1_388
10
17.5179928
20
141.9754191
40
0.5026273
50
329.2803599
51
344.7473406
0
ARC
8
DEFAULT_255_1_388
10
17.6295423
20
141.9142038
40
0.3754848
50
324.9361395
51
328.6153007
0
ARC
8
DEFAULT_255_1_388
10
17.6721073
20
141.8844586
40
0.3235566
50
280.5801797
51
324.9173226
0
ARC
8
DEFAULT_255_1_388
10
17.6269702
20
142.0724236
40
0.5167077
50
269.5979457
51
281.6732777
0
ARC
8
DEFAULT_255_1_388
10
17.6188605
20
142.0589113
40
0.5032026
50
256.6228565
51
270.5105488
0
ARC
8
DEFAULT_255_1_388
10
17.5736348
20
141.8847345
40
0.3233092
50
215.8618351
51
257.2787793
0
ARC
8
DEFAULT_255_1_388
10
17.6885055
20
141.9618106
40
0.4615831
50
197.9695203
51
215.2622745
0
ARC
8
DEFAULT_255_1_388
10
17.9680731
20
142.0561641
40
0.7566307
50
187.8816486
51
198.2346584
0
ARC
8
DEFAULT_255_1_388
10
18.4133969
20
142.1204453
40
1.2065653
50
180.8977266
51
188.0054894
0
ARC
8
DEFAULT_255_1_388
10
18.7184183
20
142.13194
40
1.5117443
50
180.7434591
51
181.152202
0
ARC
8
DEFAULT_255_1_388
10
18.5509179
20
142.3409371
40
1.3441277
50
173.7674302
51
180.2315596
0
ARC
8
DEFAULT_255_1_388
10
18.0427047
20
142.3983779
40
0.8326847
50
164.3058537
51
173.9000553
0
ARC
8
DEFAULT_255_1_388
10
17.7151047
20
142.4927652
40
0.4917711
50
148.7922028
51
164.5682288
0
ARC
8
DEFAULT_255_1_388
10
17.6081785
20
142.5524457
40
0.3694204
50
144.5883979
51
148.1161588
0
ARC
8
DEFAULT_255_1_388
10
17.569453
20
142.5794667
40
0.322202
50
101.6440149
51
144.5142619
0
ARC
8
DEFAULT_255_1_388
10
17.6172722
20
142.3894337
40
0.5180451
50
89.528284
51
102.5820197
0
ARC
8
DEFAULT_255_1_388
10
17.6261714
20
142.3850376
40
0.5224441
50
77.0437914
51
90.508231
0
ARC
8
DEFAULT_255_1_388
10
17.6713968
20
142.5698272
40
0.3322297
50
48.2777708
51
77.4996087
0
ARC
8
DEFAULT_255_1_388
10
17.6795708
20
142.5843557
40
0.315966
50
36.3141586
51
47.6307332
0
ARC
8
DEFAULT_255_1_388
10
17.581843
20
142.5185159
40
0.4337313
50
18.2931065
51
35.6770203
0
ARC
8
DEFAULT_255_1_388
10
17.2957271
20
142.4203107
40
0.7362203
50
8.0246996
51
18.5605636
0
ARC
8
DEFAULT_255_1_388
10
16.8273626
20
142.3511432
40
1.2096583
50
1.127539
51
8.1718423
0
ARC
8
DEFAULT_255_1_388
10
16.462476
20
142.3368374
40
1.5747719
50
0.5432713
51
1.38669
0
ARC
8
DEFAULT_255_1_388
10
16.6682139
20
142.3675163
40
1.2018103
50
359.8092569
51
4.9408001
0
ARC
8
DEFAULT_255_1_388
10
17.141872
20
142.40979
40
0.7262727
50
4.8364937
51
12.2906017
0
ARC
8
DEFAULT_255_1_388
10
17.4518185
20
142.4788485
40
0.4087324
50
12.0806994
51
23.8171225
0
ARC
8
DEFAULT_255_1_388
10
17.5838581
20
142.5347508
40
0.2653719
50
24.2874621
51
31.3934353
0
ARC
8
DEFAULT_255_1_388
10
17.6429017
20
142.5733822
40
0.1948607
50
30.7407708
51
82.4658033
0
ARC
8
DEFAULT_255_1_388
10
17.6226677
20
142.4740017
40
0.2961198
50
81.1057101
51
90.2187368
0
ARC
8
DEFAULT_255_1_388
10
17.6186489
20
142.5030421
40
0.2670929
50
89.380395
51
105.6763916
0
ARC
8
DEFAULT_255_1_388
10
17.5980211
20
142.578032
40
0.1893189
50
105.7980655
51
149.7387869
0
ARC
8
DEFAULT_255_1_388
10
17.7177351
20
142.5060719
40
0.3289892
50
149.4208441
51
163.628295
0
ARC
8
DEFAULT_255_1_388
10
17.9529581
20
142.4343345
40
0.5749004
50
163.3764549
51
172.141138
0
ARC
8
DEFAULT_255_1_388
10
18.3242302
20
142.3811582
40
0.9499585
50
172.0258462
51
178.0705453
0
ARC
8
DEFAULT_255_1_388
10
18.6663855
20
142.3649682
40
1.2924734
50
177.8639301
51
179.5036263
0
ARC
8
DEFAULT_255_1_388
10
18.5444874
20
142.1046151
40
1.170534
50
179.7995545
51
185.246089
0
ARC
8
DEFAULT_255_1_388
10
18.0896467
20
142.0615404
40
0.7136613
50
185.1411911
51
193.0082205
0
ARC
8
DEFAULT_255_1_388
10
17.7922728
20
141.9912441
40
0.4080987
50
192.7897338
51
205.2507384
0
ARC
8
DEFAULT_255_1_388
10
17.6744938
20
141.9386538
40
0.2791522
50
205.8001921
51
211.2545876
0
ARC
8
DEFAULT_255_1_388
10
17.6156477
20
141.8992132
40
0.2084074
50
210.3789935
51
238.4007996
0
ARC
8
DEFAULT_255_1_388
10
17.6134563
20
141.9044786
40
0.2117943
50
239.6521916
51
265.9793852
0
ARC
8
DEFAULT_255_1_388
10
17.6230412
20
141.9801358
40
0.2879689
50
265.1324455
51
270.0603288
0
ARC
8
DEFAULT_255_1_388
10
17.6262789
20
141.9436418
40
0.2514919
50
269.3314378
51
287.2180039
0
ARC
8
DEFAULT_255_1_388
10
17.6417871
20
141.8870291
40
0.1928357
50
287.7957942
51
329.0808983
0
ARC
8
DEFAULT_255_1_388
10
17.5340628
20
141.9542651
40
0.319808
50
328.6635261
51
343.3325043
0
ARC
8
DEFAULT_255_1_388
10
17.2896087
20
142.0304195
40
0.5758408
50
343.0498092
51
351.9392499
0
ARC
8
DEFAULT_255_1_388
10
16.8995408
20
142.0879205
40
0.9701202
50
351.8071632
51
357.7957897
0
ARC
8
DEFAULT_255_1_388
10
16.5360885
20
142.1067724
40
1.3340376
50
357.5870923
51
359.2682493
0
LINE
8
DEFAULT_255_1_388
10
19.076276
20
142.351769
11
19.076276
21
142.1349135
0
LINE
8
DEFAULT_255_1_388
10
18.2459003
20
142.1123244
11
18.2459003
21
142.3355048
0
LINE
8
DEFAULT_255_1_388
10
18.9091166
20
142.0897353
11
18.9091166
21
142.3635153
0
LINE
8
DEFAULT_255_1_388
10
18.4130597
20
142.3761652
11
18.4130597
21
142.1087102
0
ARC
8
DEFAULT_255_1_388
10
17.6985094
20
142.1294118
40
1.3777776
50
353.8440855
51
0.2287917
0
ARC
8
DEFAULT_255_1_388
10
18.2204112
20
142.0711414
40
0.852639
50
344.4934746
51
353.9763743
0
ARC
8
DEFAULT_255_1_388
10
18.5570919
20
141.9754191
40
0.5026273
50
329.2803599
51
344.7473406
0
ARC
8
DEFAULT_255_1_388
10
18.6686415
20
141.9142038
40
0.3754848
50
324.9361395
51
328.6153007
0
ARC
8
DEFAULT_255_1_388
10
18.7112064
20
141.8844586
40
0.3235566
50
280.5801797
51
324.9173226
0
ARC
8
DEFAULT_255_1_388
10
18.6660693
20
142.0724236
40
0.5167077
50
269.5979457
51
281.6732777
0
ARC
8
DEFAULT_255_1_388
10
18.6579596
20
142.0589113
40
0.5032026
50
256.6228565
51
270.5105488
0
ARC
8
DEFAULT_255_1_388
10
18.6127339
20
141.8847345
40
0.3233092
50
215.8618351
51
257.2787793
0
ARC
8
DEFAULT_255_1_388
10
18.7276046
20
141.9618106
40
0.4615831
50
197.9695203
51
215.2622745
0
ARC
8
DEFAULT_255_1_388
10
19.0071722
20
142.0561641
40
0.7566307
50
187.8816486
51
198.2346584
0
ARC
8
DEFAULT_255_1_388
10
19.452496
20
142.1204453
40
1.2065653
50
180.8977266
51
188.0054894
0
ARC
8
DEFAULT_255_1_388
10
19.7575174
20
142.13194
40
1.5117443
50
180.7434591
51
181.152202
0
ARC
8
DEFAULT_255_1_388
10
19.590017
20
142.3409371
40
1.3441277
50
173.7674302
51
180.2315596
0
ARC
8
DEFAULT_255_1_388
10
19.0818039
20
142.3983779
40
0.8326847
50
164.3058537
51
173.9000553
0
ARC
8
DEFAULT_255_1_388
10
18.7542039
20
142.4927652
40
0.4917711
50
148.7922028
51
164.5682288
0
ARC
8
DEFAULT_255_1_388
10
18.6472776
20
142.5524457
40
0.3694204
50
144.5883979
51
148.1161588
0
ARC
8
DEFAULT_255_1_388
10
18.6085521
20
142.5794667
40
0.322202
50
101.6440149
51
144.5142619
0
ARC
8
DEFAULT_255_1_388
10
18.6563714
20
142.3894337
40
0.5180451
50
89.528284
51
102.5820197
0
ARC
8
DEFAULT_255_1_388
10
18.6652706
20
142.3850376
40
0.5224441
50
77.0437914
51
90.508231
0
ARC
8
DEFAULT_255_1_388
10
18.7104959
20
142.5698272
40
0.3322297
50
48.2777708
51
77.4996087
0
ARC
8
DEFAULT_255_1_388
10
18.7186699
20
142.5843557
40
0.315966
50
36.3141586
51
47.6307332
0
ARC
8
DEFAULT_255_1_388
10
18.6209421
20
142.5185159
40
0.4337313
50
18.2931065
51
35.6770203
0
ARC
8
DEFAULT_255_1_388
10
18.3348262
20
142.4203107
40
0.7362203
50
8.0246996
51
18.5605636
0
ARC
8
DEFAULT_255_1_388
10
17.8664618
20
142.3511432
40
1.2096583
50
1.127539
51
8.1718423
0
ARC
8
DEFAULT_255_1_388
10
17.5015751
20
142.3368374
40
1.5747719
50
0.5432713
51
1.38669
0
ARC
8
DEFAULT_255_1_388
10
17.707313
20
142.3675163
40
1.2018103
50
359.8092569
51
4.9408001
0
ARC
8
DEFAULT_255_1_388
10
18.1809711
20
142.40979
40
0.7262727
50
4.8364937
51
12.2906017
0
ARC
8
DEFAULT_255_1_388
10
18.4909176
20
142.4788485
40
0.4087324
50
12.0806994
51
23.8171225
0
ARC
8
DEFAULT_255_1_388
10
18.6229572
20
142.5347508
40
0.2653719
50
24.2874621
51
31.3934353
0
ARC
8
DEFAULT_255_1_388
10
18.6820008
20
142.5733822
40
0.1948607
50
30.7407708
51
82.4658033
0
ARC
8
DEFAULT_255_1_388
10
18.6617669
20
142.4740017
40
0.2961198
50
81.1057101
51
90.2187368
0
ARC
8
DEFAULT_255_1_388
10
18.6577481
20
142.5030421
40
0.2670929
50
89.380395
51
105.6763916
0
ARC
8
DEFAULT_255_1_388
10
18.6371202
20
142.578032
40
0.1893189
50
105.7980655
51
149.7387869
0
ARC
8
DEFAULT_255_1_388
10
18.7568343
20
142.5060719
40
0.3289892
50
149.4208441
51
163.628295
0
ARC
8
DEFAULT_255_1_388
10
18.9920572
20
142.4343345
40
0.5749004
50
163.3764549
51
172.141138
0
ARC
8
DEFAULT_255_1_388
10
19.3633294
20
142.3811582
40
0.9499585
50
172.0258462
51
178.0705453
0
ARC
8
DEFAULT_255_1_388
10
19.7054846
20
142.3649682
40
1.2924734
50
177.8639301
51
179.5036263
0
ARC
8
DEFAULT_255_1_388
10
19.5835865
20
142.1046151
40
1.170534
50
179.7995545
51
185.246089
0
ARC
8
DEFAULT_255_1_388
10
19.1287458
20
142.0615404
40
0.7136613
50
185.1411911
51
193.0082205
0
ARC
8
DEFAULT_255_1_388
10
18.8313719
20
141.9912441
40
0.4080987
50
192.7897338
51
205.2507384
0
ARC
8
DEFAULT_255_1_388
10
18.7135929
20
141.9386538
40
0.2791522
50
205.8001921
51
211.2545876
0
ARC
8
DEFAULT_255_1_388
10
18.6547468
20
141.8992132
40
0.2084074
50
210.3789935
51
238.4007996
0
ARC
8
DEFAULT_255_1_388
10
18.6525554
20
141.9044786
40
0.2117943
50
239.6521916
51
265.9793852
0
ARC
8
DEFAULT_255_1_388
10
18.6621403
20
141.9801358
40
0.2879689
50
265.1324455
51
270.0603288
0
ARC
8
DEFAULT_255_1_388
10
18.665378
20
141.9436418
40
0.2514919
50
269.3314378
51
287.2180039
0
ARC
8
DEFAULT_255_1_388
10
18.6808862
20
141.8870291
40
0.1928357
50
287.7957942
51
329.0808983
0
ARC
8
DEFAULT_255_1_388
10
18.5731619
20
141.9542651
40
0.319808
50
328.6635261
51
343.3325043
0
ARC
8
DEFAULT_255_1_388
10
18.3287078
20
142.0304195
40
0.5758408
50
343.0498092
51
351.9392499
0
ARC
8
DEFAULT_255_1_388
10
17.9386399
20
142.0879205
40
0.9701202
50
351.8071632
51
357.7957897
0
ARC
8
DEFAULT_255_1_388
10
17.5751876
20
142.1067724
40
1.3340376
50
357.5870923
51
359.2682493
0
LINE
8
DEFAULT_255_1_388
10
20.1153751
20
142.351769
11
20.1153751
21
142.1349135
0
LINE
8
DEFAULT_255_1_388
10
19.2849994
20
142.1123244
11
19.2849994
21
142.3355048
0
LINE
8
DEFAULT_255_1_388
10
19.9482157
20
142.0897353
11
19.9482157
21
142.3635153
0
LINE
8
DEFAULT_255_1_388
10
19.4521588
20
142.3761652
11
19.4521588
21
142.1087102
0
ARC
8
DEFAULT_255_1_388
10
18.7376085
20
142.1294118
40
1.3777776
50
353.8440855
51
0.2287917
0
ARC
8
DEFAULT_255_1_388
10
19.2595103
20
142.0711414
40
0.852639
50
344.4934746
51
353.9763743
0
ARC
8
DEFAULT_255_1_388
10
19.596191
20
141.9754191
40
0.5026273
50
329.2803599
51
344.7473406
0
ARC
8
DEFAULT_255_1_388
10
19.7077406
20
141.9142038
40
0.3754848
50
324.9361395
51
328.6153007
0
ARC
8
DEFAULT_255_1_388
10
19.7503056
20
141.8844586
40
0.3235566
50
280.5801797
51
324.9173226
0
ARC
8
DEFAULT_255_1_388
10
19.7051684
20
142.0724236
40
0.5167077
50
269.5979457
51
281.6732777
0
ARC
8
DEFAULT_255_1_388
10
19.6970588
20
142.0589113
40
0.5032026
50
256.6228565
51
270.5105488
0
ARC
8
DEFAULT_255_1_388
10
19.651833
20
141.8847345
40
0.3233092
50
215.8618351
51
257.2787793
0
ARC
8
DEFAULT_255_1_388
10
19.7667037
20
141.9618106
40
0.4615831
50
197.9695203
51
215.2622745
0
ARC
8
DEFAULT_255_1_388
10
20.0462713
20
142.0561641
40
0.7566307
50
187.8816486
51
198.2346584
0
ARC
8
DEFAULT_255_1_388
10
20.4915951
20
142.1204453
40
1.2065653
50
180.8977266
51
188.0054894
0
ARC
8
DEFAULT_255_1_388
10
20.7966165
20
142.13194
40
1.5117443
50
180.7434591
51
181.152202
0
ARC
8
DEFAULT_255_1_388
10
20.6291161
20
142.3409371
40
1.3441277
50
173.7674302
51
180.2315596
0
ARC
8
DEFAULT_255_1_388
10
20.120903
20
142.3983779
40
0.8326847
50
164.3058537
51
173.9000553
0
ARC
8
DEFAULT_255_1_388
10
19.793303
20
142.4927652
40
0.4917711
50
148.7922028
51
164.5682288
0
ARC
8
DEFAULT_255_1_388
10
19.6863767
20
142.5524457
40
0.3694204
50
144.5883979
51
148.1161588
0
ARC
8
DEFAULT_255_1_388
10
19.6476513
20
142.5794667
40
0.322202
50
101.6440149
51
144.5142619
0
ARC
8
DEFAULT_255_1_388
10
19.6954705
20
142.3894337
40
0.5180451
50
89.528284
51
102.5820197
0
ARC
8
DEFAULT_255_1_388
10
19.7043697
20
142.3850376
40
0.5224441
50
77.0437914
51
90.508231
0
ARC
8
DEFAULT_255_1_388
10
19.749595
20
142.5698272
40
0.3322297
50
48.2777708
51
77.4996087
0
ARC
8
DEFAULT_255_1_388
10
19.757769
20
142.5843557
40
0.315966
50
36.3141586
51
47.6307332
0
ARC
8
DEFAULT_255_1_388
10
19.6600413
20
142.5185159
40
0.4337313
50
18.2931065
51
35.6770203
0
ARC
8
DEFAULT_255_1_388
10
19.3739253
20
142.4203107
40
0.7362203
50
8.0246996
51
18.5605636
0
ARC
8
DEFAULT_255_1_388
10
18.9055609
20
142.3511432
40
1.2096583
50
1.127539
51
8.1718423
0
ARC
8
DEFAULT_255_1_388
10
18.5406742
20
142.3368374
40
1.5747719
50
0.5432713
51
1.38669
0
ARC
8
DEFAULT_255_1_388
10
18.7464121
20
142.3675163
40
1.2018103
50
359.8092569
51
4.9408001
0
ARC
8
DEFAULT_255_1_388
10
19.2200702
20
142.40979
40
0.7262727
50
4.8364937
51
12.2906017
0
ARC
8
DEFAULT_255_1_388
10
19.5300167
20
142.4788485
40
0.4087324
50
12.0806994
51
23.8171225
0
ARC
8
DEFAULT_255_1_388
10
19.6620563
20
142.5347508
40
0.2653719
50
24.2874621
51
31.3934353
0
ARC
8
DEFAULT_255_1_388
10
19.7210999
20
142.5733822
40
0.1948607
50
30.7407708
51
82.4658033
0
ARC
8
DEFAULT_255_1_388
10
19.700866
20
142.4740017
40
0.2961198
50
81.1057101
51
90.2187368
0
ARC
8
DEFAULT_255_1_388
10
19.6968472
20
142.5030421
40
0.2670929
50
89.380395
51
105.6763916
0
ARC
8
DEFAULT_255_1_388
10
19.6762194
20
142.578032
40
0.1893189
50
105.7980655
51
149.7387869
0
ARC
8
DEFAULT_255_1_388
10
19.7959334
20
142.5060719
40
0.3289892
50
149.4208441
51
163.628295
0
ARC
8
DEFAULT_255_1_388
10
20.0311563
20
142.4343345
40
0.5749004
50
163.3764549
51
172.141138
0
ARC
8
DEFAULT_255_1_388
10
20.4024285
20
142.3811582
40
0.9499585
50
172.0258462
51
178.0705453
0
ARC
8
DEFAULT_255_1_388
10
20.7445838
20
142.3649682
40
1.2924734
50
177.8639301
51
179.5036263
0
ARC
8
DEFAULT_255_1_388
10
20.6226856
20
142.1046151
40
1.170534
50
179.7995545
51
185.246089
0
ARC
8
DEFAULT_255_1_388
10
20.1678449
20
142.0615404
40
0.7136613
50
185.1411911
51
193.0082205
0
ARC
8
DEFAULT_255_1_388
10
19.870471
20
141.9912441
40
0.4080987
50
192.7897338
51
205.2507384
0
ARC
8
DEFAULT_255_1_388
10
19.752692
20
141.9386538
40
0.2791522
50
205.8001921
51
211.2545876
0
ARC
8
DEFAULT_255_1_388
10
19.6938459
20
141.8992132
40
0.2084074
50
210.3789935
51
238.4007996
0
ARC
8
DEFAULT_255_1_388
10
19.6916545
20
141.9044786
40
0.2117943
50
239.6521916
51
265.9793852
0
ARC
8
DEFAULT_255_1_388
10
19.7012394
20
141.9801358
40
0.2879689
50
265.1324455
51
270.0603288
0
ARC
8
DEFAULT_255_1_388
10
19.7044771
20
141.9436418
40
0.2514919
50
269.3314378
51
287.2180039
0
ARC
8
DEFAULT_255_1_388
10
19.7199853
20
141.8870291
40
0.1928357
50
287.7957942
51
329.0808983
0
ARC
8
DEFAULT_255_1_388
10
19.612261
20
141.9542651
40
0.319808
50
328.6635261
51
343.3325043
0
ARC
8
DEFAULT_255_1_388
10
19.3678069
20
142.0304195
40
0.5758408
50
343.0498092
51
351.9392499
0
ARC
8
DEFAULT_255_1_388
10
18.9777391
20
142.0879205
40
0.9701202
50
351.8071632
51
357.7957897
0
ARC
8
DEFAULT_255_1_388
10
18.6142868
20
142.1067724
40
1.3340376
50
357.5870923
51
359.2682493
0
LINE
8
DEFAULT_255_2_778
10
19.9765417
20
124.2218483
11
18.6536417
21
124.2218483
0
LINE
8
DEFAULT_255_2_778
10
18.6536417
20
124.2218483
11
18.6536417
21
67.3364483
0
LINE
8
DEFAULT_255_2_778
10
18.6536417
20
62.0447483
11
18.6536417
21
5.1593483
0
LINE
8
DEFAULT_255_2_778
10
18.6536417
20
5.1593483
11
19.9765417
21
5.1593483
0
LINE
8
DEFAULT_255_2_778
10
17.3307834
20
67.3364333
11
19.9765834
21
67.3364333
0
LINE
8
DEFAULT_255_2_778
10
19.9765834
20
67.3364333
11
19.9765834
21
62.0447333
0
LINE
8
DEFAULT_255_2_778
10
19.9765834
20
62.0447333
11
17.3307834
21
62.0447333
0
LINE
8
DEFAULT_255_2_778
10
17.3307834
20
62.0447333
11
17.3307834
21
67.3364333
0
LINE
8
DEFAULT_255_2_778
10
18.1245
20
62.5739666
11
18.1245
21
66.8072666
0
LINE
8
DEFAULT_255_2_778
10
17.8599167
20
66.013575
11
18.1245167
21
66.807275
0
LINE
8
DEFAULT_255_2_778
10
18.1245167
20
66.807275
11
18.3891167
21
66.013575
0
LINE
8
DEFAULT_255_2_778
10
18.3891167
20
66.013575
11
17.8599167
21
66.013575
0
LINE
8
DEFAULT_255_2_778
10
19.1828
20
66.8072666
11
19.1828
21
62.5739666
0
LINE
8
DEFAULT_255_2_778
10
18.9182167
20
63.367675
11
19.1828167
21
62.573975
0
LINE
8
DEFAULT_255_2_778
10
19.1828167
20
62.573975
11
19.4474167
21
63.367675
0
LINE
8
DEFAULT_255_2_778
10
19.4474167
20
63.367675
11
18.9182167
21
63.367675
0
LINE
8
DEFAULT_255_1_388
10
4.8826318
20
139.7258382
11
4.8826318
21
139.5894
0
LINE
8
DEFAULT_255_1_388
10
4.8826318
20
139.5894
11
4.0206313
21
139.5894
0
LINE
8
DEFAULT_255_1_388
10
4.0206313
20
139.5894
11
4.0206313
21
139.7095741
0
LINE
8
DEFAULT_255_1_388
10
4.0206313
20
139.7095741
11
4.4760278
21
140.2155702
0
LINE
8
DEFAULT_255_1_388
10
4.1624909
20
140.5173607
11
3.9953315
21
140.5173607
0
LINE
8
DEFAULT_255_1_388
10
4.5745163
20
140.108046
11
4.2221262
21
139.7258382
0
LINE
8
DEFAULT_255_1_388
10
4.2221262
20
139.7258382
11
4.8826318
21
139.7258382
0
ARC
8
DEFAULT_255_1_388
10
2.9584337
20
141.5575983
40
2.0258655
50
318.5132526
51
320.7829045
0
ARC
8
DEFAULT_255_1_388
10
3.5532294
20
141.0734929
40
1.2589638
50
320.7372878
51
323.9739031
0
ARC
8
DEFAULT_255_1_388
10
3.9941226
20
140.7540554
40
0.7145141
50
323.8962701
51
328.64194
0
ARC
8
DEFAULT_255_1_388
10
4.2243484
20
140.6120545
40
0.4440242
50
328.8294576
51
331.7891185
0
ARC
8
DEFAULT_255_1_388
10
4.3365804
20
140.5541374
40
0.3177517
50
331.4254512
51
352.9365785
0
ARC
8
DEFAULT_255_1_388
10
4.3518804
20
140.550705
40
0.3021496
50
353.2257659
51
0.0166158
0
ARC
8
DEFAULT_255_1_388
10
4.3755564
20
140.5532894
40
0.2784847
50
359.486299
51
15.9343185
0
ARC
8
DEFAULT_255_1_388
10
4.4325831
20
140.5686269
40
0.2194403
50
16.1712913
51
43.5286088
0
ARC
8
DEFAULT_255_1_388
10
4.4412776
20
140.5773191
40
0.2071504
50
43.4417391
51
83.1661095
0
ARC
8
DEFAULT_255_1_388
10
4.4261937
20
140.4944316
40
0.2912888
50
82.160179
51
90.1505708
0
ARC
8
DEFAULT_255_1_388
10
4.4226418
20
140.4340279
40
0.3517025
50
89.5460741
51
102.5418361
0
ARC
8
DEFAULT_255_1_388
10
4.3953138
20
140.5499933
40
0.2325748
50
102.1738499
51
129.206123
0
ARC
8
DEFAULT_255_1_388
10
4.3864592
20
140.5639664
40
0.2161591
50
129.72865
51
135.753947
0
ARC
8
DEFAULT_255_1_388
10
4.4001074
20
140.5530728
40
0.2335433
50
136.1757367
51
166.3673339
0
ARC
8
DEFAULT_255_1_388
10
4.5133762
20
140.5227148
40
0.3507873
50
165.9090694
51
178.8684636
0
ARC
8
DEFAULT_255_1_388
10
4.6109534
20
140.5174263
40
0.4484624
50
178.4391136
51
180.0083808
0
ARC
8
DEFAULT_255_1_388
10
4.4530235
20
140.5218197
40
0.4577138
50
163.2878482
51
180.5581842
0
ARC
8
DEFAULT_255_1_388
10
4.3628276
20
140.5466393
40
0.3641968
50
133.4540601
51
162.947111
0
ARC
8
DEFAULT_255_1_388
10
4.3829158
20
140.5252789
40
0.3935189
50
100.7869829
51
133.4382499
0
ARC
8
DEFAULT_255_1_388
10
4.4220403
20
140.3510399
40
0.5720313
50
89.660664
51
101.3702276
0
ARC
8
DEFAULT_255_1_388
10
4.4295012
20
140.3579263
40
0.5651495
50
78.2172678
51
90.412935
0
ARC
8
DEFAULT_255_1_388
10
4.4694478
20
140.5406511
40
0.378122
50
55.9269121
51
78.4888449
0
ARC
8
DEFAULT_255_1_388
10
4.4915193
20
140.5787187
40
0.3342379
50
47.929771
51
55.4049217
0
ARC
8
DEFAULT_255_1_388
10
4.5029723
20
140.5903618
40
0.3179217
50
4.334829
51
48.0560205
0
ARC
8
DEFAULT_255_1_388
10
4.3797525
20
140.5712487
40
0.442341
50
359.9251713
51
5.5971671
0
ARC
8
DEFAULT_255_1_388
10
4.427968
20
140.5775728
40
0.3941854
50
337.8914027
51
358.9967534
0
ARC
8
DEFAULT_255_1_388
10
4.122725
20
140.6953295
40
0.7213271
50
326.9132501
51
338.3508308
0
ARC
8
DEFAULT_255_1_388
10
3.6743362
20
140.9827105
40
1.2538973
50
319.6471833
51
327.0959558
0
ARC
8
DEFAULT_255_1_388
10
3.243002
20
141.338505
40
1.8129975
50
317.2588228
51
319.9045804
0
LINE
8
DEFAULT_255_1_388
10
5.7654143
20
140.9049898
11
5.7654143
21
140.031243
0
LINE
8
DEFAULT_255_1_388
10
5.7654143
20
140.031243
11
5.9479343
21
140.031243
0
LINE
8
DEFAULT_255_1_388
10
5.9479343
20
140.031243
11
5.9479343
21
139.8948048
0
LINE
8
DEFAULT_255_1_388
10
5.9479343
20
139.8948048
11
5.7654143
21
139.8948048
0
LINE
8
DEFAULT_255_1_388
10
5.7654143
20
139.8948048
11
5.7654143
21
139.5894
0
LINE
8
DEFAULT_255_1_388
10
5.7654143
20
139.5894
11
5.5973513
21
139.5894
0
LINE
8
DEFAULT_255_1_388
10
5.5973513
20
139.5894
11
5.5973513
21
139.8948048
0
LINE
8
DEFAULT_255_1_388
10
5.5973513
20
139.8948048
11
4.998288
21
139.8948048
0
LINE
8
DEFAULT_255_1_388
10
4.998288
20
139.8948048
11
4.998288
21
139.9932933
0
LINE
8
DEFAULT_255_1_388
10
4.998288
20
139.9932933
11
5.5874121
21
140.9049898
0
LINE
8
DEFAULT_255_1_388
10
5.5874121
20
140.9049898
11
5.7654143
21
140.9049898
0
LINE
8
DEFAULT_255_1_388
10
5.5774729
20
140.6402455
11
5.1880366
21
140.031243
0
LINE
8
DEFAULT_255_1_388
10
5.1880366
20
140.031243
11
5.5973513
21
140.031243
0
LINE
8
DEFAULT_255_1_388
10
5.5973513
20
140.031243
11
5.5973513
21
140.676388
0
LINE
8
DEFAULT_255_1_388
10
5.5973513
20
140.676388
11
5.5774729
21
140.6402455
0
LINE
8
DEFAULT_255_1_388
10
6.203643
20
140.9049898
11
6.5777187
21
139.8198089
0
LINE
8
DEFAULT_255_1_388
10
6.5777187
20
139.8198089
11
6.9536015
21
140.9049898
0
LINE
8
DEFAULT_255_1_388
10
6.9536015
20
140.9049898
11
7.14335
21
140.9049898
0
LINE
8
DEFAULT_255_1_388
10
7.14335
20
140.9049898
11
6.6554252
21
139.5894
0
LINE
8
DEFAULT_255_1_388
10
6.6554252
20
139.5894
11
6.5018193
21
139.5894
0
LINE
8
DEFAULT_255_1_388
10
6.5018193
20
139.5894
11
6.014798
21
140.9049898
0
LINE
8
DEFAULT_255_1_388
10
6.014798
20
140.9049898
11
6.203643
21
140.9049898
0
LINE
8
DEFAULT_255_1_388
10
4.1701903
20
132.9674898
11
4.1701903
21
131.7937596
0
LINE
8
DEFAULT_255_1_388
10
4.1701903
20
131.7937596
11
4.7936498
21
131.7937596
0
LINE
8
DEFAULT_255_1_388
10
4.7936498
20
131.7937596
11
4.7936498
21
131.6519
0
LINE
8
DEFAULT_255_1_388
10
4.7936498
20
131.6519
11
3.9958024
21
131.6519
0
LINE
8
DEFAULT_255_1_388
10
3.9958024
20
131.6519
11
3.9958024
21
132.9674898
0
LINE
8
DEFAULT_255_1_388
10
3.9958024
20
132.9674898
11
4.1701903
21
132.9674898
0
LINE
8
DEFAULT_255_1_388
10
5.8607594
20
131.6519
11
5.735164
21
131.9952545
0
LINE
8
DEFAULT_255_1_388
10
5.735164
20
131.9952545
11
5.1839896
21
131.9952545
0
LINE
8
DEFAULT_255_1_388
10
5.1839896
20
131.9952545
11
5.0602013
21
131.6519
0
LINE
8
DEFAULT_255_1_388
10
5.0602013
20
131.6519
11
4.8812956
21
131.6519
0
LINE
8
DEFAULT_255_1_388
10
4.8812956
20
131.6519
11
5.3836774
21
132.9674898
0
LINE
8
DEFAULT_255_1_388
10
5.3836774
20
132.9674898
11
5.5354762
21
132.9674898
0
LINE
8
DEFAULT_255_1_388
10
5.5354762
20
132.9674898
11
6.0387616
21
131.6519
0
LINE
8
DEFAULT_255_1_388
10
6.0387616
20
131.6519
11
5.8607594
21
131.6519
0
LINE
8
DEFAULT_255_1_388
10
5.4595768
20
132.7533451
11
5.2363964
21
132.1380177
0
LINE
8
DEFAULT_255_1_388
10
5.2363964
20
132.1380177
11
5.6836608
21
132.1380177
0
LINE
8
DEFAULT_255_1_388
10
5.6836608
20
132.1380177
11
5.4595768
21
132.7533451
0
LINE
8
DEFAULT_255_1_388
10
6.668546
20
132.7415987
11
6.668546
21
132.3575838
0
LINE
8
DEFAULT_255_1_388
10
6.668546
20
132.3575838
11
7.0353932
21
132.3575838
0
LINE
8
DEFAULT_255_1_388
10
7.0353932
20
132.3575838
11
7.0353932
21
132.1994601
0
LINE
8
DEFAULT_255_1_388
10
7.0353932
20
132.1994601
11
6.668546
21
132.1994601
0
LINE
8
DEFAULT_255_1_388
10
6.668546
20
132.1994601
11
6.668546
21
131.7838204
0
LINE
8
DEFAULT_255_1_388
10
6.668546
20
131.7838204
11
6.5004831
21
131.7838204
0
LINE
8
DEFAULT_255_1_388
10
6.5004831
20
131.7838204
11
6.5004831
21
132.1994601
0
LINE
8
DEFAULT_255_1_388
10
6.5004831
20
132.1994601
11
6.1336359
21
132.1994601
0
LINE
8
DEFAULT_255_1_388
10
6.1336359
20
132.1994601
11
6.1336359
21
132.3575838
0
LINE
8
DEFAULT_255_1_388
10
6.1336359
20
132.3575838
11
6.5004831
21
132.3575838
0
LINE
8
DEFAULT_255_1_388
10
6.5004831
20
132.3575838
11
6.5004831
21
132.7415987
0
LINE
8
DEFAULT_255_1_388
10
6.5004831
20
132.7415987
11
6.668546
21
132.7415987
0
LINE
8
DEFAULT_255_1_388
10
23.1190856
20
140.367369
11
23.1190856
21
140.1505135
0
LINE
8
DEFAULT_255_1_388
10
22.2887099
20
140.1279244
11
22.2887099
21
140.3511048
0
LINE
8
DEFAULT_255_1_388
10
22.9519262
20
140.1053353
11
22.9519262
21
140.3791153
0
LINE
8
DEFAULT_255_1_388
10
22.4558693
20
140.3917652
11
22.4558693
21
140.1243102
0
ARC
8
DEFAULT_255_1_388
10
21.741319
20
140.1450118
40
1.3777776
50
353.8440855
51
0.2287917
0
ARC
8
DEFAULT_255_1_388
10
22.2632208
20
140.0867414
40
0.852639
50
344.4934746
51
353.9763743
0
ARC
8
DEFAULT_255_1_388
10
22.5999015
20
139.9910191
40
0.5026273
50
329.2803599
51
344.7473406
0
ARC
8
DEFAULT_255_1_388
10
22.7114511
20
139.9298038
40
0.3754848
50
324.9361395
51
328.6153007
0
ARC
8
DEFAULT_255_1_388
10
22.7540161
20
139.9000586
40
0.3235566
50
280.5801797
51
324.9173226
0
ARC
8
DEFAULT_255_1_388
10
22.7088789
20
140.0880236
40
0.5167077
50
269.5979457
51
281.6732777
0
ARC
8
DEFAULT_255_1_388
10
22.7007693
20
140.0745113
40
0.5032026
50
256.6228565
51
270.5105488
0
ARC
8
DEFAULT_255_1_388
10
22.6555435
20
139.9003345
40
0.3233092
50
215.8618351
51
257.2787793
0
ARC
8
DEFAULT_255_1_388
10
22.7704142
20
139.9774106
40
0.4615831
50
197.9695203
51
215.2622745
0
ARC
8
DEFAULT_255_1_388
10
23.0499818
20
140.0717641
40
0.7566307
50
187.8816486
51
198.2346584
0
ARC
8
DEFAULT_255_1_388
10
23.4953056
20
140.1360453
40
1.2065653
50
180.8977266
51
188.0054894
0
ARC
8
DEFAULT_255_1_388
10
23.800327
20
140.14754
40
1.5117443
50
180.7434591
51
181.152202
0
ARC
8
DEFAULT_255_1_388
10
23.6328266
20
140.3565371
40
1.3441277
50
173.7674302
51
180.2315596
0
ARC
8
DEFAULT_255_1_388
10
23.1246135
20
140.4139779
40
0.8326847
50
164.3058537
51
173.9000553
0
ARC
8
DEFAULT_255_1_388
10
22.7970135
20
140.5083652
40
0.4917711
50
148.7922028
51
164.5682288
0
ARC
8
DEFAULT_255_1_388
10
22.6900872
20
140.5680457
40
0.3694204
50
144.5883979
51
148.1161588
0
ARC
8
DEFAULT_255_1_388
10
22.6513618
20
140.5950667
40
0.322202
50
101.6440149
51
144.5142619
0
ARC
8
DEFAULT_255_1_388
10
22.699181
20
140.4050337
40
0.5180451
50
89.528284
51
102.5820197
0
ARC
8
DEFAULT_255_1_388
10
22.7080802
20
140.4006376
40
0.5224441
50
77.0437914
51
90.508231
0
ARC
8
DEFAULT_255_1_388
10
22.7533055
20
140.5854272
40
0.3322297
50
48.2777708
51
77.4996087
0
ARC
8
DEFAULT_255_1_388
10
22.7614795
20
140.5999557
40
0.315966
50
36.3141586
51
47.6307332
0
ARC
8
DEFAULT_255_1_388
10
22.6637518
20
140.5341159
40
0.4337313
50
18.2931065
51
35.6770203
0
ARC
8
DEFAULT_255_1_388
10
22.3776358
20
140.4359107
40
0.7362203
50
8.0246996
51
18.5605636
0
ARC
8
DEFAULT_255_1_388
10
21.9092714
20
140.3667432
40
1.2096583
50
1.127539
51
8.1718423
0
ARC
8
DEFAULT_255_1_388
10
21.5443847
20
140.3524374
40
1.5747719
50
0.5432713
51
1.38669
0
ARC
8
DEFAULT_255_1_388
10
21.7501226
20
140.3831163
40
1.2018103
50
359.8092569
51
4.9408001
0
ARC
8
DEFAULT_255_1_388
10
22.2237807
20
140.42539
40
0.7262727
50
4.8364937
51
12.2906017
0
ARC
8
DEFAULT_255_1_388
10
22.5337272
20
140.4944485
40
0.4087324
50
12.0806994
51
23.8171225
0
ARC
8
DEFAULT_255_1_388
10
22.6657668
20
140.5503508
40
0.2653719
50
24.2874621
51
31.3934353
0
ARC
8
DEFAULT_255_1_388
10
22.7248104
20
140.5889822
40
0.1948607
50
30.7407708
51
82.4658033
0
ARC
8
DEFAULT_255_1_388
10
22.7045765
20
140.4896017
40
0.2961198
50
81.1057101
51
90.2187368
0
ARC
8
DEFAULT_255_1_388
10
22.7005577
20
140.5186421
40
0.2670929
50
89.380395
51
105.6763916
0
ARC
8
DEFAULT_255_1_388
10
22.6799299
20
140.593632
40
0.1893189
50
105.7980655
51
149.7387869
0
ARC
8
DEFAULT_255_1_388
10
22.7996439
20
140.5216719
40
0.3289892
50
149.4208441
51
163.628295
0
ARC
8
DEFAULT_255_1_388
10
23.0348668
20
140.4499345
40
0.5749004
50
163.3764549
51
172.141138
0
ARC
8
DEFAULT_255_1_388
10
23.406139
20
140.3967582
40
0.9499585
50
172.0258462
51
178.0705453
0
ARC
8
DEFAULT_255_1_388
10
23.7482943
20
140.3805682
40
1.2924734
50
177.8639301
51
179.5036263
0
ARC
8
DEFAULT_255_1_388
10
23.6263961
20
140.1202151
40
1.170534
50
179.7995545
51
185.246089
0
ARC
8
DEFAULT_255_1_388
10
23.1715554
20
140.0771404
40
0.7136613
50
185.1411911
51
193.0082205
0
ARC
8
DEFAULT_255_1_388
10
22.8741815
20
140.0068441
40
0.4080987
50
192.7897338
51
205.2507384
0
ARC
8
DEFAULT_255_1_388
10
22.7564025
20
139.9542538
40
0.2791522
50
205.8001921
51
211.2545876
0
ARC
8
DEFAULT_255_1_388
10
22.6975564
20
139.9148132
40
0.2084074
50
210.3789935
51
238.4007996
0
ARC
8
DEFAULT_255_1_388
10
22.695365
20
139.9200786
40
0.2117943
50
239.6521916
51
265.9793852
0
ARC
8
DEFAULT_255_1_388
10
22.7049499
20
139.9957358
40
0.2879689
50
265.1324455
51
270.0603288
0
ARC
8
DEFAULT_255_1_388
10
22.7081876
20
139.9592418
40
0.2514919
50
269.3314378
51
287.2180039
0
ARC
8
DEFAULT_255_1_388
10
22.7236958
20
139.9026291
40
0.1928357
50
287.7957942
51
329.0808983
0
ARC
8
DEFAULT_255_1_388
10
22.6159715
20
139.9698651
40
0.319808
50
328.6635261
51
343.3325043
0
ARC
8
DEFAULT_255_1_388
10
22.3715174
20
140.0460195
40
0.5758408
50
343.0498092
51
351.9392499
0
ARC
8
DEFAULT_255_1_388
10
21.9814496
20
140.1035205
40
0.9701202
50
351.8071632
51
357.7957897
0
ARC
8
DEFAULT_255_1_388
10
21.6179973
20
140.1223724
40
1.3340376
50
357.5870923
51
359.2682493
0
LINE
8
DEFAULT_255_1_388
10
23.4380439
20
140.9049898
11
23.8121196
21
139.8198089
0
LINE
8
DEFAULT_255_1_388
10
23.8121196
20
139.8198089
11
24.1880024
21
140.9049898
0
LINE
8
DEFAULT_255_1_388
10
24.1880024
20
140.9049898
11
24.3777509
21
140.9049898
0
LINE
8
DEFAULT_255_1_388
10
24.3777509
20
140.9049898
11
23.8898261
21
139.5894
0
LINE
8
DEFAULT_255_1_388
10
23.8898261
20
139.5894
11
23.7362202
21
139.5894
0
LINE
8
DEFAULT_255_1_388
10
23.7362202
20
139.5894
11
23.2491989
21
140.9049898
0
LINE
8
DEFAULT_255_1_388
10
23.2491989
20
140.9049898
11
23.4380439
21
140.9049898
0
LINE
8
DEFAULT_255_1_388
10
22.2800946
20
5.3503553
11
22.2800946
21
5.2672274
0
LINE
8
DEFAULT_255_1_388
10
21.2220206
20
5.2554811
11
21.2220206
21
5.3503553
0
LINE
8
DEFAULT_255_1_388
10
22.1075138
20
5.2545775
11
22.1075138
21
5.3521625
0
LINE
8
DEFAULT_255_1_388
10
21.3946014
20
5.3639088
11
21.3946014
21
5.2672274
0
ARC
8
DEFAULT_255_1_388
10
21.3078684
20
5.2627726
40
0.9722364
50
350.4878118
51
0.2625322
0
ARC
8
DEFAULT_255_1_388
10
21.5658644
20
5.2183994
40
0.7104556
50
336.0277991
51
350.5787241
0
ARC
8
DEFAULT_255_1_388
10
21.7171751
20
5.1500243
40
0.544417
50
319.887443
51
336.1331163
0
ARC
8
DEFAULT_255_1_388
10
21.7849563
20
5.0957733
40
0.4576311
50
302.4806296
51
319.6144102
0
ARC
8
DEFAULT_255_1_388
10
21.7720184
20
5.1207067
40
0.4856183
50
275.8196423
51
302.1885521
0
ARC
8
DEFAULT_255_1_388
10
21.7533046
20
5.2492466
40
0.6154183
50
269.9169897
51
276.339506
0
ARC
8
DEFAULT_255_1_388
10
21.7482646
20
5.172068
40
0.5382553
50
252.5221437
51
270.441579
0
ARC
8
DEFAULT_255_1_388
10
21.7320897
20
5.1114046
40
0.4755426
50
237.5349961
51
252.1858334
0
ARC
8
DEFAULT_255_1_388
10
21.7421273
20
5.124212
40
0.4917393
50
209.0632754
51
237.3492577
0
ARC
8
DEFAULT_255_1_388
10
21.8400599
20
5.1857104
40
0.6072464
50
205.118533
51
209.6465345
0
ARC
8
DEFAULT_255_1_388
10
21.9296601
20
5.2237174
40
0.7045164
50
188.7216633
51
204.8239753
0
ARC
8
DEFAULT_255_1_388
10
22.1543376
20
5.2615387
40
0.9323368
50
180.3722704
51
188.9253909
0
ARC
8
DEFAULT_255_1_388
10
22.1512938
20
5.3548416
40
0.929284
50
169.5253055
51
180.2766048
0
ARC
8
DEFAULT_255_1_388
10
21.9372737
20
5.3942024
40
0.7116745
50
155.8314601
51
169.5088611
0
ARC
8
DEFAULT_255_1_388
10
21.79322
20
5.4610312
40
0.5528904
50
139.6259579
51
156.0379072
0
ARC
8
DEFAULT_255_1_388
10
21.7268733
20
5.5144143
40
0.4677708
50
122.6414784
51
139.3431662
0
ARC
8
DEFAULT_255_1_388
10
21.7381988
20
5.4937787
40
0.4912586
50
93.0224537
51
122.4556091
0
ARC
8
DEFAULT_255_1_388
10
21.7503509
20
5.3851776
40
0.6003837
50
89.9756766
51
93.6340839
0
ARC
8
DEFAULT_255_1_388
10
21.7547107
20
5.4300879
40
0.5554884
50
73.7463329
51
90.4234008
0
ARC
8
DEFAULT_255_1_388
10
21.774458
20
5.5065772
40
0.4765353
50
57.663051
51
73.4516911
0
ARC
8
DEFAULT_255_1_388
10
21.7735618
20
5.5090108
40
0.4749629
50
29.1441355
51
57.4146687
0
ARC
8
DEFAULT_255_1_388
10
21.6683429
20
5.4433046
40
0.5988917
50
24.0985653
51
29.732054
0
ARC
8
DEFAULT_255_1_388
10
21.5521061
20
5.3951154
40
0.7246823
50
8.6654943
51
23.8241215
0
ARC
8
DEFAULT_255_1_388
10
21.3007479
20
5.3541037
40
0.9793537
50
359.7807044
51
8.8218476
0
ARC
8
DEFAULT_255_1_388
10
21.1717184
20
5.3569731
40
0.9358078
50
359.7054632
51
8.0359751
0
ARC
8
DEFAULT_255_1_388
10
21.5092235
20
5.4061252
40
0.5947474
50
7.8926278
51
20.2962188
0
ARC
8
DEFAULT_255_1_388
10
21.6923085
20
5.4736367
40
0.3996117
50
20.3231056
51
36.4990255
0
ARC
8
DEFAULT_255_1_388
10
21.7694383
20
5.5330399
40
0.3022818
50
36.1436715
51
85.6627846
0
ARC
8
DEFAULT_255_1_388
10
21.7511638
20
5.4160881
40
0.4203853
50
84.3845912
51
90.076054
0
ARC
8
DEFAULT_255_1_388
10
21.7463993
20
5.4903416
40
0.346157
50
89.3037228
51
109.9046209
0
ARC
8
DEFAULT_255_1_388
10
21.7359826
20
5.5333379
40
0.3022217
50
110.8229774
51
143.917961
0
ARC
8
DEFAULT_255_1_388
10
21.8410185
20
5.4531455
40
0.434348
50
143.5289166
51
163.2980252
0
ARC
8
DEFAULT_255_1_388
10
22.0556472
20
5.3856685
40
0.659321
50
163.0418884
51
174.3139873
0
ARC
8
DEFAULT_255_1_388
10
22.3261437
20
5.3544378
40
0.9315905
50
174.050934
51
179.4174954
0
ARC
8
DEFAULT_255_1_388
10
22.2693381
20
5.2625382
40
0.8747493
50
179.6928582
51
188.7908948
0
ARC
8
DEFAULT_255_1_388
10
21.9697181
20
5.2146086
40
0.5713262
50
188.6328449
51
202.5630732
0
ARC
8
DEFAULT_255_1_388
10
21.8286018
20
5.1579142
40
0.4192612
50
202.8078931
51
216.1195888
0
ARC
8
DEFAULT_255_1_388
10
21.7375535
20
5.0846479
40
0.3025752
50
215.0755613
51
264.6379773
0
ARC
8
DEFAULT_255_1_388
10
21.7518372
20
5.1781376
40
0.3970284
50
263.8464302
51
270.0830805
0
ARC
8
DEFAULT_255_1_388
10
21.7564917
20
5.1490808
40
0.3679937
50
269.3649295
51
287.5149684
0
ARC
8
DEFAULT_255_1_388
10
21.7765358
20
5.0762714
40
0.2925408
50
288.0629019
51
323.8115617
0
ARC
8
DEFAULT_255_1_388
10
21.6785334
20
5.1493754
40
0.4148018
50
323.6546541
51
342.6591359
0
ARC
8
DEFAULT_255_1_388
10
21.4499992
20
5.223728
40
0.6551163
50
342.4092446
51
353.6451501
0
ARC
8
DEFAULT_255_1_388
10
21.1314785
20
5.2633565
40
0.9760748
50
353.4027553
51
359.4846611
0
LINE
8
DEFAULT_255_1_388
10
23.0463172
20
5.9738148
11
23.0463172
21
4.6519
0
LINE
8
DEFAULT_255_1_388
10
23.0463172
20
4.6519
11
22.8782542
21
4.6519
0
LINE
8
DEFAULT_255_1_388
10
22.8782542
20
4.6519
11
22.8782542
21
5.765995
0
LINE
8
DEFAULT_255_1_388
10
22.8782542
20
5.765995
11
22.5412247
21
5.6422066
0
LINE
8
DEFAULT_255_1_388
10
22.5412247
20
5.6422066
11
22.5412247
21
5.7940055
0
LINE
8
DEFAULT_255_1_388
10
22.5412247
20
5.7940055
11
23.0201139
21
5.9738148
0
LINE
8
DEFAULT_255_1_388
10
23.0201139
20
5.9738148
11
23.0463172
21
5.9738148
0
LINE
8
DEFAULT_255_1_388
10
23.7465797
20
5.2771666
11
23.6128521
21
5.3115021
0
LINE
8
DEFAULT_255_1_388
10
23.6128521
20
5.3115021
11
23.6797159
21
5.9674898
0
LINE
8
DEFAULT_255_1_388
10
23.6797159
20
5.9674898
11
24.353775
21
5.9674898
0
LINE
8
DEFAULT_255_1_388
10
24.353775
20
5.9674898
11
24.353775
21
5.8129803
0
LINE
8
DEFAULT_255_1_388
10
24.353775
20
5.8129803
11
23.8215755
21
5.8129803
0
LINE
8
DEFAULT_255_1_388
10
23.8215755
20
5.8129803
11
23.7818187
21
5.4542652
0
LINE
8
DEFAULT_255_1_388
10
23.5658668
20
4.9979652
11
23.7239906
21
4.9979652
0
LINE
8
DEFAULT_255_1_388
10
23.7908543
20
5.3133092
11
23.7465797
21
5.2771666
0
ARC
8
DEFAULT_255_1_388
10
23.9904801
20
5.0965241
40
0.4141476
50
93.7181681
51
120.253934
0
ARC
8
DEFAULT_255_1_388
10
24.0010853
20
5.0056284
40
0.5055616
50
89.9660471
51
94.2495185
0
ARC
8
DEFAULT_255_1_388
10
24.0056675
20
5.0719154
40
0.4392953
50
73.8045384
51
90.5585736
0
ARC
8
DEFAULT_255_1_388
10
24.0320932
20
5.168452
40
0.3392225
50
41.3071072
51
73.543002
0
ARC
8
DEFAULT_255_1_388
10
23.9852752
20
5.1281461
40
0.4009977
50
13.5075837
51
41.2174839
0
ARC
8
DEFAULT_255_1_388
10
23.800585
20
5.0797907
40
0.5918864
50
1.1330171
51
13.8830737
0
ARC
8
DEFAULT_255_1_388
10
23.6409496
20
5.0712522
40
0.7516787
50
359.9925091
51
1.5431298
0
ARC
8
DEFAULT_255_1_388
10
23.785411
20
5.0666027
40
0.6072343
50
347.8572712
51
0.4294349
0
ARC
8
DEFAULT_255_1_388
10
23.9823245
20
5.0219898
40
0.4053482
50
323.6727442
51
348.1674594
0
ARC
8
DEFAULT_255_1_388
10
24.015421
20
5.0018175
40
0.3667495
50
316.8171818
51
323.1486802
0
ARC
8
DEFAULT_255_1_388
10
24.0223333
20
4.9976612
40
0.358869
50
281.839603
51
316.5458142
0
ARC
8
DEFAULT_255_1_388
10
23.9800621
20
5.1726363
40
0.5388223
50
269.5770964
51
282.4214641
0
ARC
8
DEFAULT_255_1_388
10
23.9720542
20
5.148593
40
0.5147801
50
256.2425863
51
270.4486481
0
ARC
8
DEFAULT_255_1_388
10
23.9384069
20
5.0136124
40
0.3756708
50
228.9024379
51
256.33135
0
ARC
8
DEFAULT_255_1_388
10
23.930105
20
5.0005054
40
0.360344
50
193.7536029
51
228.5272638
0
ARC
8
DEFAULT_255_1_388
10
24.0693615
20
5.0413463
40
0.5053599
50
184.9244437
51
194.4976052
0
ARC
8
DEFAULT_255_1_388
10
24.0910256
20
5.0453722
40
0.3700839
50
187.3596909
51
198.6733728
0
ARC
8
DEFAULT_255_1_388
10
23.9729499
20
5.0044373
40
0.2451195
50
198.4453795
51
217.7945479
0
ARC
8
DEFAULT_255_1_388
10
23.9396672
20
4.9808563
40
0.2043754
50
218.2887146
51
228.5613203
0
ARC
8
DEFAULT_255_1_388
10
23.9506679
20
4.9956902
40
0.2227819
50
228.9652423
51
258.1237049
0
ARC
8
DEFAULT_255_1_388
10
23.9738116
20
5.0947964
40
0.3245374
50
257.7260585
51
270.4013717
0
ARC
8
DEFAULT_255_1_388
10
23.9788614
20
5.0447255
40
0.2744726
50
269.4204315
51
286.420998
0
ARC
8
DEFAULT_255_1_388
10
23.995567
20
4.9840705
40
0.2115721
50
286.7250065
51
320.6004665
0
ARC
8
DEFAULT_255_1_388
10
23.9524585
20
5.0190527
40
0.2670878
50
320.6712228
51
344.5440474
0
ARC
8
DEFAULT_255_1_388
10
23.8223299
20
5.0572394
40
0.4026927
50
344.241448
51
356.735803
0
ARC
8
DEFAULT_255_1_388
10
23.6819606
20
5.0688656
40
0.5435085
50
356.3547471
51
0.0507222
0
ARC
8
DEFAULT_255_1_388
10
23.8321871
20
5.0723812
40
0.3932934
50
359.5579289
51
12.9534322
0
ARC
8
DEFAULT_255_1_388
10
23.9508711
20
5.1011586
40
0.2711827
50
12.6489751
51
41.608121
0
ARC
8
DEFAULT_255_1_388
10
23.9767871
20
5.1231946
40
0.2371737
50
41.7851122
51
85.9892156
0
ARC
8
DEFAULT_255_1_388
10
23.9629182
20
5.0316738
40
0.3295244
50
84.6965848
51
90.0672125
0
ARC
8
DEFAULT_255_1_388
10
23.9602749
20
4.9565118
40
0.4046926
50
89.6804991
51
99.161352
0
ARC
8
DEFAULT_255_1_388
10
23.9371758
20
5.0945848
40
0.2647044
50
98.9836248
51
113.8905702
0
ARC
8
DEFAULT_255_1_388
10
23.9113433
20
5.1555118
40
0.1985386
50
114.195234
51
127.3641866
0
LINE
8
DEFAULT_255_1_388
10
22.1477946
20
13.2878553
11
22.1477946
21
13.2047274
0
LINE
8
DEFAULT_255_1_388
10
21.0897206
20
13.1929811
11
21.0897206
21
13.2878553
0
LINE
8
DEFAULT_255_1_388
10
21.9752138
20
13.1920775
11
21.9752138
21
13.2896625
0
LINE
8
DEFAULT_255_1_388
10
21.2623014
20
13.3014088
11
21.2623014
21
13.2047274
0
ARC
8
DEFAULT_255_1_388
10
21.1755684
20
13.2002726
40
0.9722364
50
350.4878118
51
0.2625322
0
ARC
8
DEFAULT_255_1_388
10
21.4335644
20
13.1558994
40
0.7104556
50
336.0277991
51
350.5787241
0
ARC
8
DEFAULT_255_1_388
10
21.5848751
20
13.0875243
40
0.544417
50
319.887443
51
336.1331163
0
ARC
8
DEFAULT_255_1_388
10
21.6526563
20
13.0332733
40
0.4576311
50
302.4806296
51
319.6144102
0
ARC
8
DEFAULT_255_1_388
10
21.6397184
20
13.0582067
40
0.4856183
50
275.8196423
51
302.1885521
0
ARC
8
DEFAULT_255_1_388
10
21.6210046
20
13.1867466
40
0.6154183
50
269.9169897
51
276.339506
0
ARC
8
DEFAULT_255_1_388
10
21.6159646
20
13.109568
40
0.5382553
50
252.5221437
51
270.441579
0
ARC
8
DEFAULT_255_1_388
10
21.5997897
20
13.0489046
40
0.4755426
50
237.5349961
51
252.1858334
0
ARC
8
DEFAULT_255_1_388
10
21.6098273
20
13.061712
40
0.4917393
50
209.0632754
51
237.3492577
0
ARC
8
DEFAULT_255_1_388
10
21.7077599
20
13.1232104
40
0.6072464
50
205.118533
51
209.6465345
0
ARC
8
DEFAULT_255_1_388
10
21.7973601
20
13.1612174
40
0.7045164
50
188.7216633
51
204.8239753
0
ARC
8
DEFAULT_255_1_388
10
22.0220376
20
13.1990387
40
0.9323368
50
180.3722704
51
188.9253909
0
ARC
8
DEFAULT_255_1_388
10
22.0189938
20
13.2923416
40
0.929284
50
169.5253055
51
180.2766048
0
ARC
8
DEFAULT_255_1_388
10
21.8049737
20
13.3317024
40
0.7116745
50
155.8314601
51
169.5088611
0
ARC
8
DEFAULT_255_1_388
10
21.66092
20
13.3985312
40
0.5528904
50
139.6259579
51
156.0379072
0
ARC
8
DEFAULT_255_1_388
10
21.5945733
20
13.4519143
40
0.4677708
50
122.6414784
51
139.3431662
0
ARC
8
DEFAULT_255_1_388
10
21.6058988
20
13.4312787
40
0.4912586
50
93.0224537
51
122.4556091
0
ARC
8
DEFAULT_255_1_388
10
21.6180509
20
13.3226776
40
0.6003837
50
89.9756766
51
93.6340839
0
ARC
8
DEFAULT_255_1_388
10
21.6224107
20
13.3675879
40
0.5554884
50
73.7463329
51
90.4234008
0
ARC
8
DEFAULT_255_1_388
10
21.642158
20
13.4440772
40
0.4765353
50
57.663051
51
73.4516911
0
ARC
8
DEFAULT_255_1_388
10
21.6412618
20
13.4465108
40
0.4749629
50
29.1441355
51
57.4146687
0
ARC
8
DEFAULT_255_1_388
10
21.5360429
20
13.3808046
40
0.5988917
50
24.0985653
51
29.732054
0
ARC
8
DEFAULT_255_1_388
10
21.4198061
20
13.3326154
40
0.7246823
50
8.6654943
51
23.8241215
0
ARC
8
DEFAULT_255_1_388
10
21.1684479
20
13.2916037
40
0.9793537
50
359.7807044
51
8.8218476
0
ARC
8
DEFAULT_255_1_388
10
21.0394184
20
13.2944731
40
0.9358078
50
359.7054632
51
8.0359751
0
ARC
8
DEFAULT_255_1_388
10
21.3769235
20
13.3436252
40
0.5947474
50
7.8926278
51
20.2962188
0
ARC
8
DEFAULT_255_1_388
10
21.5600085
20
13.4111367
40
0.3996117
50
20.3231056
51
36.4990255
0
ARC
8
DEFAULT_255_1_388
10
21.6371383
20
13.4705399
40
0.3022818
50
36.1436715
51
85.6627846
0
ARC
8
DEFAULT_255_1_388
10
21.6188638
20
13.3535881
40
0.4203853
50
84.3845912
51
90.076054
0
ARC
8
DEFAULT_255_1_388
10
21.6140993
20
13.4278416
40
0.346157
50
89.3037228
51
109.9046209
0
ARC
8
DEFAULT_255_1_388
10
21.6036826
20
13.4708379
40
0.3022217
50
110.8229774
51
143.917961
0
ARC
8
DEFAULT_255_1_388
10
21.7087185
20
13.3906455
40
0.434348
50
143.5289166
51
163.2980252
0
ARC
8
DEFAULT_255_1_388
10
21.9233472
20
13.3231685
40
0.659321
50
163.0418884
51
174.3139873
0
ARC
8
DEFAULT_255_1_388
10
22.1938437
20
13.2919378
40
0.9315905
50
174.050934
51
179.4174954
0
ARC
8
DEFAULT_255_1_388
10
22.1370381
20
13.2000382
40
0.8747493
50
179.6928582
51
188.7908948
0
ARC
8
DEFAULT_255_1_388
10
21.8374181
20
13.1521086
40
0.5713262
50
188.6328449
51
202.5630732
0
ARC
8
DEFAULT_255_1_388
10
21.6963018
20
13.0954142
40
0.4192612
50
202.8078931
51
216.1195888
0
ARC
8
DEFAULT_255_1_388
10
21.6052535
20
13.0221479
40
0.3025752
50
215.0755613
51
264.6379773
0
ARC
8
DEFAULT_255_1_388
10
21.6195372
20
13.1156376
40
0.3970284
50
263.8464302
51
270.0830805
0
ARC
8
DEFAULT_255_1_388
10
21.6241917
20
13.0865808
40
0.3679937
50
269.3649295
51
287.5149684
0
ARC
8
DEFAULT_255_1_388
10
21.6442358
20
13.0137714
40
0.2925408
50
288.0629019
51
323.8115617
0
ARC
8
DEFAULT_255_1_388
10
21.5462334
20
13.0868754
40
0.4148018
50
323.6546541
51
342.6591359
0
ARC
8
DEFAULT_255_1_388
10
21.3176992
20
13.161228
40
0.6551163
50
342.4092446
51
353.6451501
0
ARC
8
DEFAULT_255_1_388
10
20.9991785
20
13.2008565
40
0.9760748
50
353.4027553
51
359.4846611
0
LINE
8
DEFAULT_255_1_388
10
22.9140172
20
13.9113148
11
22.9140172
21
12.5894
0
LINE
8
DEFAULT_255_1_388
10
22.9140172
20
12.5894
11
22.7459542
21
12.5894
0
LINE
8
DEFAULT_255_1_388
10
22.7459542
20
12.5894
11
22.7459542
21
13.703495
0
LINE
8
DEFAULT_255_1_388
10
22.7459542
20
13.703495
11
22.4089247
21
13.5797066
0
LINE
8
DEFAULT_255_1_388
10
22.4089247
20
13.5797066
11
22.4089247
21
13.7315055
0
LINE
8
DEFAULT_255_1_388
10
22.4089247
20
13.7315055
11
22.8878139
21
13.9113148
0
LINE
8
DEFAULT_255_1_388
10
22.8878139
20
13.9113148
11
22.9140172
21
13.9113148
0
LINE
8
DEFAULT_255_1_388
10
24.109433
20
13.9049898
11
24.109433
21
13.031243
0
LINE
8
DEFAULT_255_1_388
10
24.109433
20
13.031243
11
24.291953
21
13.031243
0
LINE
8
DEFAULT_255_1_388
10
24.291953
20
13.031243
11
24.291953
21
12.8948048
0
LINE
8
DEFAULT_255_1_388
10
24.291953
20
12.8948048
11
24.109433
21
12.8948048
0
LINE
8
DEFAULT_255_1_388
10
24.109433
20
12.8948048
11
24.109433
21
12.5894
0
LINE
8
DEFAULT_255_1_388
10
24.109433
20
12.5894
11
23.94137
21
12.5894
0
LINE
8
DEFAULT_255_1_388
10
23.94137
20
12.5894
11
23.94137
21
12.8948048
0
LINE
8
DEFAULT_255_1_388
10
23.94137
20
12.8948048
11
23.3423068
21
12.8948048
0
LINE
8
DEFAULT_255_1_388
10
23.3423068
20
12.8948048
11
23.3423068
21
12.9932933
0
LINE
8
DEFAULT_255_1_388
10
23.3423068
20
12.9932933
11
23.9314308
21
13.9049898
0
LINE
8
DEFAULT_255_1_388
10
23.9314308
20
13.9049898
11
24.109433
21
13.9049898
0
LINE
8
DEFAULT_255_1_388
10
23.9214916
20
13.6402455
11
23.5320553
21
13.031243
0
LINE
8
DEFAULT_255_1_388
10
23.5320553
20
13.031243
11
23.94137
21
13.031243
0
LINE
8
DEFAULT_255_1_388
10
23.94137
20
13.031243
11
23.94137
21
13.676388
0
LINE
8
DEFAULT_255_1_388
10
23.94137
20
13.676388
11
23.9214916
21
13.6402455
0
LINE
8
DEFAULT_255_1_388
10
22.2800946
20
21.2253553
11
22.2800946
21
21.1422274
0
LINE
8
DEFAULT_255_1_388
10
21.2220206
20
21.1304811
11
21.2220206
21
21.2253553
0
LINE
8
DEFAULT_255_1_388
10
22.1075138
20
21.1295775
11
22.1075138
21
21.2271625
0
LINE
8
DEFAULT_255_1_388
10
21.3946014
20
21.2389088
11
21.3946014
21
21.1422274
0
ARC
8
DEFAULT_255_1_388
10
21.3078684
20
21.1377726
40
0.9722364
50
350.4878118
51
0.2625322
0
ARC
8
DEFAULT_255_1_388
10
21.5658644
20
21.0933994
40
0.7104556
50
336.0277991
51
350.5787241
0
ARC
8
DEFAULT_255_1_388
10
21.7171751
20
21.0250243
40
0.544417
50
319.887443
51
336.1331163
0
ARC
8
DEFAULT_255_1_388
10
21.7849563
20
20.9707733
40
0.4576311
50
302.4806296
51
319.6144102
0
ARC
8
DEFAULT_255_1_388
10
21.7720184
20
20.9957067
40
0.4856183
50
275.8196423
51
302.1885521
0
ARC
8
DEFAULT_255_1_388
10
21.7533046
20
21.1242466
40
0.6154183
50
269.9169897
51
276.339506
0
ARC
8
DEFAULT_255_1_388
10
21.7482646
20
21.047068
40
0.5382553
50
252.5221437
51
270.441579
0
ARC
8
DEFAULT_255_1_388
10
21.7320897
20
20.9864046
40
0.4755426
50
237.5349961
51
252.1858334
0
ARC
8
DEFAULT_255_1_388
10
21.7421273
20
20.999212
40
0.4917393
50
209.0632754
51
237.3492577
0
ARC
8
DEFAULT_255_1_388
10
21.8400599
20
21.0607104
40
0.6072464
50
205.118533
51
209.6465345
0
ARC
8
DEFAULT_255_1_388
10
21.9296601
20
21.0987174
40
0.7045164
50
188.7216633
51
204.8239753
0
ARC
8
DEFAULT_255_1_388
10
22.1543376
20
21.1365387
40
0.9323368
50
180.3722704
51
188.9253909
0
ARC
8
DEFAULT_255_1_388
10
22.1512938
20
21.2298416
40
0.929284
50
169.5253055
51
180.2766048
0
ARC
8
DEFAULT_255_1_388
10
21.9372737
20
21.2692024
40
0.7116745
50
155.8314601
51
169.5088611
0
ARC
8
DEFAULT_255_1_388
10
21.79322
20
21.3360312
40
0.5528904
50
139.6259579
51
156.0379072
0
ARC
8
DEFAULT_255_1_388
10
21.7268733
20
21.3894143
40
0.4677708
50
122.6414784
51
139.3431662
0
ARC
8
DEFAULT_255_1_388
10
21.7381988
20
21.3687787
40
0.4912586
50
93.0224537
51
122.4556091
0
ARC
8
DEFAULT_255_1_388
10
21.7503509
20
21.2601776
40
0.6003837
50
89.9756766
51
93.6340839
0
ARC
8
DEFAULT_255_1_388
10
21.7547107
20
21.3050879
40
0.5554884
50
73.7463329
51
90.4234008
0
ARC
8
DEFAULT_255_1_388
10
21.774458
20
21.3815772
40
0.4765353
50
57.663051
51
73.4516911
0
ARC
8
DEFAULT_255_1_388
10
21.7735618
20
21.3840108
40
0.4749629
50
29.1441355
51
57.4146687
0
ARC
8
DEFAULT_255_1_388
10
21.6683429
20
21.3183046
40
0.5988917
50
24.0985653
51
29.732054
0
ARC
8
DEFAULT_255_1_388
10
21.5521061
20
21.2701154
40
0.7246823
50
8.6654943
51
23.8241215
0
ARC
8
DEFAULT_255_1_388
10
21.3007479
20
21.2291037
40
0.9793537
50
359.7807044
51
8.8218476
0
ARC
8
DEFAULT_255_1_388
10
21.1717184
20
21.2319731
40
0.9358078
50
359.7054632
51
8.0359751
0
ARC
8
DEFAULT_255_1_388
10
21.5092235
20
21.2811252
40
0.5947474
50
7.8926278
51
20.2962188
0
ARC
8
DEFAULT_255_1_388
10
21.6923085
20
21.3486367
40
0.3996117
50
20.3231056
51
36.4990255
0
ARC
8
DEFAULT_255_1_388
10
21.7694383
20
21.4080399
40
0.3022818
50
36.1436715
51
85.6627846
0
ARC
8
DEFAULT_255_1_388
10
21.7511638
20
21.2910881
40
0.4203853
50
84.3845912
51
90.076054
0
ARC
8
DEFAULT_255_1_388
10
21.7463993
20
21.3653416
40
0.346157
50
89.3037228
51
109.9046209
0
ARC
8
DEFAULT_255_1_388
10
21.7359826
20
21.4083379
40
0.3022217
50
110.8229774
51
143.917961
0
ARC
8
DEFAULT_255_1_388
10
21.8410185
20
21.3281455
40
0.434348
50
143.5289166
51
163.2980252
0
ARC
8
DEFAULT_255_1_388
10
22.0556472
20
21.2606685
40
0.659321
50
163.0418884
51
174.3139873
0
ARC
8
DEFAULT_255_1_388
10
22.3261437
20
21.2294378
40
0.9315905
50
174.050934
51
179.4174954
0
ARC
8
DEFAULT_255_1_388
10
22.2693381
20
21.1375382
40
0.8747493
50
179.6928582
51
188.7908948
0
ARC
8
DEFAULT_255_1_388
10
21.9697181
20
21.0896086
40
0.5713262
50
188.6328449
51
202.5630732
0
ARC
8
DEFAULT_255_1_388
10
21.8286018
20
21.0329142
40
0.4192612
50
202.8078931
51
216.1195888
0
ARC
8
DEFAULT_255_1_388
10
21.7375535
20
20.9596479
40
0.3025752
50
215.0755613
51
264.6379773
0
ARC
8
DEFAULT_255_1_388
10
21.7518372
20
21.0531376
40
0.3970284
50
263.8464302
51
270.0830805
0
ARC
8
DEFAULT_255_1_388
10
21.7564917
20
21.0240808
40
0.3679937
50
269.3649295
51
287.5149684
0
ARC
8
DEFAULT_255_1_388
10
21.7765358
20
20.9512714
40
0.2925408
50
288.0629019
51
323.8115617
0
ARC
8
DEFAULT_255_1_388
10
21.6785334
20
21.0243754
40
0.4148018
50
323.6546541
51
342.6591359
0
ARC
8
DEFAULT_255_1_388
10
21.4499992
20
21.098728
40
0.6551163
50
342.4092446
51
353.6451501
0
ARC
8
DEFAULT_255_1_388
10
21.1314785
20
21.1383565
40
0.9760748
50
353.4027553
51
359.4846611
0
LINE
8
DEFAULT_255_1_388
10
23.0463172
20
21.8488148
11
23.0463172
21
20.5269
0
LINE
8
DEFAULT_255_1_388
10
23.0463172
20
20.5269
11
22.8782542
21
20.5269
0
LINE
8
DEFAULT_255_1_388
10
22.8782542
20
20.5269
11
22.8782542
21
21.640995
0
LINE
8
DEFAULT_255_1_388
10
22.8782542
20
21.640995
11
22.5412247
21
21.5172066
0
LINE
8
DEFAULT_255_1_388
10
22.5412247
20
21.5172066
11
22.5412247
21
21.6690055
0
LINE
8
DEFAULT_255_1_388
10
22.5412247
20
21.6690055
11
23.0201139
21
21.8488148
0
LINE
8
DEFAULT_255_1_388
10
23.0201139
20
21.8488148
11
23.0463172
21
21.8488148
0
LINE
8
DEFAULT_255_1_388
10
23.779108
20
21.1295775
11
23.779108
21
21.2660157
0
LINE
8
DEFAULT_255_1_388
10
23.779108
20
21.2660157
11
23.9047035
21
21.2660157
0
LINE
8
DEFAULT_255_1_388
10
23.6905587
20
21.4973282
11
23.5233993
21
21.4973282
0
LINE
8
DEFAULT_255_1_388
10
23.5116529
20
20.8738688
11
23.6797159
21
20.8738688
0
LINE
8
DEFAULT_255_1_388
10
23.9047035
20
21.1295775
11
23.779108
21
21.1295775
0
ARC
8
DEFAULT_255_1_388
10
23.9014261
20
21.6476922
40
0.3816905
50
270.491971
51
281.8953028
0
ARC
8
DEFAULT_255_1_388
10
23.9285688
20
21.5237199
40
0.2547877
50
281.6690378
51
301.2943765
0
ARC
8
DEFAULT_255_1_388
10
23.9477139
20
21.4886926
40
0.2149197
50
301.7834992
51
311.754567
0
ARC
8
DEFAULT_255_1_388
10
23.9580181
20
21.477265
40
0.1995326
50
311.7325027
51
354.2803031
0
ARC
8
DEFAULT_255_1_388
10
23.8762597
20
21.491328
40
0.2823461
50
353.0941646
51
0.1174696
0
ARC
8
DEFAULT_255_1_388
10
23.8244155
20
21.4966874
40
0.3342238
50
359.1804452
51
15.0452323
0
ARC
8
DEFAULT_255_1_388
10
23.9758213
20
21.5408546
40
0.1765747
50
13.957816
51
77.6713812
0
ARC
8
DEFAULT_255_1_388
10
23.9323449
20
21.3850464
40
0.3381982
50
76.111571
51
90.7028736
0
ARC
8
DEFAULT_255_1_388
10
23.9256861
20
21.415825
40
0.3074046
50
89.5321574
51
103.5319393
0
ARC
8
DEFAULT_255_1_388
10
23.9031245
20
21.5057443
40
0.2147041
50
103.2930114
51
133.5619756
0
ARC
8
DEFAULT_255_1_388
10
23.8981186
20
21.5124351
40
0.2064084
50
133.8349761
51
173.5343225
0
ARC
8
DEFAULT_255_1_388
10
23.9794844
20
21.4980144
40
0.2889266
50
172.5097183
51
180.1360699
0
ARC
8
DEFAULT_255_1_388
10
23.8724607
20
21.501888
40
0.3490913
50
155.3483706
51
180.7484035
0
ARC
8
DEFAULT_255_1_388
10
23.8669583
20
21.4986519
40
0.3454798
50
131.5745177
51
154.4799474
0
ARC
8
DEFAULT_255_1_388
10
23.9021866
20
21.4630422
40
0.3955058
50
96.9874487
51
131.9690874
0
ARC
8
DEFAULT_255_1_388
10
23.9268758
20
21.3229407
40
0.537622
50
89.8592909
51
97.7827481
0
ARC
8
DEFAULT_255_1_388
10
23.9322867
20
21.293436
40
0.5671399
50
78.3654493
51
90.4132586
0
ARC
8
DEFAULT_255_1_388
10
23.9725508
20
21.4800918
40
0.3762034
50
56.6229818
51
78.6387103
0
ARC
8
DEFAULT_255_1_388
10
23.9967338
20
21.5223846
40
0.3275964
50
47.0254604
51
56.085558
0
ARC
8
DEFAULT_255_1_388
10
23.9989589
20
21.5268189
40
0.3228382
50
10.9207523
51
46.777927
0
ARC
8
DEFAULT_255_1_388
10
23.8455183
20
21.4913401
40
0.4802559
50
359.6364235
51
11.6087615
0
ARC
8
DEFAULT_255_1_388
10
24.0519348
20
21.4896404
40
0.273833
50
332.3549969
51
359.7179765
0
ARC
8
DEFAULT_255_1_388
10
23.9787749
20
21.5243285
40
0.3547505
50
325.2332381
51
332.8746682
0
ARC
8
DEFAULT_255_1_388
10
23.9959332
20
21.5123763
40
0.3338396
50
292.9803892
51
325.2391113
0
ARC
8
DEFAULT_255_1_388
10
23.9648528
20
21.5728679
40
0.4016959
50
292.542178
51
293.6931461
0
ARC
8
DEFAULT_255_1_388
10
24.00921
20
20.8463036
40
0.372079
50
57.643292
51
72.8626085
0
ARC
8
DEFAULT_255_1_388
10
24.0490934
20
20.9109273
40
0.2961455
50
36.7246661
51
57.4701329
0
ARC
8
DEFAULT_255_1_388
10
24.0478091
20
20.912347
40
0.2963321
50
8.054535
51
36.3561529
0
ARC
8
DEFAULT_255_1_388
10
23.9507763
20
20.8949073
40
0.3948682
50
359.8316595
51
8.5873361
0
ARC
8
DEFAULT_255_1_388
10
23.9085238
20
20.889497
40
0.4371398
50
343.9831631
51
0.557075
0
ARC
8
DEFAULT_255_1_388
10
24.0082287
20
20.8621963
40
0.3337749
50
311.6358204
51
343.7652116
0
ARC
8
DEFAULT_255_1_388
10
23.9656541
20
20.9101955
40
0.3979351
50
279.7829743
51
311.625622
0
ARC
8
DEFAULT_255_1_388
10
23.9317676
20
21.0718642
40
0.5630417
50
269.7285092
51
280.3857694
0
ARC
8
DEFAULT_255_1_388
10
23.9247989
20
21.0672241
40
0.5584119
50
256.6827433
51
270.4412869
0
ARC
8
DEFAULT_255_1_388
10
23.8866976
20
20.9114698
40
0.3980715
50
229.4223821
51
256.8554507
0
ARC
8
DEFAULT_255_1_388
10
23.8400529
20
20.8589683
40
0.3278564
50
181.8183354
51
229.6455015
0
ARC
8
DEFAULT_255_1_388
10
23.9570139
20
20.8736825
40
0.4453611
50
179.9760419
51
183.2330638
0
ARC
8
DEFAULT_255_1_388
10
23.9376691
20
20.8713781
40
0.2579652
50
179.4467996
51
196.2871626
0
ARC
8
DEFAULT_255_1_388
10
23.8828145
20
20.8563709
40
0.2011057
50
196.5661293
51
227.7059371
0
ARC
8
DEFAULT_255_1_388
10
23.9012752
20
20.8770155
40
0.2287994
50
227.7653015
51
257.8763321
0
ARC
8
DEFAULT_255_1_388
10
23.9265835
20
20.9830961
40
0.3378385
50
257.4583525
51
270.4267406
0
ARC
8
DEFAULT_255_1_388
10
23.9317084
20
21.015723
40
0.3704652
50
269.5965319
51
280.8788143
0
ARC
8
DEFAULT_255_1_388
10
23.9575312
20
20.8867529
40
0.2389415
50
280.6347277
51
299.8594068
0
ARC
8
DEFAULT_255_1_388
10
23.9790082
20
20.8459736
40
0.19289
50
300.3575552
51
314.5515667
0
ARC
8
DEFAULT_255_1_388
10
23.9696758
20
20.8528025
40
0.204312
50
315.0730962
51
345.0429362
0
ARC
8
DEFAULT_255_1_388
10
23.8658265
20
20.8830539
40
0.31246
50
344.598526
51
357.9270698
0
ARC
8
DEFAULT_255_1_388
10
23.764857
20
20.8899705
40
0.4136265
50
357.4755098
51
0.0224936
0
ARC
8
DEFAULT_255_1_388
10
23.8801448
20
20.8927099
40
0.2983498
50
359.5051035
51
13.4236939
0
ARC
8
DEFAULT_255_1_388
10
23.9776538
20
20.9176637
40
0.1977186
50
12.9497905
51
48.7550905
0
ARC
8
DEFAULT_255_1_388
10
23.957146
20
20.8896373
40
0.2323321
50
49.509109
51
72.1832965
0
ARC
8
DEFAULT_255_1_388
10
23.9168928
20
20.7701632
40
0.358397
50
71.9008458
51
84.3555134
0
ARC
8
DEFAULT_255_1_388
10
23.8987323
20
20.6169712
40
0.512641
50
84.019632
51
89.3326067
0
LINE
8
DEFAULT_255_1_388
10
22.2800946
20
29.1628553
11
22.2800946
21
29.0797274
0
LINE
8
DEFAULT_255_1_388
10
21.2220206
20
29.0679811
11
21.2220206
21
29.1628553
0
LINE
8
DEFAULT_255_1_388
10
22.1075138
20
29.0670775
11
22.1075138
21
29.1646625
0
LINE
8
DEFAULT_255_1_388
10
21.3946014
20
29.1764088
11
21.3946014
21
29.0797274
0
ARC
8
DEFAULT_255_1_388
10
21.3078684
20
29.0752726
40
0.9722364
50
350.4878118
51
0.2625322
0
ARC
8
DEFAULT_255_1_388
10
21.5658644
20
29.0308994
40
0.7104556
50
336.0277991
51
350.5787241
0
ARC
8
DEFAULT_255_1_388
10
21.7171751
20
28.9625243
40
0.544417
50
319.887443
51
336.1331163
0
ARC
8
DEFAULT_255_1_388
10
21.7849563
20
28.9082733
40
0.4576311
50
302.4806296
51
319.6144102
0
ARC
8
DEFAULT_255_1_388
10
21.7720184
20
28.9332067
40
0.4856183
50
275.8196423
51
302.1885521
0
ARC
8
DEFAULT_255_1_388
10
21.7533046
20
29.0617466
40
0.6154183
50
269.9169897
51
276.339506
0
ARC
8
DEFAULT_255_1_388
10
21.7482646
20
28.984568
40
0.5382553
50
252.5221437
51
270.441579
0
ARC
8
DEFAULT_255_1_388
10
21.7320897
20
28.9239046
40
0.4755426
50
237.5349961
51
252.1858334
0
ARC
8
DEFAULT_255_1_388
10
21.7421273
20
28.936712
40
0.4917393
50
209.0632754
51
237.3492577
0
ARC
8
DEFAULT_255_1_388
10
21.8400599
20
28.9982104
40
0.6072464
50
205.118533
51
209.6465345
0
ARC
8
DEFAULT_255_1_388
10
21.9296601
20
29.0362174
40
0.7045164
50
188.7216633
51
204.8239753
0
ARC
8
DEFAULT_255_1_388
10
22.1543376
20
29.0740387
40
0.9323368
50
180.3722704
51
188.9253909
0
ARC
8
DEFAULT_255_1_388
10
22.1512938
20
29.1673416
40
0.929284
50
169.5253055
51
180.2766048
0
ARC
8
DEFAULT_255_1_388
10
21.9372737
20
29.2067024
40
0.7116745
50
155.8314601
51
169.5088611
0
ARC
8
DEFAULT_255_1_388
10
21.79322
20
29.2735312
40
0.5528904
50
139.6259579
51
156.0379072
0
ARC
8
DEFAULT_255_1_388
10
21.7268733
20
29.3269143
40
0.4677708
50
122.6414784
51
139.3431662
0
ARC
8
DEFAULT_255_1_388
10
21.7381988
20
29.3062787
40
0.4912586
50
93.0224537
51
122.4556091
0
ARC
8
DEFAULT_255_1_388
10
21.7503509
20
29.1976776
40
0.6003837
50
89.9756766
51
93.6340839
0
ARC
8
DEFAULT_255_1_388
10
21.7547107
20
29.2425879
40
0.5554884
50
73.7463329
51
90.4234008
0
ARC
8
DEFAULT_255_1_388
10
21.774458
20
29.3190772
40
0.4765353
50
57.663051
51
73.4516911
0
ARC
8
DEFAULT_255_1_388
10
21.7735618
20
29.3215108
40
0.4749629
50
29.1441355
51
57.4146687
0
ARC
8
DEFAULT_255_1_388
10
21.6683429
20
29.2558046
40
0.5988917
50
24.0985653
51
29.732054
0
ARC
8
DEFAULT_255_1_388
10
21.5521061
20
29.2076154
40
0.7246823
50
8.6654943
51
23.8241215
0
ARC
8
DEFAULT_255_1_388
10
21.3007479
20
29.1666037
40
0.9793537
50
359.7807044
51
8.8218476
0
ARC
8
DEFAULT_255_1_388
10
21.1717184
20
29.1694731
40
0.9358078
50
359.7054632
51
8.0359751
0
ARC
8
DEFAULT_255_1_388
10
21.5092235
20
29.2186252
40
0.5947474
50
7.8926278
51
20.2962188
0
ARC
8
DEFAULT_255_1_388
10
21.6923085
20
29.2861367
40
0.3996117
50
20.3231056
51
36.4990255
0
ARC
8
DEFAULT_255_1_388
10
21.7694383
20
29.3455399
40
0.3022818
50
36.1436715
51
85.6627846
0
ARC
8
DEFAULT_255_1_388
10
21.7511638
20
29.2285881
40
0.4203853
50
84.3845912
51
90.076054
0
ARC
8
DEFAULT_255_1_388
10
21.7463993
20
29.3028416
40
0.346157
50
89.3037228
51
109.9046209
0
ARC
8
DEFAULT_255_1_388
10
21.7359826
20
29.3458379
40
0.3022217
50
110.8229774
51
143.917961
0
ARC
8
DEFAULT_255_1_388
10
21.8410185
20
29.2656455
40
0.434348
50
143.5289166
51
163.2980252
0
ARC
8
DEFAULT_255_1_388
10
22.0556472
20
29.1981685
40
0.659321
50
163.0418884
51
174.3139873
0
ARC
8
DEFAULT_255_1_388
10
22.3261437
20
29.1669378
40
0.9315905
50
174.050934
51
179.4174954
0
ARC
8
DEFAULT_255_1_388
10
22.2693381
20
29.0750382
40
0.8747493
50
179.6928582
51
188.7908948
0
ARC
8
DEFAULT_255_1_388
10
21.9697181
20
29.0271086
40
0.5713262
50
188.6328449
51
202.5630732
0
ARC
8
DEFAULT_255_1_388
10
21.8286018
20
28.9704142
40
0.4192612
50
202.8078931
51
216.1195888
0
ARC
8
DEFAULT_255_1_388
10
21.7375535
20
28.8971479
40
0.3025752
50
215.0755613
51
264.6379773
0
ARC
8
DEFAULT_255_1_388
10
21.7518372
20
28.9906376
40
0.3970284
50
263.8464302
51
270.0830805
0
ARC
8
DEFAULT_255_1_388
10
21.7564917
20
28.9615808
40
0.3679937
50
269.3649295
51
287.5149684
0
ARC
8
DEFAULT_255_1_388
10
21.7765358
20
28.8887714
40
0.2925408
50
288.0629019
51
323.8115617
0
ARC
8
DEFAULT_255_1_388
10
21.6785334
20
28.9618754
40
0.4148018
50
323.6546541
51
342.6591359
0
ARC
8
DEFAULT_255_1_388
10
21.4499992
20
29.036228
40
0.6551163
50
342.4092446
51
353.6451501
0
ARC
8
DEFAULT_255_1_388
10
21.1314785
20
29.0758565
40
0.9760748
50
353.4027553
51
359.4846611
0
LINE
8
DEFAULT_255_1_388
10
23.0463172
20
29.7863148
11
23.0463172
21
28.4644
0
LINE
8
DEFAULT_255_1_388
10
23.0463172
20
28.4644
11
22.8782542
21
28.4644
0
LINE
8
DEFAULT_255_1_388
10
22.8782542
20
28.4644
11
22.8782542
21
29.578495
0
LINE
8
DEFAULT_255_1_388
10
22.8782542
20
29.578495
11
22.5412247
21
29.4547066
0
LINE
8
DEFAULT_255_1_388
10
22.5412247
20
29.4547066
11
22.5412247
21
29.6065055
0
LINE
8
DEFAULT_255_1_388
10
22.5412247
20
29.6065055
11
23.0201139
21
29.7863148
0
LINE
8
DEFAULT_255_1_388
10
23.0201139
20
29.7863148
11
23.0463172
21
29.7863148
0
LINE
8
DEFAULT_255_1_388
10
24.3980497
20
28.6008382
11
24.3980497
21
28.4644
0
LINE
8
DEFAULT_255_1_388
10
24.3980497
20
28.4644
11
23.5360492
21
28.4644
0
LINE
8
DEFAULT_255_1_388
10
23.5360492
20
28.4644
11
23.5360492
21
28.5845741
0
LINE
8
DEFAULT_255_1_388
10
23.5360492
20
28.5845741
11
23.9914457
21
29.0905702
0
LINE
8
DEFAULT_255_1_388
10
23.6779088
20
29.3923607
11
23.5107494
21
29.3923607
0
LINE
8
DEFAULT_255_1_388
10
24.0899342
20
28.983046
11
23.737544
21
28.6008382
0
LINE
8
DEFAULT_255_1_388
10
23.737544
20
28.6008382
11
24.3980497
21
28.6008382
0
ARC
8
DEFAULT_255_1_388
10
22.4738516
20
30.4325983
40
2.0258655
50
318.5132526
51
320.7829045
0
ARC
8
DEFAULT_255_1_388
10
23.0686473
20
29.9484929
40
1.2589638
50
320.7372878
51
323.9739031
0
ARC
8
DEFAULT_255_1_388
10
23.5095405
20
29.6290554
40
0.7145141
50
323.8962701
51
328.64194
0
ARC
8
DEFAULT_255_1_388
10
23.7397662
20
29.4870545
40
0.4440242
50
328.8294576
51
331.7891185
0
ARC
8
DEFAULT_255_1_388
10
23.8519982
20
29.4291374
40
0.3177517
50
331.4254512
51
352.9365785
0
ARC
8
DEFAULT_255_1_388
10
23.8672982
20
29.425705
40
0.3021496
50
353.2257659
51
0.0166158
0
ARC
8
DEFAULT_255_1_388
10
23.8909743
20
29.4282894
40
0.2784847
50
359.486299
51
15.9343185
0
ARC
8
DEFAULT_255_1_388
10
23.948001
20
29.4436269
40
0.2194403
50
16.1712913
51
43.5286088
0
ARC
8
DEFAULT_255_1_388
10
23.9566954
20
29.4523191
40
0.2071504
50
43.4417391
51
83.1661095
0
ARC
8
DEFAULT_255_1_388
10
23.9416115
20
29.3694316
40
0.2912888
50
82.160179
51
90.1505708
0
ARC
8
DEFAULT_255_1_388
10
23.9380597
20
29.3090279
40
0.3517025
50
89.5460741
51
102.5418361
0
ARC
8
DEFAULT_255_1_388
10
23.9107317
20
29.4249933
40
0.2325748
50
102.1738499
51
129.206123
0
ARC
8
DEFAULT_255_1_388
10
23.901877
20
29.4389664
40
0.2161591
50
129.72865
51
135.753947
0
ARC
8
DEFAULT_255_1_388
10
23.9155253
20
29.4280728
40
0.2335433
50
136.1757367
51
166.3673339
0
ARC
8
DEFAULT_255_1_388
10
24.0287941
20
29.3977148
40
0.3507873
50
165.9090694
51
178.8684636
0
ARC
8
DEFAULT_255_1_388
10
24.1263712
20
29.3924263
40
0.4484624
50
178.4391136
51
180.0083808
0
ARC
8
DEFAULT_255_1_388
10
23.9684414
20
29.3968197
40
0.4577138
50
163.2878482
51
180.5581842
0
ARC
8
DEFAULT_255_1_388
10
23.8782455
20
29.4216393
40
0.3641968
50
133.4540601
51
162.947111
0
ARC
8
DEFAULT_255_1_388
10
23.8983337
20
29.4002789
40
0.3935189
50
100.7869829
51
133.4382499
0
ARC
8
DEFAULT_255_1_388
10
23.9374582
20
29.2260399
40
0.5720313
50
89.660664
51
101.3702276
0
ARC
8
DEFAULT_255_1_388
10
23.9449191
20
29.2329263
40
0.5651495
50
78.2172678
51
90.412935
0
ARC
8
DEFAULT_255_1_388
10
23.9848657
20
29.4156511
40
0.378122
50
55.9269121
51
78.4888449
0
ARC
8
DEFAULT_255_1_388
10
24.0069372
20
29.4537187
40
0.3342379
50
47.929771
51
55.4049217
0
ARC
8
DEFAULT_255_1_388
10
24.0183902
20
29.4653618
40
0.3179217
50
4.334829
51
48.0560205
0
ARC
8
DEFAULT_255_1_388
10
23.8951704
20
29.4462487
40
0.442341
50
359.9251713
51
5.5971671
0
ARC
8
DEFAULT_255_1_388
10
23.9433858
20
29.4525728
40
0.3941854
50
337.8914027
51
358.9967534
0
ARC
8
DEFAULT_255_1_388
10
23.6381429
20
29.5703295
40
0.7213271
50
326.9132501
51
338.3508308
0
ARC
8
DEFAULT_255_1_388
10
23.189754
20
29.8577105
40
1.2538973
50
319.6471833
51
327.0959558
0
ARC
8
DEFAULT_255_1_388
10
22.7584199
20
30.213505
40
1.8129975
50
317.2588228
51
319.9045804
0
LINE
8
DEFAULT_255_1_388
10
22.2874946
20
37.1003553
11
22.2874946
21
37.0172274
0
LINE
8
DEFAULT_255_1_388
10
21.2294206
20
37.0054811
11
21.2294206
21
37.1003553
0
LINE
8
DEFAULT_255_1_388
10
22.1149138
20
37.0045775
11
22.1149138
21
37.1021625
0
LINE
8
DEFAULT_255_1_388
10
21.4020014
20
37.1139088
11
21.4020014
21
37.0172274
0
ARC
8
DEFAULT_255_1_388
10
21.3152684
20
37.0127726
40
0.9722364
50
350.4878118
51
0.2625322
0
ARC
8
DEFAULT_255_1_388
10
21.5732644
20
36.9683994
40
0.7104556
50
336.0277991
51
350.5787241
0
ARC
8
DEFAULT_255_1_388
10
21.7245751
20
36.9000243
40
0.544417
50
319.887443
51
336.1331163
0
ARC
8
DEFAULT_255_1_388
10
21.7923563
20
36.8457733
40
0.4576311
50
302.4806296
51
319.6144102
0
ARC
8
DEFAULT_255_1_388
10
21.7794184
20
36.8707067
40
0.4856183
50
275.8196423
51
302.1885521
0
ARC
8
DEFAULT_255_1_388
10
21.7607046
20
36.9992466
40
0.6154183
50
269.9169897
51
276.339506
0
ARC
8
DEFAULT_255_1_388
10
21.7556646
20
36.922068
40
0.5382553
50
252.5221437
51
270.441579
0
ARC
8
DEFAULT_255_1_388
10
21.7394897
20
36.8614046
40
0.4755426
50
237.5349961
51
252.1858334
0
ARC
8
DEFAULT_255_1_388
10
21.7495273
20
36.874212
40
0.4917393
50
209.0632754
51
237.3492577
0
ARC
8
DEFAULT_255_1_388
10
21.8474599
20
36.9357104
40
0.6072464
50
205.118533
51
209.6465345
0
ARC
8
DEFAULT_255_1_388
10
21.9370601
20
36.9737174
40
0.7045164
50
188.7216633
51
204.8239753
0
ARC
8
DEFAULT_255_1_388
10
22.1617376
20
37.0115387
40
0.9323368
50
180.3722704
51
188.9253909
0
ARC
8
DEFAULT_255_1_388
10
22.1586938
20
37.1048416
40
0.929284
50
169.5253055
51
180.2766048
0
ARC
8
DEFAULT_255_1_388
10
21.9446737
20
37.1442024
40
0.7116745
50
155.8314601
51
169.5088611
0
ARC
8
DEFAULT_255_1_388
10
21.80062
20
37.2110312
40
0.5528904
50
139.6259579
51
156.0379072
0
ARC
8
DEFAULT_255_1_388
10
21.7342733
20
37.2644143
40
0.4677708
50
122.6414784
51
139.3431662
0
ARC
8
DEFAULT_255_1_388
10
21.7455988
20
37.2437787
40
0.4912586
50
93.0224537
51
122.4556091
0
ARC
8
DEFAULT_255_1_388
10
21.7577509
20
37.1351776
40
0.6003837
50
89.9756766
51
93.6340839
0
ARC
8
DEFAULT_255_1_388
10
21.7621107
20
37.1800879
40
0.5554884
50
73.7463329
51
90.4234008
0
ARC
8
DEFAULT_255_1_388
10
21.781858
20
37.2565772
40
0.4765353
50
57.663051
51
73.4516911
0
ARC
8
DEFAULT_255_1_388
10
21.7809618
20
37.2590108
40
0.4749629
50
29.1441355
51
57.4146687
0
ARC
8
DEFAULT_255_1_388
10
21.6757429
20
37.1933046
40
0.5988917
50
24.0985653
51
29.732054
0
ARC
8
DEFAULT_255_1_388
10
21.5595061
20
37.1451154
40
0.7246823
50
8.6654943
51
23.8241215
0
ARC
8
DEFAULT_255_1_388
10
21.3081479
20
37.1041037
40
0.9793537
50
359.7807044
51
8.8218476
0
ARC
8
DEFAULT_255_1_388
10
21.1791184
20
37.1069731
40
0.9358078
50
359.7054632
51
8.0359751
0
ARC
8
DEFAULT_255_1_388
10
21.5166235
20
37.1561252
40
0.5947474
50
7.8926278
51
20.2962188
0
ARC
8
DEFAULT_255_1_388
10
21.6997085
20
37.2236367
40
0.3996117
50
20.3231056
51
36.4990255
0
ARC
8
DEFAULT_255_1_388
10
21.7768383
20
37.2830399
40
0.3022818
50
36.1436715
51
85.6627846
0
ARC
8
DEFAULT_255_1_388
10
21.7585638
20
37.1660881
40
0.4203853
50
84.3845912
51
90.076054
0
ARC
8
DEFAULT_255_1_388
10
21.7537993
20
37.2403416
40
0.346157
50
89.3037228
51
109.9046209
0
ARC
8
DEFAULT_255_1_388
10
21.7433826
20
37.2833379
40
0.3022217
50
110.8229774
51
143.917961
0
ARC
8
DEFAULT_255_1_388
10
21.8484185
20
37.2031455
40
0.434348
50
143.5289166
51
163.2980252
0
ARC
8
DEFAULT_255_1_388
10
22.0630472
20
37.1356685
40
0.659321
50
163.0418884
51
174.3139873
0
ARC
8
DEFAULT_255_1_388
10
22.3335437
20
37.1044378
40
0.9315905
50
174.050934
51
179.4174954
0
ARC
8
DEFAULT_255_1_388
10
22.2767381
20
37.0125382
40
0.8747493
50
179.6928582
51
188.7908948
0
ARC
8
DEFAULT_255_1_388
10
21.9771181
20
36.9646086
40
0.5713262
50
188.6328449
51
202.5630732
0
ARC
8
DEFAULT_255_1_388
10
21.8360018
20
36.9079142
40
0.4192612
50
202.8078931
51
216.1195888
0
ARC
8
DEFAULT_255_1_388
10
21.7449535
20
36.8346479
40
0.3025752
50
215.0755613
51
264.6379773
0
ARC
8
DEFAULT_255_1_388
10
21.7592372
20
36.9281376
40
0.3970284
50
263.8464302
51
270.0830805
0
ARC
8
DEFAULT_255_1_388
10
21.7638917
20
36.8990808
40
0.3679937
50
269.3649295
51
287.5149684
0
ARC
8
DEFAULT_255_1_388
10
21.7839358
20
36.8262714
40
0.2925408
50
288.0629019
51
323.8115617
0
ARC
8
DEFAULT_255_1_388
10
21.6859334
20
36.8993754
40
0.4148018
50
323.6546541
51
342.6591359
0
ARC
8
DEFAULT_255_1_388
10
21.4573992
20
36.973728
40
0.6551163
50
342.4092446
51
353.6451501
0
ARC
8
DEFAULT_255_1_388
10
21.1388785
20
37.0133565
40
0.9760748
50
353.4027553
51
359.4846611
0
LINE
8
DEFAULT_255_1_388
10
23.0537172
20
37.7238148
11
23.0537172
21
36.4019
0
LINE
8
DEFAULT_255_1_388
10
23.0537172
20
36.4019
11
22.8856542
21
36.4019
0
LINE
8
DEFAULT_255_1_388
10
22.8856542
20
36.4019
11
22.8856542
21
37.515995
0
LINE
8
DEFAULT_255_1_388
10
22.8856542
20
37.515995
11
22.5486247
21
37.3922066
0
LINE
8
DEFAULT_255_1_388
10
22.5486247
20
37.3922066
11
22.5486247
21
37.5440055
0
LINE
8
DEFAULT_255_1_388
10
22.5486247
20
37.5440055
11
23.0275139
21
37.7238148
0
LINE
8
DEFAULT_255_1_388
10
23.0275139
20
37.7238148
11
23.0537172
21
37.7238148
0
LINE
8
DEFAULT_255_1_388
10
24.0928164
20
37.7238148
11
24.0928164
21
36.4019
0
LINE
8
DEFAULT_255_1_388
10
24.0928164
20
36.4019
11
23.9247534
21
36.4019
0
LINE
8
DEFAULT_255_1_388
10
23.9247534
20
36.4019
11
23.9247534
21
37.515995
0
LINE
8
DEFAULT_255_1_388
10
23.9247534
20
37.515995
11
23.5877238
21
37.3922066
0
LINE
8
DEFAULT_255_1_388
10
23.5877238
20
37.3922066
11
23.5877238
21
37.5440055
0
LINE
8
DEFAULT_255_1_388
10
23.5877238
20
37.5440055
11
24.066613
21
37.7238148
0
LINE
8
DEFAULT_255_1_388
10
24.066613
20
37.7238148
11
24.0928164
21
37.7238148
0
LINE
8
DEFAULT_255_1_388
10
22.2800946
20
45.0378553
11
22.2800946
21
44.9547274
0
LINE
8
DEFAULT_255_1_388
10
21.2220206
20
44.9429811
11
21.2220206
21
45.0378553
0
LINE
8
DEFAULT_255_1_388
10
22.1075138
20
44.9420775
11
22.1075138
21
45.0396625
0
LINE
8
DEFAULT_255_1_388
10
21.3946014
20
45.0514088
11
21.3946014
21
44.9547274
0
ARC
8
DEFAULT_255_1_388
10
21.3078684
20
44.9502726
40
0.9722364
50
350.4878118
51
0.2625322
0
ARC
8
DEFAULT_255_1_388
10
21.5658644
20
44.9058994
40
0.7104556
50
336.0277991
51
350.5787241
0
ARC
8
DEFAULT_255_1_388
10
21.7171751
20
44.8375243
40
0.544417
50
319.887443
51
336.1331163
0
ARC
8
DEFAULT_255_1_388
10
21.7849563
20
44.7832733
40
0.4576311
50
302.4806296
51
319.6144102
0
ARC
8
DEFAULT_255_1_388
10
21.7720184
20
44.8082067
40
0.4856183
50
275.8196423
51
302.1885521
0
ARC
8
DEFAULT_255_1_388
10
21.7533046
20
44.9367466
40
0.6154183
50
269.9169897
51
276.339506
0
ARC
8
DEFAULT_255_1_388
10
21.7482646
20
44.859568
40
0.5382553
50
252.5221437
51
270.441579
0
ARC
8
DEFAULT_255_1_388
10
21.7320897
20
44.7989046
40
0.4755426
50
237.5349961
51
252.1858334
0
ARC
8
DEFAULT_255_1_388
10
21.7421273
20
44.811712
40
0.4917393
50
209.0632754
51
237.3492577
0
ARC
8
DEFAULT_255_1_388
10
21.8400599
20
44.8732104
40
0.6072464
50
205.118533
51
209.6465345
0
ARC
8
DEFAULT_255_1_388
10
21.9296601
20
44.9112174
40
0.7045164
50
188.7216633
51
204.8239753
0
ARC
8
DEFAULT_255_1_388
10
22.1543376
20
44.9490387
40
0.9323368
50
180.3722704
51
188.9253909
0
ARC
8
DEFAULT_255_1_388
10
22.1512938
20
45.0423416
40
0.929284
50
169.5253055
51
180.2766048
0
ARC
8
DEFAULT_255_1_388
10
21.9372737
20
45.0817024
40
0.7116745
50
155.8314601
51
169.5088611
0
ARC
8
DEFAULT_255_1_388
10
21.79322
20
45.1485312
40
0.5528904
50
139.6259579
51
156.0379072
0
ARC
8
DEFAULT_255_1_388
10
21.7268733
20
45.2019143
40
0.4677708
50
122.6414784
51
139.3431662
0
ARC
8
DEFAULT_255_1_388
10
21.7381988
20
45.1812787
40
0.4912586
50
93.0224537
51
122.4556091
0
ARC
8
DEFAULT_255_1_388
10
21.7503509
20
45.0726776
40
0.6003837
50
89.9756766
51
93.6340839
0
ARC
8
DEFAULT_255_1_388
10
21.7547107
20
45.1175879
40
0.5554884
50
73.7463329
51
90.4234008
0
ARC
8
DEFAULT_255_1_388
10
21.774458
20
45.1940772
40
0.4765353
50
57.663051
51
73.4516911
0
ARC
8
DEFAULT_255_1_388
10
21.7735618
20
45.1965108
40
0.4749629
50
29.1441355
51
57.4146687
0
ARC
8
DEFAULT_255_1_388
10
21.6683429
20
45.1308046
40
0.5988917
50
24.0985653
51
29.732054
0
ARC
8
DEFAULT_255_1_388
10
21.5521061
20
45.0826154
40
0.7246823
50
8.6654943
51
23.8241215
0
ARC
8
DEFAULT_255_1_388
10
21.3007479
20
45.0416037
40
0.9793537
50
359.7807044
51
8.8218476
0
ARC
8
DEFAULT_255_1_388
10
21.1717184
20
45.0444731
40
0.9358078
50
359.7054632
51
8.0359751
0
ARC
8
DEFAULT_255_1_388
10
21.5092235
20
45.0936252
40
0.5947474
50
7.8926278
51
20.2962188
0
ARC
8
DEFAULT_255_1_388
10
21.6923085
20
45.1611367
40
0.3996117
50
20.3231056
51
36.4990255
0
ARC
8
DEFAULT_255_1_388
10
21.7694383
20
45.2205399
40
0.3022818
50
36.1436715
51
85.6627846
0
ARC
8
DEFAULT_255_1_388
10
21.7511638
20
45.1035881
40
0.4203853
50
84.3845912
51
90.076054
0
ARC
8
DEFAULT_255_1_388
10
21.7463993
20
45.1778416
40
0.346157
50
89.3037228
51
109.9046209
0
ARC
8
DEFAULT_255_1_388
10
21.7359826
20
45.2208379
40
0.3022217
50
110.8229774
51
143.917961
0
ARC
8
DEFAULT_255_1_388
10
21.8410185
20
45.1406455
40
0.434348
50
143.5289166
51
163.2980252
0
ARC
8
DEFAULT_255_1_388
10
22.0556472
20
45.0731685
40
0.659321
50
163.0418884
51
174.3139873
0
ARC
8
DEFAULT_255_1_388
10
22.3261437
20
45.0419378
40
0.9315905
50
174.050934
51
179.4174954
0
ARC
8
DEFAULT_255_1_388
10
22.2693381
20
44.9500382
40
0.8747493
50
179.6928582
51
188.7908948
0
ARC
8
DEFAULT_255_1_388
10
21.9697181
20
44.9021086
40
0.5713262
50
188.6328449
51
202.5630732
0
ARC
8
DEFAULT_255_1_388
10
21.8286018
20
44.8454142
40
0.4192612
50
202.8078931
51
216.1195888
0
ARC
8
DEFAULT_255_1_388
10
21.7375535
20
44.7721479
40
0.3025752
50
215.0755613
51
264.6379773
0
ARC
8
DEFAULT_255_1_388
10
21.7518372
20
44.8656376
40
0.3970284
50
263.8464302
51
270.0830805
0
ARC
8
DEFAULT_255_1_388
10
21.7564917
20
44.8365808
40
0.3679937
50
269.3649295
51
287.5149684
0
ARC
8
DEFAULT_255_1_388
10
21.7765358
20
44.7637714
40
0.2925408
50
288.0629019
51
323.8115617
0
ARC
8
DEFAULT_255_1_388
10
21.6785334
20
44.8368754
40
0.4148018
50
323.6546541
51
342.6591359
0
ARC
8
DEFAULT_255_1_388
10
21.4499992
20
44.911228
40
0.6551163
50
342.4092446
51
353.6451501
0
ARC
8
DEFAULT_255_1_388
10
21.1314785
20
44.9508565
40
0.9760748
50
353.4027553
51
359.4846611
0
LINE
8
DEFAULT_255_1_388
10
23.0463172
20
45.6613148
11
23.0463172
21
44.3394
0
LINE
8
DEFAULT_255_1_388
10
23.0463172
20
44.3394
11
22.8782542
21
44.3394
0
LINE
8
DEFAULT_255_1_388
10
22.8782542
20
44.3394
11
22.8782542
21
45.453495
0
LINE
8
DEFAULT_255_1_388
10
22.8782542
20
45.453495
11
22.5412247
21
45.3297066
0
LINE
8
DEFAULT_255_1_388
10
22.5412247
20
45.3297066
11
22.5412247
21
45.4815055
0
LINE
8
DEFAULT_255_1_388
10
22.5412247
20
45.4815055
11
23.0201139
21
45.6613148
0
LINE
8
DEFAULT_255_1_388
10
23.0201139
20
45.6613148
11
23.0463172
21
45.6613148
0
LINE
8
DEFAULT_255_1_388
10
24.3610035
20
45.117369
11
24.3610035
21
44.9005135
0
LINE
8
DEFAULT_255_1_388
10
23.5306278
20
44.8779244
11
23.5306278
21
45.1011048
0
LINE
8
DEFAULT_255_1_388
10
24.1938441
20
44.8553353
11
24.1938441
21
45.1291153
0
LINE
8
DEFAULT_255_1_388
10
23.6977872
20
45.1417652
11
23.6977872
21
44.8743102
0
ARC
8
DEFAULT_255_1_388
10
22.9832369
20
44.8950118
40
1.3777776
50
353.8440855
51
0.2287917
0
ARC
8
DEFAULT_255_1_388
10
23.5051387
20
44.8367414
40
0.852639
50
344.4934746
51
353.9763743
0
ARC
8
DEFAULT_255_1_388
10
23.8418194
20
44.7410191
40
0.5026273
50
329.2803599
51
344.7473406
0
ARC
8
DEFAULT_255_1_388
10
23.9533689
20
44.6798038
40
0.3754848
50
324.9361395
51
328.6153007
0
ARC
8
DEFAULT_255_1_388
10
23.9959339
20
44.6500586
40
0.3235566
50
280.5801797
51
324.9173226
0
ARC
8
DEFAULT_255_1_388
10
23.9507968
20
44.8380236
40
0.5167077
50
269.5979457
51
281.6732777
0
ARC
8
DEFAULT_255_1_388
10
23.9426871
20
44.8245113
40
0.5032026
50
256.6228565
51
270.5105488
0
ARC
8
DEFAULT_255_1_388
10
23.8974614
20
44.6503345
40
0.3233092
50
215.8618351
51
257.2787793
0
ARC
8
DEFAULT_255_1_388
10
24.0123321
20
44.7274106
40
0.4615831
50
197.9695203
51
215.2622745
0
ARC
8
DEFAULT_255_1_388
10
24.2918997
20
44.8217641
40
0.7566307
50
187.8816486
51
198.2346584
0
ARC
8
DEFAULT_255_1_388
10
24.7372235
20
44.8860453
40
1.2065653
50
180.8977266
51
188.0054894
0
ARC
8
DEFAULT_255_1_388
10
25.0422449
20
44.89754
40
1.5117443
50
180.7434591
51
181.152202
0
ARC
8
DEFAULT_255_1_388
10
24.8747445
20
45.1065371
40
1.3441277
50
173.7674302
51
180.2315596
0
ARC
8
DEFAULT_255_1_388
10
24.3665314
20
45.1639779
40
0.8326847
50
164.3058537
51
173.9000553
0
ARC
8
DEFAULT_255_1_388
10
24.0389314
20
45.2583652
40
0.4917711
50
148.7922028
51
164.5682288
0
ARC
8
DEFAULT_255_1_388
10
23.9320051
20
45.3180457
40
0.3694204
50
144.5883979
51
148.1161588
0
ARC
8
DEFAULT_255_1_388
10
23.8932796
20
45.3450667
40
0.322202
50
101.6440149
51
144.5142619
0
ARC
8
DEFAULT_255_1_388
10
23.9410989
20
45.1550337
40
0.5180451
50
89.528284
51
102.5820197
0
ARC
8
DEFAULT_255_1_388
10
23.949998
20
45.1506376
40
0.5224441
50
77.0437914
51
90.508231
0
ARC
8
DEFAULT_255_1_388
10
23.9952234
20
45.3354272
40
0.3322297
50
48.2777708
51
77.4996087
0
ARC
8
DEFAULT_255_1_388
10
24.0033974
20
45.3499557
40
0.315966
50
36.3141586
51
47.6307332
0
ARC
8
DEFAULT_255_1_388
10
23.9056696
20
45.2841159
40
0.4337313
50
18.2931065
51
35.6770203
0
ARC
8
DEFAULT_255_1_388
10
23.6195537
20
45.1859107
40
0.7362203
50
8.0246996
51
18.5605636
0
ARC
8
DEFAULT_255_1_388
10
23.1511893
20
45.1167432
40
1.2096583
50
1.127539
51
8.1718423
0
ARC
8
DEFAULT_255_1_388
10
22.7863026
20
45.1024374
40
1.5747719
50
0.5432713
51
1.38669
0
ARC
8
DEFAULT_255_1_388
10
22.9920405
20
45.1331163
40
1.2018103
50
359.8092569
51
4.9408001
0
ARC
8
DEFAULT_255_1_388
10
23.4656986
20
45.17539
40
0.7262727
50
4.8364937
51
12.2906017
0
ARC
8
DEFAULT_255_1_388
10
23.7756451
20
45.2444485
40
0.4087324
50
12.0806994
51
23.8171225
0
ARC
8
DEFAULT_255_1_388
10
23.9076847
20
45.3003508
40
0.2653719
50
24.2874621
51
31.3934353
0
ARC
8
DEFAULT_255_1_388
10
23.9667283
20
45.3389822
40
0.1948607
50
30.7407708
51
82.4658033
0
ARC
8
DEFAULT_255_1_388
10
23.9464944
20
45.2396017
40
0.2961198
50
81.1057101
51
90.2187368
0
ARC
8
DEFAULT_255_1_388
10
23.9424755
20
45.2686421
40
0.2670929
50
89.380395
51
105.6763916
0
ARC
8
DEFAULT_255_1_388
10
23.9218477
20
45.343632
40
0.1893189
50
105.7980655
51
149.7387869
0
ARC
8
DEFAULT_255_1_388
10
24.0415617
20
45.2716719
40
0.3289892
50
149.4208441
51
163.628295
0
ARC
8
DEFAULT_255_1_388
10
24.2767847
20
45.1999345
40
0.5749004
50
163.3764549
51
172.141138
0
ARC
8
DEFAULT_255_1_388
10
24.6480569
20
45.1467582
40
0.9499585
50
172.0258462
51
178.0705453
0
ARC
8
DEFAULT_255_1_388
10
24.9902121
20
45.1305682
40
1.2924734
50
177.8639301
51
179.5036263
0
ARC
8
DEFAULT_255_1_388
10
24.868314
20
44.8702151
40
1.170534
50
179.7995545
51
185.246089
0
ARC
8
DEFAULT_255_1_388
10
24.4134733
20
44.8271404
40
0.7136613
50
185.1411911
51
193.0082205
0
ARC
8
DEFAULT_255_1_388
10
24.1160994
20
44.7568441
40
0.4080987
50
192.7897338
51
205.2507384
0
ARC
8
DEFAULT_255_1_388
10
23.9983204
20
44.7042538
40
0.2791522
50
205.8001921
51
211.2545876
0
ARC
8
DEFAULT_255_1_388
10
23.9394743
20
44.6648132
40
0.2084074
50
210.3789935
51
238.4007996
0
ARC
8
DEFAULT_255_1_388
10
23.9372829
20
44.6700786
40
0.2117943
50
239.6521916
51
265.9793852
0
ARC
8
DEFAULT_255_1_388
10
23.9468678
20
44.7457358
40
0.2879689
50
265.1324455
51
270.0603288
0
ARC
8
DEFAULT_255_1_388
10
23.9501055
20
44.7092418
40
0.2514919
50
269.3314378
51
287.2180039
0
ARC
8
DEFAULT_255_1_388
10
23.9656137
20
44.6526291
40
0.1928357
50
287.7957942
51
329.0808983
0
ARC
8
DEFAULT_255_1_388
10
23.8578894
20
44.7198651
40
0.319808
50
328.6635261
51
343.3325043
0
ARC
8
DEFAULT_255_1_388
10
23.6134353
20
44.7960195
40
0.5758408
50
343.0498092
51
351.9392499
0
ARC
8
DEFAULT_255_1_388
10
23.2233674
20
44.8535205
40
0.9701202
50
351.8071632
51
357.7957897
0
ARC
8
DEFAULT_255_1_388
10
22.8599151
20
44.8723724
40
1.3340376
50
357.5870923
51
359.2682493
0
LINE
8
DEFAULT_255_1_388
10
23.3202946
20
52.9753553
11
23.3202946
21
52.8922274
0
LINE
8
DEFAULT_255_1_388
10
22.2622206
20
52.8804811
11
22.2622206
21
52.9753553
0
LINE
8
DEFAULT_255_1_388
10
23.1477138
20
52.8795775
11
23.1477138
21
52.9771625
0
LINE
8
DEFAULT_255_1_388
10
22.4348014
20
52.9889088
11
22.4348014
21
52.8922274
0
ARC
8
DEFAULT_255_1_388
10
22.3480684
20
52.8877726
40
0.9722364
50
350.4878118
51
0.2625322
0
ARC
8
DEFAULT_255_1_388
10
22.6060644
20
52.8433994
40
0.7104556
50
336.0277991
51
350.5787241
0
ARC
8
DEFAULT_255_1_388
10
22.7573751
20
52.7750243
40
0.544417
50
319.887443
51
336.1331163
0
ARC
8
DEFAULT_255_1_388
10
22.8251563
20
52.7207733
40
0.4576311
50
302.4806296
51
319.6144102
0
ARC
8
DEFAULT_255_1_388
10
22.8122184
20
52.7457067
40
0.4856183
50
275.8196423
51
302.1885521
0
ARC
8
DEFAULT_255_1_388
10
22.7935046
20
52.8742466
40
0.6154183
50
269.9169897
51
276.339506
0
ARC
8
DEFAULT_255_1_388
10
22.7884646
20
52.797068
40
0.5382553
50
252.5221437
51
270.441579
0
ARC
8
DEFAULT_255_1_388
10
22.7722897
20
52.7364046
40
0.4755426
50
237.5349961
51
252.1858334
0
ARC
8
DEFAULT_255_1_388
10
22.7823273
20
52.749212
40
0.4917393
50
209.0632754
51
237.3492577
0
ARC
8
DEFAULT_255_1_388
10
22.8802599
20
52.8107104
40
0.6072464
50
205.118533
51
209.6465345
0
ARC
8
DEFAULT_255_1_388
10
22.9698601
20
52.8487174
40
0.7045164
50
188.7216633
51
204.8239753
0
ARC
8
DEFAULT_255_1_388
10
23.1945376
20
52.8865387
40
0.9323368
50
180.3722704
51
188.9253909
0
ARC
8
DEFAULT_255_1_388
10
23.1914938
20
52.9798416
40
0.929284
50
169.5253055
51
180.2766048
0
ARC
8
DEFAULT_255_1_388
10
22.9774737
20
53.0192024
40
0.7116745
50
155.8314601
51
169.5088611
0
ARC
8
DEFAULT_255_1_388
10
22.83342
20
53.0860312
40
0.5528904
50
139.6259579
51
156.0379072
0
ARC
8
DEFAULT_255_1_388
10
22.7670733
20
53.1394143
40
0.4677708
50
122.6414784
51
139.3431662
0
ARC
8
DEFAULT_255_1_388
10
22.7783988
20
53.1187787
40
0.4912586
50
93.0224537
51
122.4556091
0
ARC
8
DEFAULT_255_1_388
10
22.7905509
20
53.0101776
40
0.6003837
50
89.9756766
51
93.6340839
0
ARC
8
DEFAULT_255_1_388
10
22.7949107
20
53.0550879
40
0.5554884
50
73.7463329
51
90.4234008
0
ARC
8
DEFAULT_255_1_388
10
22.814658
20
53.1315772
40
0.4765353
50
57.663051
51
73.4516911
0
ARC
8
DEFAULT_255_1_388
10
22.8137618
20
53.1340108
40
0.4749629
50
29.1441355
51
57.4146687
0
ARC
8
DEFAULT_255_1_388
10
22.7085429
20
53.0683046
40
0.5988917
50
24.0985653
51
29.732054
0
ARC
8
DEFAULT_255_1_388
10
22.5923061
20
53.0201154
40
0.7246823
50
8.6654943
51
23.8241215
0
ARC
8
DEFAULT_255_1_388
10
22.3409479
20
52.9791037
40
0.9793537
50
359.7807044
51
8.8218476
0
ARC
8
DEFAULT_255_1_388
10
22.2119184
20
52.9819731
40
0.9358078
50
359.7054632
51
8.0359751
0
ARC
8
DEFAULT_255_1_388
10
22.5494235
20
53.0311252
40
0.5947474
50
7.8926278
51
20.2962188
0
ARC
8
DEFAULT_255_1_388
10
22.7325085
20
53.0986367
40
0.3996117
50
20.3231056
51
36.4990255
0
ARC
8
DEFAULT_255_1_388
10
22.8096383
20
53.1580399
40
0.3022818
50
36.1436715
51
85.6627846
0
ARC
8
DEFAULT_255_1_388
10
22.7913638
20
53.0410881
40
0.4203853
50
84.3845912
51
90.076054
0
ARC
8
DEFAULT_255_1_388
10
22.7865993
20
53.1153416
40
0.346157
50
89.3037228
51
109.9046209
0
ARC
8
DEFAULT_255_1_388
10
22.7761826
20
53.1583379
40
0.3022217
50
110.8229774
51
143.917961
0
ARC
8
DEFAULT_255_1_388
10
22.8812185
20
53.0781455
40
0.434348
50
143.5289166
51
163.2980252
0
ARC
8
DEFAULT_255_1_388
10
23.0958472
20
53.0106685
40
0.659321
50
163.0418884
51
174.3139873
0
ARC
8
DEFAULT_255_1_388
10
23.3663437
20
52.9794378
40
0.9315905
50
174.050934
51
179.4174954
0
ARC
8
DEFAULT_255_1_388
10
23.3095381
20
52.8875382
40
0.8747493
50
179.6928582
51
188.7908948
0
ARC
8
DEFAULT_255_1_388
10
23.0099181
20
52.8396086
40
0.5713262
50
188.6328449
51
202.5630732
0
ARC
8
DEFAULT_255_1_388
10
22.8688018
20
52.7829142
40
0.4192612
50
202.8078931
51
216.1195888
0
ARC
8
DEFAULT_255_1_388
10
22.7777535
20
52.7096479
40
0.3025752
50
215.0755613
51
264.6379773
0
ARC
8
DEFAULT_255_1_388
10
22.7920372
20
52.8031376
40
0.3970284
50
263.8464302
51
270.0830805
0
ARC
8
DEFAULT_255_1_388
10
22.7966917
20
52.7740808
40
0.3679937
50
269.3649295
51
287.5149684
0
ARC
8
DEFAULT_255_1_388
10
22.8167358
20
52.7012714
40
0.2925408
50
288.0629019
51
323.8115617
0
ARC
8
DEFAULT_255_1_388
10
22.7187334
20
52.7743754
40
0.4148018
50
323.6546541
51
342.6591359
0
ARC
8
DEFAULT_255_1_388
10
22.4901992
20
52.848728
40
0.6551163
50
342.4092446
51
353.6451501
0
ARC
8
DEFAULT_255_1_388
10
22.1716785
20
52.8883565
40
0.9760748
50
353.4027553
51
359.4846611
0
LINE
8
DEFAULT_255_1_388
10
24.3458402
20
53.0666153
11
24.3458402
21
53.0178229
0
LINE
8
DEFAULT_255_1_388
10
23.7359342
20
52.2759964
11
23.7034059
21
52.2759964
0
LINE
8
DEFAULT_255_1_388
10
23.7034059
20
52.2759964
11
23.7034059
21
52.4169525
0
LINE
8
DEFAULT_255_1_388
10
23.7034059
20
52.4169525
11
23.7386449
21
52.4169525
0
LINE
8
DEFAULT_255_1_388
10
24.1786808
20
53.034087
11
24.1786808
21
53.1009508
0
ARC
8
DEFAULT_255_1_388
10
23.86439
20
53.1179877
40
0.4089973
50
297.4036461
51
320.0168133
0
ARC
8
DEFAULT_255_1_388
10
23.897008
20
53.0553072
40
0.3383378
50
270.2631886
51
297.3852322
0
ARC
8
DEFAULT_255_1_388
10
23.8931756
20
53.1090343
40
0.3920983
50
269.9969069
51
270.7871389
0
ARC
8
DEFAULT_255_1_388
10
23.890308
20
53.1072737
40
0.3903482
50
254.5997295
51
270.4178147
0
ARC
8
DEFAULT_255_1_388
10
23.8742611
20
53.0437693
40
0.3248657
50
236.4717231
51
254.3539376
0
ARC
8
DEFAULT_255_1_388
10
23.8918343
20
53.0673999
40
0.3542746
50
208.4727261
51
236.2134628
0
ARC
8
DEFAULT_255_1_388
10
23.9637106
20
53.1113676
40
0.4384402
50
204.3450776
51
209.0455365
0
ARC
8
DEFAULT_255_1_388
10
24.0401482
20
53.14378
40
0.5214459
50
183.9375459
51
204.1275509
0
ARC
8
DEFAULT_255_1_388
10
24.1423788
20
53.1547863
40
0.6242037
50
179.9652726
51
184.3010611
0
ARC
8
DEFAULT_255_1_388
10
24.1153334
20
53.1585004
40
0.5971675
50
166.7585952
51
180.3200491
0
ARC
8
DEFAULT_255_1_388
10
24.0201142
20
53.1791979
40
0.4997418
50
154.6954866
51
166.5679151
0
ARC
8
DEFAULT_255_1_388
10
23.9241382
20
53.2275411
40
0.3923208
50
136.3325251
51
155.0871367
0
ARC
8
DEFAULT_255_1_388
10
23.8925301
20
53.2546271
40
0.3507618
50
121.2365985
51
135.9680081
0
ARC
8
DEFAULT_255_1_388
10
23.9083366
20
53.2253541
40
0.3839917
50
96.8454764
51
120.9881329
0
ARC
8
DEFAULT_255_1_388
10
23.9247172
20
53.1200942
40
0.4904679
50
89.887204
51
97.2797758
0
ARC
8
DEFAULT_255_1_388
10
23.9306145
20
53.1918652
40
0.418725
50
70.6505767
51
90.6748382
0
ARC
8
DEFAULT_255_1_388
10
23.9453842
20
53.2496091
40
0.3593866
50
36.7493297
51
69.8220487
0
ARC
8
DEFAULT_255_1_388
10
23.8330189
20
53.1620446
40
0.5018201
50
15.3958155
51
37.0841102
0
ARC
8
DEFAULT_255_1_388
10
23.5934473
20
53.0922111
40
0.7513436
50
3.9487796
51
15.6798517
0
ARC
8
DEFAULT_255_1_388
10
23.3233115
20
53.067881
40
1.0225293
50
359.9290791
51
4.266464
0
ARC
8
DEFAULT_255_1_388
10
22.8052033
20
53.0103372
40
1.5406551
50
352.8365702
51
0.2783851
0
ARC
8
DEFAULT_255_1_388
10
23.4000263
20
52.9330664
40
0.9408425
50
341.8359339
51
352.9884057
0
ARC
8
DEFAULT_255_1_388
10
23.7621251
20
52.8110144
40
0.5587481
50
322.8579243
51
342.1527461
0
ARC
8
DEFAULT_255_1_388
10
23.8592943
20
52.744735
40
0.4413099
50
319.3348471
51
322.100194
0
ARC
8
DEFAULT_255_1_388
10
23.8244874
20
52.7796814
40
0.4904992
50
285.954114
51
318.8878716
0
ARC
8
DEFAULT_255_1_388
10
23.7427311
20
53.0395865
40
0.7628991
50
272.9280841
51
286.4924389
0
ARC
8
DEFAULT_255_1_388
10
23.7213616
20
53.293024
40
1.017132
50
270.8209173
51
273.4010121
0
ARC
8
DEFAULT_255_1_388
10
23.7313639
20
53.0882073
40
0.6712943
50
270.6214576
51
281.4062333
0
ARC
8
DEFAULT_255_1_388
10
23.7797363
20
52.856925
40
0.4350167
50
281.1852583
51
299.0622058
0
ARC
8
DEFAULT_255_1_388
10
23.8217608
20
52.7758138
40
0.3437146
50
299.5068171
51
313.1200142
0
ARC
8
DEFAULT_255_1_388
10
23.8242346
20
52.7668959
40
0.3355418
50
313.8525725
51
338.5989631
0
ARC
8
DEFAULT_255_1_388
10
23.6415474
20
52.8419576
40
0.5330317
50
338.2523315
51
351.2431701
0
ARC
8
DEFAULT_255_1_388
10
23.3703225
20
52.8880494
40
0.8081235
50
350.940933
51
357.6690137
0
ARC
8
DEFAULT_255_1_388
10
23.9205105
20
53.1133048
40
0.2581236
50
269.9447107
51
306.8249644
0
ARC
8
DEFAULT_255_1_388
10
23.8938406
20
53.160906
40
0.3122948
50
305.5071046
51
327.0773808
0
ARC
8
DEFAULT_255_1_388
10
23.9071458
20
53.1502445
40
0.2953369
50
327.4106457
51
336.8396801
0
ARC
8
DEFAULT_255_1_388
10
23.5591172
20
53.1045932
40
0.6195743
50
359.663158
51
10.1176387
0
ARC
8
DEFAULT_255_1_388
10
23.7563935
20
53.1410922
40
0.4189561
50
9.9431549
51
26.7699242
0
ARC
8
DEFAULT_255_1_388
10
23.8235921
20
53.1720796
40
0.3450125
50
27.2018067
51
34.6833639
0
ARC
8
DEFAULT_255_1_388
10
23.8786534
20
53.213456
40
0.2762035
50
34.124913
51
50.30709
0
ARC
8
DEFAULT_255_1_388
10
23.9289016
20
53.2735741
40
0.1978518
50
50.3850304
51
90.6705051
0
ARC
8
DEFAULT_255_1_388
10
23.923641
20
53.2393074
40
0.2321235
50
89.2729817
51
111.9140267
0
ARC
8
DEFAULT_255_1_388
10
23.9214498
20
53.2551308
40
0.2166604
50
112.9381864
51
142.5320936
0
ARC
8
DEFAULT_255_1_388
10
23.9828987
20
53.2052392
40
0.2957902
50
142.1024021
51
166.3835244
0
ARC
8
DEFAULT_255_1_388
10
24.1157956
20
53.1709213
40
0.4330361
50
166.1100968
51
178.6653563
0
ARC
8
DEFAULT_255_1_388
10
24.2339882
20
53.1643061
40
0.5513642
50
178.2641888
51
180.010994
0
ARC
8
DEFAULT_255_1_388
10
24.1434384
20
53.1611136
40
0.4608248
50
179.6162225
51
191.8786013
0
ARC
8
DEFAULT_255_1_388
10
24.0061693
20
53.130759
40
0.3202502
50
191.6192934
51
215.2970746
0
ARC
8
DEFAULT_255_1_388
10
23.9822349
20
53.1164963
40
0.2924827
50
215.7258926
51
216.5355437
0
ARC
8
DEFAULT_255_1_388
10
23.9233969
20
53.0691919
40
0.2170661
50
215.7486606
51
239.9728403
0
ARC
8
DEFAULT_255_1_388
10
23.9155135
20
53.0634838
40
0.208217
50
241.065081
51
269.280972
0
ARC
8
DEFAULT_255_1_388
10
23.9202293
20
53.1190327
40
0.2638514
50
268.4083352
51
270.0069622
0
LINE
8
DEFAULT_255_1_388
10
23.3202946
20
60.9128553
11
23.3202946
21
60.8297274
0
LINE
8
DEFAULT_255_1_388
10
22.2622206
20
60.8179811
11
22.2622206
21
60.9128553
0
LINE
8
DEFAULT_255_1_388
10
23.1477138
20
60.8170775
11
23.1477138
21
60.9146625
0
LINE
8
DEFAULT_255_1_388
10
22.4348014
20
60.9264088
11
22.4348014
21
60.8297274
0
ARC
8
DEFAULT_255_1_388
10
22.3480684
20
60.8252726
40
0.9722364
50
350.4878118
51
0.2625322
0
ARC
8
DEFAULT_255_1_388
10
22.6060644
20
60.7808994
40
0.7104556
50
336.0277991
51
350.5787241
0
ARC
8
DEFAULT_255_1_388
10
22.7573751
20
60.7125243
40
0.544417
50
319.887443
51
336.1331163
0
ARC
8
DEFAULT_255_1_388
10
22.8251563
20
60.6582733
40
0.4576311
50
302.4806296
51
319.6144102
0
ARC
8
DEFAULT_255_1_388
10
22.8122184
20
60.6832067
40
0.4856183
50
275.8196423
51
302.1885521
0
ARC
8
DEFAULT_255_1_388
10
22.7935046
20
60.8117466
40
0.6154183
50
269.9169897
51
276.339506
0
ARC
8
DEFAULT_255_1_388
10
22.7884646
20
60.734568
40
0.5382553
50
252.5221437
51
270.441579
0
ARC
8
DEFAULT_255_1_388
10
22.7722897
20
60.6739046
40
0.4755426
50
237.5349961
51
252.1858334
0
ARC
8
DEFAULT_255_1_388
10
22.7823273
20
60.686712
40
0.4917393
50
209.0632754
51
237.3492577
0
ARC
8
DEFAULT_255_1_388
10
22.8802599
20
60.7482104
40
0.6072464
50
205.118533
51
209.6465345
0
ARC
8
DEFAULT_255_1_388
10
22.9698601
20
60.7862174
40
0.7045164
50
188.7216633
51
204.8239753
0
ARC
8
DEFAULT_255_1_388
10
23.1945376
20
60.8240387
40
0.9323368
50
180.3722704
51
188.9253909
0
ARC
8
DEFAULT_255_1_388
10
23.1914938
20
60.9173416
40
0.929284
50
169.5253055
51
180.2766048
0
ARC
8
DEFAULT_255_1_388
10
22.9774737
20
60.9567024
40
0.7116745
50
155.8314601
51
169.5088611
0
ARC
8
DEFAULT_255_1_388
10
22.83342
20
61.0235312
40
0.5528904
50
139.6259579
51
156.0379072
0
ARC
8
DEFAULT_255_1_388
10
22.7670733
20
61.0769143
40
0.4677708
50
122.6414784
51
139.3431662
0
ARC
8
DEFAULT_255_1_388
10
22.7783988
20
61.0562787
40
0.4912586
50
93.0224537
51
122.4556091
0
ARC
8
DEFAULT_255_1_388
10
22.7905509
20
60.9476776
40
0.6003837
50
89.9756766
51
93.6340839
0
ARC
8
DEFAULT_255_1_388
10
22.7949107
20
60.9925879
40
0.5554884
50
73.7463329
51
90.4234008
0
ARC
8
DEFAULT_255_1_388
10
22.814658
20
61.0690772
40
0.4765353
50
57.663051
51
73.4516911
0
ARC
8
DEFAULT_255_1_388
10
22.8137618
20
61.0715108
40
0.4749629
50
29.1441355
51
57.4146687
0
ARC
8
DEFAULT_255_1_388
10
22.7085429
20
61.0058046
40
0.5988917
50
24.0985653
51
29.732054
0
ARC
8
DEFAULT_255_1_388
10
22.5923061
20
60.9576154
40
0.7246823
50
8.6654943
51
23.8241215
0
ARC
8
DEFAULT_255_1_388
10
22.3409479
20
60.9166037
40
0.9793537
50
359.7807044
51
8.8218476
0
ARC
8
DEFAULT_255_1_388
10
22.2119184
20
60.9194731
40
0.9358078
50
359.7054632
51
8.0359751
0
ARC
8
DEFAULT_255_1_388
10
22.5494235
20
60.9686252
40
0.5947474
50
7.8926278
51
20.2962188
0
ARC
8
DEFAULT_255_1_388
10
22.7325085
20
61.0361367
40
0.3996117
50
20.3231056
51
36.4990255
0
ARC
8
DEFAULT_255_1_388
10
22.8096383
20
61.0955399
40
0.3022818
50
36.1436715
51
85.6627846
0
ARC
8
DEFAULT_255_1_388
10
22.7913638
20
60.9785881
40
0.4203853
50
84.3845912
51
90.076054
0
ARC
8
DEFAULT_255_1_388
10
22.7865993
20
61.0528416
40
0.346157
50
89.3037228
51
109.9046209
0
ARC
8
DEFAULT_255_1_388
10
22.7761826
20
61.0958379
40
0.3022217
50
110.8229774
51
143.917961
0
ARC
8
DEFAULT_255_1_388
10
22.8812185
20
61.0156455
40
0.434348
50
143.5289166
51
163.2980252
0
ARC
8
DEFAULT_255_1_388
10
23.0958472
20
60.9481685
40
0.659321
50
163.0418884
51
174.3139873
0
ARC
8
DEFAULT_255_1_388
10
23.3663437
20
60.9169378
40
0.9315905
50
174.050934
51
179.4174954
0
ARC
8
DEFAULT_255_1_388
10
23.3095381
20
60.8250382
40
0.8747493
50
179.6928582
51
188.7908948
0
ARC
8
DEFAULT_255_1_388
10
23.0099181
20
60.7771086
40
0.5713262
50
188.6328449
51
202.5630732
0
ARC
8
DEFAULT_255_1_388
10
22.8688018
20
60.7204142
40
0.4192612
50
202.8078931
51
216.1195888
0
ARC
8
DEFAULT_255_1_388
10
22.7777535
20
60.6471479
40
0.3025752
50
215.0755613
51
264.6379773
0
ARC
8
DEFAULT_255_1_388
10
22.7920372
20
60.7406376
40
0.3970284
50
263.8464302
51
270.0830805
0
ARC
8
DEFAULT_255_1_388
10
22.7966917
20
60.7115808
40
0.3679937
50
269.3649295
51
287.5149684
0
ARC
8
DEFAULT_255_1_388
10
22.8167358
20
60.6387714
40
0.2925408
50
288.0629019
51
323.8115617
0
ARC
8
DEFAULT_255_1_388
10
22.7187334
20
60.7118754
40
0.4148018
50
323.6546541
51
342.6591359
0
ARC
8
DEFAULT_255_1_388
10
22.4901992
20
60.786228
40
0.6551163
50
342.4092446
51
353.6451501
0
ARC
8
DEFAULT_255_1_388
10
22.1716785
20
60.8258565
40
0.9760748
50
353.4027553
51
359.4846611
0
ARC
8
DEFAULT_255_1_388
10
24.0175006
20
61.183772
40
0.3175098
50
338.8762533
51
0.5167111
0
ARC
8
DEFAULT_255_1_388
10
24.03646
20
61.17866
40
0.2979894
50
325.8415285
51
338.4793574
0
ARC
8
DEFAULT_255_1_388
10
23.9925233
20
61.2091242
40
0.351452
50
296.7587686
51
325.7536481
0
ARC
8
DEFAULT_255_1_388
10
23.9596861
20
61.2645363
40
0.4157374
50
296.0927901
51
297.3613472
0
ARC
8
DEFAULT_255_1_388
10
23.9891056
20
60.5262593
40
0.395855
50
47.9007294
51
67.1948823
0
ARC
8
DEFAULT_255_1_388
10
24.0111698
20
60.5539599
40
0.360516
50
35.2363914
51
47.551141
0
ARC
8
DEFAULT_255_1_388
10
24.0406102
20
60.5736093
40
0.3251343
50
359.2759765
51
35.4014143
0
ARC
8
DEFAULT_255_1_388
10
23.9568029
20
60.5653787
40
0.4089365
50
343.1293083
51
0.5775513
0
ARC
8
DEFAULT_255_1_388
10
24.0383142
20
60.5429336
40
0.3244269
50
310.8496669
51
342.7449331
0
ARC
8
DEFAULT_255_1_388
10
23.9913017
20
60.5965913
40
0.3957651
50
281.5472888
51
310.9170406
0
ARC
8
DEFAULT_255_1_388
10
23.9511891
20
60.7712814
40
0.5749654
50
269.619248
51
281.9789564
0
ARC
8
DEFAULT_255_1_388
10
23.9430669
20
60.7713776
40
0.5750649
50
257.4585678
51
270.4285689
0
ARC
8
DEFAULT_255_1_388
10
23.9002189
20
60.5909741
40
0.389671
50
228.7554326
51
257.8484789
0
ARC
8
DEFAULT_255_1_388
10
23.8653675
20
60.5490228
40
0.335154
50
184.0104975
51
228.5071184
0
ARC
8
DEFAULT_255_1_388
10
23.9962067
20
60.568943
40
0.4671891
50
179.9315832
51
185.3253753
0
ARC
8
DEFAULT_255_1_388
10
23.863858
20
60.5731592
40
0.33486
50
145.6796023
51
180.6259786
0
ARC
8
DEFAULT_255_1_388
10
23.8822346
20
60.5603271
40
0.3572723
50
115.5537685
51
145.6415986
0
ARC
8
DEFAULT_255_1_388
10
23.920539
20
60.4917087
40
0.4357296
50
113.243307
51
116.2057839
0
ARC
8
DEFAULT_255_1_388
10
23.9034041
20
61.2114379
40
0.3549126
50
222.9549744
51
244.1370481
0
ARC
8
DEFAULT_255_1_388
10
23.8896685
20
61.1960378
40
0.3343711
50
213.3436887
51
222.6274467
0
ARC
8
DEFAULT_255_1_388
10
23.8680754
20
61.1813653
40
0.3082678
50
180.431584
51
213.271499
0
ARC
8
DEFAULT_255_1_388
10
23.9315753
20
61.1866296
40
0.3718363
50
179.9991191
51
181.1690594
0
ARC
8
DEFAULT_255_1_388
10
23.9788209
20
61.1905072
40
0.4190996
50
164.6186169
51
180.529336
0
ARC
8
DEFAULT_255_1_388
10
23.8777858
20
61.217678
40
0.3144772
50
132.2455553
51
164.5090724
0
ARC
8
DEFAULT_255_1_388
10
23.9100836
20
61.181107
40
0.3632644
50
100.7053914
51
132.1386381
0
ARC
8
DEFAULT_255_1_388
10
23.9443897
20
61.0261118
40
0.5219578
50
89.6730358
51
101.2451698
0
ARC
8
DEFAULT_255_1_388
10
23.9513888
20
61.0457648
40
0.5023124
50
76.287748
51
90.4586006
0
ARC
8
DEFAULT_255_1_388
10
23.985839
20
61.1832671
40
0.3605639
50
47.8240511
51
76.4266241
0
ARC
8
DEFAULT_255_1_388
10
24.0108775
20
61.2125599
40
0.3220463
50
6.9168387
51
47.6262497
0
ARC
8
DEFAULT_255_1_388
10
23.8774228
20
61.1879004
40
0.4575765
50
359.8415968
51
7.9697453
0
ARC
8
DEFAULT_255_1_388
10
23.9158497
20
60.5758519
40
0.2827228
50
359.445363
51
16.9256873
0
ARC
8
DEFAULT_255_1_388
10
23.9685931
20
60.5903781
40
0.2280396
50
17.2920767
51
45.4630727
0
ARC
8
DEFAULT_255_1_388
10
23.9625067
20
60.5851324
40
0.2360485
50
45.30305
51
83.1920945
0
ARC
8
DEFAULT_255_1_388
10
23.9463811
20
60.4949473
40
0.3275527
50
82.2612665
51
90.1434275
0
ARC
8
DEFAULT_255_1_388
10
23.9429088
20
60.5211869
40
0.3013237
50
89.4956434
51
104.8580688
0
ARC
8
DEFAULT_255_1_388
10
23.9230277
20
60.5965455
40
0.2233867
50
104.8856641
51
135.244616
0
ARC
8
DEFAULT_255_1_388
10
23.9286266
20
60.5915352
40
0.2308906
50
135.3399546
51
172.1044062
0
ARC
8
DEFAULT_255_1_388
10
24.0193791
20
60.5741667
40
0.3232034
50
171.2645637
51
180.186429
0
ARC
8
DEFAULT_255_1_388
10
24.0003795
20
60.5705426
40
0.304213
50
179.5154935
51
193.6464289
0
ARC
8
DEFAULT_255_1_388
10
23.9085471
20
60.5471473
40
0.209456
50
193.3540274
51
225.8258581
0
ARC
8
DEFAULT_255_1_388
10
23.9131343
20
60.5551076
40
0.2183738
50
226.4180634
51
255.8552336
0
ARC
8
DEFAULT_255_1_388
10
23.941981
20
60.6604521
40
0.3275812
50
255.4654104
51
268.7987425
0
ARC
8
DEFAULT_255_1_388
10
23.9472987
20
60.7546545
40
0.4218877
50
268.3449238
51
270.0094605
0
ARC
8
DEFAULT_255_1_388
10
23.949922
20
60.6778094
40
0.3450519
50
269.5759586
51
282.0820163
0
ARC
8
DEFAULT_255_1_388
10
23.9752256
20
60.5659363
40
0.2303642
50
281.752014
51
306.6056188
0
ARC
8
DEFAULT_255_1_388
10
23.9863064
20
60.5477802
40
0.2091906
50
307.1346085
51
314.027845
0
ARC
8
DEFAULT_255_1_388
10
23.9822576
20
60.5507459
40
0.2141385
50
314.2552483
51
350.1694025
0
ARC
8
DEFAULT_255_1_388
10
23.8864813
20
60.5715175
40
0.312082
50
349.4140529
51
0.2933014
0
ARC
8
DEFAULT_255_1_388
10
23.945009
20
61.1518924
40
0.2588377
50
89.477747
51
105.729729
0
ARC
8
DEFAULT_255_1_388
10
23.929701
20
61.2087367
40
0.1999733
50
105.9233417
51
135.1660906
0
ARC
8
DEFAULT_255_1_388
10
23.9320041
20
61.2071412
40
0.2027322
50
135.3052302
51
168.9883645
0
ARC
8
DEFAULT_255_1_388
10
24.0251057
20
61.1857996
40
0.2982129
50
168.3801673
51
180.3602268
0
ARC
8
DEFAULT_255_1_388
10
23.9994174
20
61.1815622
40
0.2725291
50
179.5033122
51
194.9125571
0
ARC
8
DEFAULT_255_1_388
10
23.9335581
20
61.1642427
40
0.204431
50
194.9720816
51
224.194444
0
ARC
8
DEFAULT_255_1_388
10
23.9303946
20
61.1616635
40
0.2003651
50
224.2962453
51
262.015664
0
ARC
8
DEFAULT_255_1_388
10
23.946395
20
61.2439315
40
0.2840925
50
261.1245923
51
270.1962896
0
ARC
8
DEFAULT_255_1_388
10
23.9497432
20
61.2228859
40
0.2630559
50
269.4827276
51
285.0987215
0
ARC
8
DEFAULT_255_1_388
10
23.9670868
20
61.1578175
40
0.1957162
50
285.1585357
51
315.9484501
0
ARC
8
DEFAULT_255_1_388
10
23.9570741
20
61.1670315
40
0.2093195
50
316.0413965
51
351.916092
0
ARC
8
DEFAULT_255_1_388
10
23.8746116
20
61.1829323
40
0.2932279
50
351.105835
51
0.1939062
0
ARC
8
DEFAULT_255_1_388
10
23.904175
20
61.1863224
40
0.2636739
50
359.4789618
51
16.0678224
0
ARC
8
DEFAULT_255_1_388
10
23.9577222
20
61.2007721
40
0.2082215
50
16.3252067
51
44.7913869
0
ARC
8
DEFAULT_255_1_388
10
23.9557284
20
61.200832
40
0.2095992
50
44.3957814
51
88.2499162
0
ARC
8
DEFAULT_255_1_388
10
23.9474618
20
61.1320006
40
0.2787189
50
86.9833854
51
90.0192215
0
LINE
8
DEFAULT_255_1_388
10
23.3202946
20
68.8503553
11
23.3202946
21
68.7672274
0
LINE
8
DEFAULT_255_1_388
10
22.2622206
20
68.7554811
11
22.2622206
21
68.8503553
0
LINE
8
DEFAULT_255_1_388
10
23.1477138
20
68.7545775
11
23.1477138
21
68.8521625
0
LINE
8
DEFAULT_255_1_388
10
22.4348014
20
68.8639088
11
22.4348014
21
68.7672274
0
ARC
8
DEFAULT_255_1_388
10
22.3480684
20
68.7627726
40
0.9722364
50
350.4878118
51
0.2625322
0
ARC
8
DEFAULT_255_1_388
10
22.6060644
20
68.7183994
40
0.7104556
50
336.0277991
51
350.5787241
0
ARC
8
DEFAULT_255_1_388
10
22.7573751
20
68.6500243
40
0.544417
50
319.887443
51
336.1331163
0
ARC
8
DEFAULT_255_1_388
10
22.8251563
20
68.5957733
40
0.4576311
50
302.4806296
51
319.6144102
0
ARC
8
DEFAULT_255_1_388
10
22.8122184
20
68.6207067
40
0.4856183
50
275.8196423
51
302.1885521
0
ARC
8
DEFAULT_255_1_388
10
22.7935046
20
68.7492466
40
0.6154183
50
269.9169897
51
276.339506
0
ARC
8
DEFAULT_255_1_388
10
22.7884646
20
68.672068
40
0.5382553
50
252.5221437
51
270.441579
0
ARC
8
DEFAULT_255_1_388
10
22.7722897
20
68.6114046
40
0.4755426
50
237.5349961
51
252.1858334
0
ARC
8
DEFAULT_255_1_388
10
22.7823273
20
68.624212
40
0.4917393
50
209.0632754
51
237.3492577
0
ARC
8
DEFAULT_255_1_388
10
22.8802599
20
68.6857104
40
0.6072464
50
205.118533
51
209.6465345
0
ARC
8
DEFAULT_255_1_388
10
22.9698601
20
68.7237174
40
0.7045164
50
188.7216633
51
204.8239753
0
ARC
8
DEFAULT_255_1_388
10
23.1945376
20
68.7615387
40
0.9323368
50
180.3722704
51
188.9253909
0
ARC
8
DEFAULT_255_1_388
10
23.1914938
20
68.8548416
40
0.929284
50
169.5253055
51
180.2766048
0
ARC
8
DEFAULT_255_1_388
10
22.9774737
20
68.8942024
40
0.7116745
50
155.8314601
51
169.5088611
0
ARC
8
DEFAULT_255_1_388
10
22.83342
20
68.9610312
40
0.5528904
50
139.6259579
51
156.0379072
0
ARC
8
DEFAULT_255_1_388
10
22.7670733
20
69.0144143
40
0.4677708
50
122.6414784
51
139.3431662
0
ARC
8
DEFAULT_255_1_388
10
22.7783988
20
68.9937787
40
0.4912586
50
93.0224537
51
122.4556091
0
ARC
8
DEFAULT_255_1_388
10
22.7905509
20
68.8851776
40
0.6003837
50
89.9756766
51
93.6340839
0
ARC
8
DEFAULT_255_1_388
10
22.7949107
20
68.9300879
40
0.5554884
50
73.7463329
51
90.4234008
0
ARC
8
DEFAULT_255_1_388
10
22.814658
20
69.0065772
40
0.4765353
50
57.663051
51
73.4516911
0
ARC
8
DEFAULT_255_1_388
10
22.8137618
20
69.0090108
40
0.4749629
50
29.1441355
51
57.4146687
0
ARC
8
DEFAULT_255_1_388
10
22.7085429
20
68.9433046
40
0.5988917
50
24.0985653
51
29.732054
0
ARC
8
DEFAULT_255_1_388
10
22.5923061
20
68.8951154
40
0.7246823
50
8.6654943
51
23.8241215
0
ARC
8
DEFAULT_255_1_388
10
22.3409479
20
68.8541037
40
0.9793537
50
359.7807044
51
8.8218476
0
ARC
8
DEFAULT_255_1_388
10
22.2119184
20
68.8569731
40
0.9358078
50
359.7054632
51
8.0359751
0
ARC
8
DEFAULT_255_1_388
10
22.5494235
20
68.9061252
40
0.5947474
50
7.8926278
51
20.2962188
0
ARC
8
DEFAULT_255_1_388
10
22.7325085
20
68.9736367
40
0.3996117
50
20.3231056
51
36.4990255
0
ARC
8
DEFAULT_255_1_388
10
22.8096383
20
69.0330399
40
0.3022818
50
36.1436715
51
85.6627846
0
ARC
8
DEFAULT_255_1_388
10
22.7913638
20
68.9160881
40
0.4203853
50
84.3845912
51
90.076054
0
ARC
8
DEFAULT_255_1_388
10
22.7865993
20
68.9903416
40
0.346157
50
89.3037228
51
109.9046209
0
ARC
8
DEFAULT_255_1_388
10
22.7761826
20
69.0333379
40
0.3022217
50
110.8229774
51
143.917961
0
ARC
8
DEFAULT_255_1_388
10
22.8812185
20
68.9531455
40
0.434348
50
143.5289166
51
163.2980252
0
ARC
8
DEFAULT_255_1_388
10
23.0958472
20
68.8856685
40
0.659321
50
163.0418884
51
174.3139873
0
ARC
8
DEFAULT_255_1_388
10
23.3663437
20
68.8544378
40
0.9315905
50
174.050934
51
179.4174954
0
ARC
8
DEFAULT_255_1_388
10
23.3095381
20
68.7625382
40
0.8747493
50
179.6928582
51
188.7908948
0
ARC
8
DEFAULT_255_1_388
10
23.0099181
20
68.7146086
40
0.5713262
50
188.6328449
51
202.5630732
0
ARC
8
DEFAULT_255_1_388
10
22.8688018
20
68.6579142
40
0.4192612
50
202.8078931
51
216.1195888
0
ARC
8
DEFAULT_255_1_388
10
22.7777535
20
68.5846479
40
0.3025752
50
215.0755613
51
264.6379773
0
ARC
8
DEFAULT_255_1_388
10
22.7920372
20
68.6781376
40
0.3970284
50
263.8464302
51
270.0830805
0
ARC
8
DEFAULT_255_1_388
10
22.7966917
20
68.6490808
40
0.3679937
50
269.3649295
51
287.5149684
0
ARC
8
DEFAULT_255_1_388
10
22.8167358
20
68.5762714
40
0.2925408
50
288.0629019
51
323.8115617
0
ARC
8
DEFAULT_255_1_388
10
22.7187334
20
68.6493754
40
0.4148018
50
323.6546541
51
342.6591359
0
ARC
8
DEFAULT_255_1_388
10
22.4901992
20
68.723728
40
0.6551163
50
342.4092446
51
353.6451501
0
ARC
8
DEFAULT_255_1_388
10
22.1716785
20
68.7633565
40
0.9760748
50
353.4027553
51
359.4846611
0
LINE
8
DEFAULT_255_1_388
10
24.3865006
20
69.4674898
11
24.3865006
21
69.3735191
0
LINE
8
DEFAULT_255_1_388
10
24.3865006
20
69.3735191
11
23.8416513
21
68.1519
0
LINE
8
DEFAULT_255_1_388
10
23.8416513
20
68.1519
11
23.6663598
21
68.1519
0
LINE
8
DEFAULT_255_1_388
10
23.6663598
20
68.1519
11
24.209402
21
69.330148
0
LINE
8
DEFAULT_255_1_388
10
24.209402
20
69.330148
11
23.4973932
21
69.330148
0
LINE
8
DEFAULT_255_1_388
10
23.4973932
20
69.330148
11
23.4973932
21
69.4674898
0
LINE
8
DEFAULT_255_1_388
10
23.4973932
20
69.4674898
11
24.3865006
21
69.4674898
0
LINE
8
DEFAULT_255_1_388
10
23.3202946
20
76.7878553
11
23.3202946
21
76.7047274
0
LINE
8
DEFAULT_255_1_388
10
22.2622206
20
76.6929811
11
22.2622206
21
76.7878553
0
LINE
8
DEFAULT_255_1_388
10
23.1477138
20
76.6920775
11
23.1477138
21
76.7896625
0
LINE
8
DEFAULT_255_1_388
10
22.4348014
20
76.8014088
11
22.4348014
21
76.7047274
0
ARC
8
DEFAULT_255_1_388
10
22.3480684
20
76.7002726
40
0.9722364
50
350.4878118
51
0.2625322
0
ARC
8
DEFAULT_255_1_388
10
22.6060644
20
76.6558994
40
0.7104556
50
336.0277991
51
350.5787241
0
ARC
8
DEFAULT_255_1_388
10
22.7573751
20
76.5875243
40
0.544417
50
319.887443
51
336.1331163
0
ARC
8
DEFAULT_255_1_388
10
22.8251563
20
76.5332733
40
0.4576311
50
302.4806296
51
319.6144102
0
ARC
8
DEFAULT_255_1_388
10
22.8122184
20
76.5582067
40
0.4856183
50
275.8196423
51
302.1885521
0
ARC
8
DEFAULT_255_1_388
10
22.7935046
20
76.6867466
40
0.6154183
50
269.9169897
51
276.339506
0
ARC
8
DEFAULT_255_1_388
10
22.7884646
20
76.609568
40
0.5382553
50
252.5221437
51
270.441579
0
ARC
8
DEFAULT_255_1_388
10
22.7722897
20
76.5489046
40
0.4755426
50
237.5349961
51
252.1858334
0
ARC
8
DEFAULT_255_1_388
10
22.7823273
20
76.561712
40
0.4917393
50
209.0632754
51
237.3492577
0
ARC
8
DEFAULT_255_1_388
10
22.8802599
20
76.6232104
40
0.6072464
50
205.118533
51
209.6465345
0
ARC
8
DEFAULT_255_1_388
10
22.9698601
20
76.6612174
40
0.7045164
50
188.7216633
51
204.8239753
0
ARC
8
DEFAULT_255_1_388
10
23.1945376
20
76.6990387
40
0.9323368
50
180.3722704
51
188.9253909
0
ARC
8
DEFAULT_255_1_388
10
23.1914938
20
76.7923416
40
0.929284
50
169.5253055
51
180.2766048
0
ARC
8
DEFAULT_255_1_388
10
22.9774737
20
76.8317024
40
0.7116745
50
155.8314601
51
169.5088611
0
ARC
8
DEFAULT_255_1_388
10
22.83342
20
76.8985312
40
0.5528904
50
139.6259579
51
156.0379072
0
ARC
8
DEFAULT_255_1_388
10
22.7670733
20
76.9519143
40
0.4677708
50
122.6414784
51
139.3431662
0
ARC
8
DEFAULT_255_1_388
10
22.7783988
20
76.9312787
40
0.4912586
50
93.0224537
51
122.4556091
0
ARC
8
DEFAULT_255_1_388
10
22.7905509
20
76.8226776
40
0.6003837
50
89.9756766
51
93.6340839
0
ARC
8
DEFAULT_255_1_388
10
22.7949107
20
76.8675879
40
0.5554884
50
73.7463329
51
90.4234008
0
ARC
8
DEFAULT_255_1_388
10
22.814658
20
76.9440772
40
0.4765353
50
57.663051
51
73.4516911
0
ARC
8
DEFAULT_255_1_388
10
22.8137618
20
76.9465108
40
0.4749629
50
29.1441355
51
57.4146687
0
ARC
8
DEFAULT_255_1_388
10
22.7085429
20
76.8808046
40
0.5988917
50
24.0985653
51
29.732054
0
ARC
8
DEFAULT_255_1_388
10
22.5923061
20
76.8326154
40
0.7246823
50
8.6654943
51
23.8241215
0
ARC
8
DEFAULT_255_1_388
10
22.3409479
20
76.7916037
40
0.9793537
50
359.7807044
51
8.8218476
0
ARC
8
DEFAULT_255_1_388
10
22.2119184
20
76.7944731
40
0.9358078
50
359.7054632
51
8.0359751
0
ARC
8
DEFAULT_255_1_388
10
22.5494235
20
76.8436252
40
0.5947474
50
7.8926278
51
20.2962188
0
ARC
8
DEFAULT_255_1_388
10
22.7325085
20
76.9111367
40
0.3996117
50
20.3231056
51
36.4990255
0
ARC
8
DEFAULT_255_1_388
10
22.8096383
20
76.9705399
40
0.3022818
50
36.1436715
51
85.6627846
0
ARC
8
DEFAULT_255_1_388
10
22.7913638
20
76.8535881
40
0.4203853
50
84.3845912
51
90.076054
0
ARC
8
DEFAULT_255_1_388
10
22.7865993
20
76.9278416
40
0.346157
50
89.3037228
51
109.9046209
0
ARC
8
DEFAULT_255_1_388
10
22.7761826
20
76.9708379
40
0.3022217
50
110.8229774
51
143.917961
0
ARC
8
DEFAULT_255_1_388
10
22.8812185
20
76.8906455
40
0.434348
50
143.5289166
51
163.2980252
0
ARC
8
DEFAULT_255_1_388
10
23.0958472
20
76.8231685
40
0.659321
50
163.0418884
51
174.3139873
0
ARC
8
DEFAULT_255_1_388
10
23.3663437
20
76.7919378
40
0.9315905
50
174.050934
51
179.4174954
0
ARC
8
DEFAULT_255_1_388
10
23.3095381
20
76.7000382
40
0.8747493
50
179.6928582
51
188.7908948
0
ARC
8
DEFAULT_255_1_388
10
23.0099181
20
76.6521086
40
0.5713262
50
188.6328449
51
202.5630732
0
ARC
8
DEFAULT_255_1_388
10
22.8688018
20
76.5954142
40
0.4192612
50
202.8078931
51
216.1195888
0
ARC
8
DEFAULT_255_1_388
10
22.7777535
20
76.5221479
40
0.3025752
50
215.0755613
51
264.6379773
0
ARC
8
DEFAULT_255_1_388
10
22.7920372
20
76.6156376
40
0.3970284
50
263.8464302
51
270.0830805
0
ARC
8
DEFAULT_255_1_388
10
22.7966917
20
76.5865808
40
0.3679937
50
269.3649295
51
287.5149684
0
ARC
8
DEFAULT_255_1_388
10
22.8167358
20
76.5137714
40
0.2925408
50
288.0629019
51
323.8115617
0
ARC
8
DEFAULT_255_1_388
10
22.7187334
20
76.5868754
40
0.4148018
50
323.6546541
51
342.6591359
0
ARC
8
DEFAULT_255_1_388
10
22.4901992
20
76.661228
40
0.6551163
50
342.4092446
51
353.6451501
0
ARC
8
DEFAULT_255_1_388
10
22.1716785
20
76.7008565
40
0.9760748
50
353.4027553
51
359.4846611
0
LINE
8
DEFAULT_255_1_388
10
24.1633202
20
77.4058934
11
24.1931378
21
77.4058934
0
LINE
8
DEFAULT_255_1_388
10
24.1931378
20
77.4058934
11
24.1931378
21
77.2640338
0
LINE
8
DEFAULT_255_1_388
10
24.1931378
20
77.2640338
11
24.1624167
21
77.2640338
0
LINE
8
DEFAULT_255_1_388
10
23.5470893
20
76.5899747
11
23.5470893
21
76.6541278
0
LINE
8
DEFAULT_255_1_388
10
23.7151522
20
76.6324422
11
23.7151522
21
76.5709999
0
ARC
8
DEFAULT_255_1_388
10
24.1683058
20
76.7017826
40
0.562282
50
90.6001079
51
104.5146616
0
ARC
8
DEFAULT_255_1_388
10
24.1246018
20
76.86431
40
0.3939917
50
104.2855758
51
133.8630124
0
ARC
8
DEFAULT_255_1_388
10
24.143027
20
76.8521243
40
0.4155734
50
134.5304124
51
161.6210222
0
ARC
8
DEFAULT_255_1_388
10
24.3290202
20
76.7865421
40
0.6127682
50
161.2850533
51
174.2074364
0
ARC
8
DEFAULT_255_1_388
10
24.4879769
20
76.7646437
40
0.7731446
50
173.7817938
51
174.9251711
0
ARC
8
DEFAULT_255_1_388
10
23.9753963
20
76.609127
40
0.3412588
50
95.8332067
51
138.995412
0
ARC
8
DEFAULT_255_1_388
10
24.0005243
20
76.4652695
40
0.4870358
50
89.8755506
51
97.0540979
0
ARC
8
DEFAULT_255_1_388
10
24.0058632
20
76.5592841
40
0.3930432
50
71.6407016
51
90.6240821
0
ARC
8
DEFAULT_255_1_388
10
24.0228026
20
76.6216433
40
0.3285421
50
39.6368051
51
71.0190743
0
ARC
8
DEFAULT_255_1_388
10
23.9511933
20
76.5597586
40
0.4231706
50
10.6588054
51
39.9044509
0
ARC
8
DEFAULT_255_1_388
10
23.7770479
20
76.5219223
40
0.60133
50
359.6827842
51
11.1326896
0
ARC
8
DEFAULT_255_1_388
10
23.7725815
20
76.5139715
40
0.6058047
50
347.2485908
51
0.4371098
0
ARC
8
DEFAULT_255_1_388
10
23.96016
20
76.4688379
40
0.4128987
50
318.1408565
51
347.6118497
0
ARC
8
DEFAULT_255_1_388
10
23.9967197
20
76.4387903
40
0.3656244
50
275.6342406
51
317.824739
0
ARC
8
DEFAULT_255_1_388
10
23.9718718
20
76.5849827
40
0.513655
50
269.8872513
51
276.7916069
0
ARC
8
DEFAULT_255_1_388
10
23.965691
20
76.4696181
40
0.398323
50
246.9139443
51
270.7436787
0
ARC
8
DEFAULT_255_1_388
10
23.9664106
20
76.4536044
40
0.3839368
50
218.1665534
51
245.8780431
0
ARC
8
DEFAULT_255_1_388
10
24.0653478
20
76.5363903
40
0.5128958
50
191.4115343
51
218.6077624
0
ARC
8
DEFAULT_255_1_388
10
24.2833795
20
76.5852777
40
0.7363054
50
179.6344971
51
191.7836758
0
ARC
8
DEFAULT_255_1_388
10
24.9113669
20
76.6616495
40
1.3642984
50
171.4523743
51
180.3158856
0
ARC
8
DEFAULT_255_1_388
10
24.4169396
20
76.7385895
40
0.8639311
50
157.9802296
51
171.6246761
0
ARC
8
DEFAULT_255_1_388
10
24.1678747
20
76.8379038
40
0.5958004
50
141.4299236
51
157.8541251
0
ARC
8
DEFAULT_255_1_388
10
24.095683
20
76.8889746
40
0.5075416
50
102.871586
51
140.8564533
0
ARC
8
DEFAULT_255_1_388
10
24.1685383
20
76.6144943
40
0.7914163
50
90.377773
51
103.5868422
0
ARC
8
DEFAULT_255_1_388
10
23.9729904
20
76.5464543
40
0.2667015
50
89.8751238
51
126.2072139
0
ARC
8
DEFAULT_255_1_388
10
23.9781375
20
76.5290847
40
0.2838229
50
124.9742447
51
144.8960197
0
ARC
8
DEFAULT_255_1_388
10
23.958362
20
76.5451981
40
0.2583845
50
145.2974778
51
160.2660922
0
ARC
8
DEFAULT_255_1_388
10
24.3040108
20
76.5674151
40
0.5888695
50
179.6512124
51
190.285571
0
ARC
8
DEFAULT_255_1_388
10
24.1134588
20
76.5314968
40
0.3949683
50
190.0944895
51
207.5099647
0
ARC
8
DEFAULT_255_1_388
10
24.049817
20
76.5012177
40
0.3245464
50
207.9585471
51
216.325377
0
ARC
8
DEFAULT_255_1_388
10
24.0115807
20
76.4697712
40
0.2751259
50
215.7661336
51
232.5457193
0
ARC
8
DEFAULT_255_1_388
10
23.9684923
20
76.4150273
40
0.2054668
50
232.8005815
51
270.6605497
0
ARC
8
DEFAULT_255_1_388
10
23.9736347
20
76.4559853
40
0.2464268
50
269.3550767
51
288.474612
0
ARC
8
DEFAULT_255_1_388
10
23.9840854
20
76.4166721
40
0.2058436
50
289.1831976
51
322.9685307
0
ARC
8
DEFAULT_255_1_388
10
23.9152956
20
76.4709279
40
0.2934408
50
322.6007085
51
346.5183319
0
ARC
8
DEFAULT_255_1_388
10
23.7850712
20
76.5041434
40
0.4278249
50
346.2584622
51
358.7739592
0
ARC
8
DEFAULT_255_1_388
10
23.6699287
20
76.5103829
40
0.5430876
50
358.3757628
51
0.0082477
0
ARC
8
DEFAULT_255_1_388
10
23.7556106
20
76.5134856
40
0.4574157
50
359.6211417
51
11.28403
0
ARC
8
DEFAULT_255_1_388
10
23.8992712
20
76.5434535
40
0.3106708
50
11.0483152
51
31.8145585
0
ARC
8
DEFAULT_255_1_388
10
23.9340417
20
76.5623045
40
0.2711963
50
32.3028554
51
38.0820598
0
ARC
8
DEFAULT_255_1_388
10
23.981365
20
76.6051717
40
0.2075566
50
36.8249851
51
85.741667
0
ARC
8
DEFAULT_255_1_388
10
23.9738063
20
76.5488065
40
0.2643487
50
85.0150021
51
90.050843
0
LINE
8
DEFAULT_255_1_388
10
23.3202946
20
84.7253553
11
23.3202946
21
84.6422274
0
LINE
8
DEFAULT_255_1_388
10
22.2622206
20
84.6304811
11
22.2622206
21
84.7253553
0
LINE
8
DEFAULT_255_1_388
10
23.1477138
20
84.6295775
11
23.1477138
21
84.7271625
0
LINE
8
DEFAULT_255_1_388
10
22.4348014
20
84.7389088
11
22.4348014
21
84.6422274
0
ARC
8
DEFAULT_255_1_388
10
22.3480684
20
84.6377726
40
0.9722364
50
350.4878118
51
0.2625322
0
ARC
8
DEFAULT_255_1_388
10
22.6060644
20
84.5933994
40
0.7104556
50
336.0277991
51
350.5787241
0
ARC
8
DEFAULT_255_1_388
10
22.7573751
20
84.5250243
40
0.544417
50
319.887443
51
336.1331163
0
ARC
8
DEFAULT_255_1_388
10
22.8251563
20
84.4707733
40
0.4576311
50
302.4806296
51
319.6144102
0
ARC
8
DEFAULT_255_1_388
10
22.8122184
20
84.4957067
40
0.4856183
50
275.8196423
51
302.1885521
0
ARC
8
DEFAULT_255_1_388
10
22.7935046
20
84.6242466
40
0.6154183
50
269.9169897
51
276.339506
0
ARC
8
DEFAULT_255_1_388
10
22.7884646
20
84.547068
40
0.5382553
50
252.5221437
51
270.441579
0
ARC
8
DEFAULT_255_1_388
10
22.7722897
20
84.4864046
40
0.4755426
50
237.5349961
51
252.1858334
0
ARC
8
DEFAULT_255_1_388
10
22.7823273
20
84.499212
40
0.4917393
50
209.0632754
51
237.3492577
0
ARC
8
DEFAULT_255_1_388
10
22.8802599
20
84.5607104
40
0.6072464
50
205.118533
51
209.6465345
0
ARC
8
DEFAULT_255_1_388
10
22.9698601
20
84.5987174
40
0.7045164
50
188.7216633
51
204.8239753
0
ARC
8
DEFAULT_255_1_388
10
23.1945376
20
84.6365387
40
0.9323368
50
180.3722704
51
188.9253909
0
ARC
8
DEFAULT_255_1_388
10
23.1914938
20
84.7298416
40
0.929284
50
169.5253055
51
180.2766048
0
ARC
8
DEFAULT_255_1_388
10
22.9774737
20
84.7692024
40
0.7116745
50
155.8314601
51
169.5088611
0
ARC
8
DEFAULT_255_1_388
10
22.83342
20
84.8360312
40
0.5528904
50
139.6259579
51
156.0379072
0
ARC
8
DEFAULT_255_1_388
10
22.7670733
20
84.8894143
40
0.4677708
50
122.6414784
51
139.3431662
0
ARC
8
DEFAULT_255_1_388
10
22.7783988
20
84.8687787
40
0.4912586
50
93.0224537
51
122.4556091
0
ARC
8
DEFAULT_255_1_388
10
22.7905509
20
84.7601776
40
0.6003837
50
89.9756766
51
93.6340839
0
ARC
8
DEFAULT_255_1_388
10
22.7949107
20
84.8050879
40
0.5554884
50
73.7463329
51
90.4234008
0
ARC
8
DEFAULT_255_1_388
10
22.814658
20
84.8815772
40
0.4765353
50
57.663051
51
73.4516911
0
ARC
8
DEFAULT_255_1_388
10
22.8137618
20
84.8840108
40
0.4749629
50
29.1441355
51
57.4146687
0
ARC
8
DEFAULT_255_1_388
10
22.7085429
20
84.8183046
40
0.5988917
50
24.0985653
51
29.732054
0
ARC
8
DEFAULT_255_1_388
10
22.5923061
20
84.7701154
40
0.7246823
50
8.6654943
51
23.8241215
0
ARC
8
DEFAULT_255_1_388
10
22.3409479
20
84.7291037
40
0.9793537
50
359.7807044
51
8.8218476
0
ARC
8
DEFAULT_255_1_388
10
22.2119184
20
84.7319731
40
0.9358078
50
359.7054632
51
8.0359751
0
ARC
8
DEFAULT_255_1_388
10
22.5494235
20
84.7811252
40
0.5947474
50
7.8926278
51
20.2962188
0
ARC
8
DEFAULT_255_1_388
10
22.7325085
20
84.8486367
40
0.3996117
50
20.3231056
51
36.4990255
0
ARC
8
DEFAULT_255_1_388
10
22.8096383
20
84.9080399
40
0.3022818
50
36.1436715
51
85.6627846
0
ARC
8
DEFAULT_255_1_388
10
22.7913638
20
84.7910881
40
0.4203853
50
84.3845912
51
90.076054
0
ARC
8
DEFAULT_255_1_388
10
22.7865993
20
84.8653416
40
0.346157
50
89.3037228
51
109.9046209
0
ARC
8
DEFAULT_255_1_388
10
22.7761826
20
84.9083379
40
0.3022217
50
110.8229774
51
143.917961
0
ARC
8
DEFAULT_255_1_388
10
22.8812185
20
84.8281455
40
0.434348
50
143.5289166
51
163.2980252
0
ARC
8
DEFAULT_255_1_388
10
23.0958472
20
84.7606685
40
0.659321
50
163.0418884
51
174.3139873
0
ARC
8
DEFAULT_255_1_388
10
23.3663437
20
84.7294378
40
0.9315905
50
174.050934
51
179.4174954
0
ARC
8
DEFAULT_255_1_388
10
23.3095381
20
84.6375382
40
0.8747493
50
179.6928582
51
188.7908948
0
ARC
8
DEFAULT_255_1_388
10
23.0099181
20
84.5896086
40
0.5713262
50
188.6328449
51
202.5630732
0
ARC
8
DEFAULT_255_1_388
10
22.8688018
20
84.5329142
40
0.4192612
50
202.8078931
51
216.1195888
0
ARC
8
DEFAULT_255_1_388
10
22.7777535
20
84.4596479
40
0.3025752
50
215.0755613
51
264.6379773
0
ARC
8
DEFAULT_255_1_388
10
22.7920372
20
84.5531376
40
0.3970284
50
263.8464302
51
270.0830805
0
ARC
8
DEFAULT_255_1_388
10
22.7966917
20
84.5240808
40
0.3679937
50
269.3649295
51
287.5149684
0
ARC
8
DEFAULT_255_1_388
10
22.8167358
20
84.4512714
40
0.2925408
50
288.0629019
51
323.8115617
0
ARC
8
DEFAULT_255_1_388
10
22.7187334
20
84.5243754
40
0.4148018
50
323.6546541
51
342.6591359
0
ARC
8
DEFAULT_255_1_388
10
22.4901992
20
84.598728
40
0.6551163
50
342.4092446
51
353.6451501
0
ARC
8
DEFAULT_255_1_388
10
22.1716785
20
84.6383565
40
0.9760748
50
353.4027553
51
359.4846611
0
LINE
8
DEFAULT_255_1_388
10
23.7476806
20
84.6521666
11
23.613953
21
84.6865021
0
LINE
8
DEFAULT_255_1_388
10
23.613953
20
84.6865021
11
23.6808168
21
85.3424898
0
LINE
8
DEFAULT_255_1_388
10
23.6808168
20
85.3424898
11
24.3548759
21
85.3424898
0
LINE
8
DEFAULT_255_1_388
10
24.3548759
20
85.3424898
11
24.3548759
21
85.1879803
0
LINE
8
DEFAULT_255_1_388
10
24.3548759
20
85.1879803
11
23.8226764
21
85.1879803
0
LINE
8
DEFAULT_255_1_388
10
23.8226764
20
85.1879803
11
23.7829196
21
84.8292652
0
LINE
8
DEFAULT_255_1_388
10
23.5669677
20
84.3729652
11
23.7250915
21
84.3729652
0
LINE
8
DEFAULT_255_1_388
10
23.7919552
20
84.6883092
11
23.7476806
21
84.6521666
0
ARC
8
DEFAULT_255_1_388
10
23.9915809
20
84.4715241
40
0.4141476
50
93.7181681
51
120.253934
0
ARC
8
DEFAULT_255_1_388
10
24.0021862
20
84.3806284
40
0.5055616
50
89.9660471
51
94.2495185
0
ARC
8
DEFAULT_255_1_388
10
24.0067683
20
84.4469154
40
0.4392953
50
73.8045384
51
90.5585736
0
ARC
8
DEFAULT_255_1_388
10
24.0331941
20
84.543452
40
0.3392225
50
41.3071072
51
73.543002
0
ARC
8
DEFAULT_255_1_388
10
23.9863761
20
84.5031461
40
0.4009977
50
13.5075837
51
41.2174839
0
ARC
8
DEFAULT_255_1_388
10
23.8016858
20
84.4547907
40
0.5918864
50
1.1330171
51
13.8830737
0
ARC
8
DEFAULT_255_1_388
10
23.6420504
20
84.4462522
40
0.7516787
50
359.9925091
51
1.5431298
0
ARC
8
DEFAULT_255_1_388
10
23.7865119
20
84.4416027
40
0.6072343
50
347.8572712
51
0.4294349
0
ARC
8
DEFAULT_255_1_388
10
23.9834254
20
84.3969898
40
0.4053482
50
323.6727442
51
348.1674594
0
ARC
8
DEFAULT_255_1_388
10
24.0165219
20
84.3768175
40
0.3667495
50
316.8171818
51
323.1486802
0
ARC
8
DEFAULT_255_1_388
10
24.0234342
20
84.3726612
40
0.358869
50
281.839603
51
316.5458142
0
ARC
8
DEFAULT_255_1_388
10
23.981163
20
84.5476363
40
0.5388223
50
269.5770964
51
282.4214641
0
ARC
8
DEFAULT_255_1_388
10
23.9731551
20
84.523593
40
0.5147801
50
256.2425863
51
270.4486481
0
ARC
8
DEFAULT_255_1_388
10
23.9395078
20
84.3886124
40
0.3756708
50
228.9024379
51
256.33135
0
ARC
8
DEFAULT_255_1_388
10
23.9312058
20
84.3755054
40
0.360344
50
193.7536029
51
228.5272638
0
ARC
8
DEFAULT_255_1_388
10
24.0704623
20
84.4163463
40
0.5053599
50
184.9244437
51
194.4976052
0
ARC
8
DEFAULT_255_1_388
10
24.0921265
20
84.4203722
40
0.3700839
50
187.3596909
51
198.6733728
0
ARC
8
DEFAULT_255_1_388
10
23.9740508
20
84.3794373
40
0.2451195
50
198.4453795
51
217.7945479
0
ARC
8
DEFAULT_255_1_388
10
23.9407681
20
84.3558563
40
0.2043754
50
218.2887146
51
228.5613203
0
ARC
8
DEFAULT_255_1_388
10
23.9517688
20
84.3706902
40
0.2227819
50
228.9652423
51
258.1237049
0
ARC
8
DEFAULT_255_1_388
10
23.9749125
20
84.4697964
40
0.3245374
50
257.7260585
51
270.4013717
0
ARC
8
DEFAULT_255_1_388
10
23.9799623
20
84.4197255
40
0.2744726
50
269.4204315
51
286.420998
0
ARC
8
DEFAULT_255_1_388
10
23.9966679
20
84.3590705
40
0.2115721
50
286.7250065
51
320.6004665
0
ARC
8
DEFAULT_255_1_388
10
23.9535594
20
84.3940527
40
0.2670878
50
320.6712228
51
344.5440474
0
ARC
8
DEFAULT_255_1_388
10
23.8234308
20
84.4322394
40
0.4026927
50
344.241448
51
356.735803
0
ARC
8
DEFAULT_255_1_388
10
23.6830615
20
84.4438656
40
0.5435085
50
356.3547471
51
0.0507222
0
ARC
8
DEFAULT_255_1_388
10
23.833288
20
84.4473812
40
0.3932934
50
359.5579289
51
12.9534322
0
ARC
8
DEFAULT_255_1_388
10
23.951972
20
84.4761586
40
0.2711827
50
12.6489751
51
41.608121
0
ARC
8
DEFAULT_255_1_388
10
23.977888
20
84.4981946
40
0.2371737
50
41.7851122
51
85.9892156
0
ARC
8
DEFAULT_255_1_388
10
23.964019
20
84.4066738
40
0.3295244
50
84.6965848
51
90.0672125
0
ARC
8
DEFAULT_255_1_388
10
23.9613758
20
84.3315118
40
0.4046926
50
89.6804991
51
99.161352
0
ARC
8
DEFAULT_255_1_388
10
23.9382767
20
84.4695848
40
0.2647044
50
98.9836248
51
113.8905702
0
ARC
8
DEFAULT_255_1_388
10
23.9124442
20
84.5305118
40
0.1985386
50
114.195234
51
127.3641866
0
LINE
8
DEFAULT_255_1_388
10
23.1879946
20
92.6628553
11
23.1879946
21
92.5797274
0
LINE
8
DEFAULT_255_1_388
10
22.1299206
20
92.5679811
11
22.1299206
21
92.6628553
0
LINE
8
DEFAULT_255_1_388
10
23.0154138
20
92.5670775
11
23.0154138
21
92.6646625
0
LINE
8
DEFAULT_255_1_388
10
22.3025014
20
92.6764088
11
22.3025014
21
92.5797274
0
ARC
8
DEFAULT_255_1_388
10
22.2157684
20
92.5752726
40
0.9722364
50
350.4878118
51
0.2625322
0
ARC
8
DEFAULT_255_1_388
10
22.4737644
20
92.5308994
40
0.7104556
50
336.0277991
51
350.5787241
0
ARC
8
DEFAULT_255_1_388
10
22.6250751
20
92.4625243
40
0.544417
50
319.887443
51
336.1331163
0
ARC
8
DEFAULT_255_1_388
10
22.6928563
20
92.4082733
40
0.4576311
50
302.4806296
51
319.6144102
0
ARC
8
DEFAULT_255_1_388
10
22.6799184
20
92.4332067
40
0.4856183
50
275.8196423
51
302.1885521
0
ARC
8
DEFAULT_255_1_388
10
22.6612046
20
92.5617466
40
0.6154183
50
269.9169897
51
276.339506
0
ARC
8
DEFAULT_255_1_388
10
22.6561646
20
92.484568
40
0.5382553
50
252.5221437
51
270.441579
0
ARC
8
DEFAULT_255_1_388
10
22.6399897
20
92.4239046
40
0.4755426
50
237.5349961
51
252.1858334
0
ARC
8
DEFAULT_255_1_388
10
22.6500273
20
92.436712
40
0.4917393
50
209.0632754
51
237.3492577
0
ARC
8
DEFAULT_255_1_388
10
22.7479599
20
92.4982104
40
0.6072464
50
205.118533
51
209.6465345
0
ARC
8
DEFAULT_255_1_388
10
22.8375601
20
92.5362174
40
0.7045164
50
188.7216633
51
204.8239753
0
ARC
8
DEFAULT_255_1_388
10
23.0622376
20
92.5740387
40
0.9323368
50
180.3722704
51
188.9253909
0
ARC
8
DEFAULT_255_1_388
10
23.0591938
20
92.6673416
40
0.929284
50
169.5253055
51
180.2766048
0
ARC
8
DEFAULT_255_1_388
10
22.8451737
20
92.7067024
40
0.7116745
50
155.8314601
51
169.5088611
0
ARC
8
DEFAULT_255_1_388
10
22.70112
20
92.7735312
40
0.5528904
50
139.6259579
51
156.0379072
0
ARC
8
DEFAULT_255_1_388
10
22.6347733
20
92.8269143
40
0.4677708
50
122.6414784
51
139.3431662
0
ARC
8
DEFAULT_255_1_388
10
22.6460988
20
92.8062787
40
0.4912586
50
93.0224537
51
122.4556091
0
ARC
8
DEFAULT_255_1_388
10
22.6582509
20
92.6976776
40
0.6003837
50
89.9756766
51
93.6340839
0
ARC
8
DEFAULT_255_1_388
10
22.6626107
20
92.7425879
40
0.5554884
50
73.7463329
51
90.4234008
0
ARC
8
DEFAULT_255_1_388
10
22.682358
20
92.8190772
40
0.4765353
50
57.663051
51
73.4516911
0
ARC
8
DEFAULT_255_1_388
10
22.6814618
20
92.8215108
40
0.4749629
50
29.1441355
51
57.4146687
0
ARC
8
DEFAULT_255_1_388
10
22.5762429
20
92.7558046
40
0.5988917
50
24.0985653
51
29.732054
0
ARC
8
DEFAULT_255_1_388
10
22.4600061
20
92.7076154
40
0.7246823
50
8.6654943
51
23.8241215
0
ARC
8
DEFAULT_255_1_388
10
22.2086479
20
92.6666037
40
0.9793537
50
359.7807044
51
8.8218476
0
ARC
8
DEFAULT_255_1_388
10
22.0796184
20
92.6694731
40
0.9358078
50
359.7054632
51
8.0359751
0
ARC
8
DEFAULT_255_1_388
10
22.4171235
20
92.7186252
40
0.5947474
50
7.8926278
51
20.2962188
0
ARC
8
DEFAULT_255_1_388
10
22.6002085
20
92.7861367
40
0.3996117
50
20.3231056
51
36.4990255
0
ARC
8
DEFAULT_255_1_388
10
22.6773383
20
92.8455399
40
0.3022818
50
36.1436715
51
85.6627846
0
ARC
8
DEFAULT_255_1_388
10
22.6590638
20
92.7285881
40
0.4203853
50
84.3845912
51
90.076054
0
ARC
8
DEFAULT_255_1_388
10
22.6542993
20
92.8028416
40
0.346157
50
89.3037228
51
109.9046209
0
ARC
8
DEFAULT_255_1_388
10
22.6438826
20
92.8458379
40
0.3022217
50
110.8229774
51
143.917961
0
ARC
8
DEFAULT_255_1_388
10
22.7489185
20
92.7656455
40
0.434348
50
143.5289166
51
163.2980252
0
ARC
8
DEFAULT_255_1_388
10
22.9635472
20
92.6981685
40
0.659321
50
163.0418884
51
174.3139873
0
ARC
8
DEFAULT_255_1_388
10
23.2340437
20
92.6669378
40
0.9315905
50
174.050934
51
179.4174954
0
ARC
8
DEFAULT_255_1_388
10
23.1772381
20
92.5750382
40
0.8747493
50
179.6928582
51
188.7908948
0
ARC
8
DEFAULT_255_1_388
10
22.8776181
20
92.5271086
40
0.5713262
50
188.6328449
51
202.5630732
0
ARC
8
DEFAULT_255_1_388
10
22.7365018
20
92.4704142
40
0.4192612
50
202.8078931
51
216.1195888
0
ARC
8
DEFAULT_255_1_388
10
22.6454535
20
92.3971479
40
0.3025752
50
215.0755613
51
264.6379773
0
ARC
8
DEFAULT_255_1_388
10
22.6597372
20
92.4906376
40
0.3970284
50
263.8464302
51
270.0830805
0
ARC
8
DEFAULT_255_1_388
10
22.6643917
20
92.4615808
40
0.3679937
50
269.3649295
51
287.5149684
0
ARC
8
DEFAULT_255_1_388
10
22.6844358
20
92.3887714
40
0.2925408
50
288.0629019
51
323.8115617
0
ARC
8
DEFAULT_255_1_388
10
22.5864334
20
92.4618754
40
0.4148018
50
323.6546541
51
342.6591359
0
ARC
8
DEFAULT_255_1_388
10
22.3578992
20
92.536228
40
0.6551163
50
342.4092446
51
353.6451501
0
ARC
8
DEFAULT_255_1_388
10
22.0393785
20
92.5758565
40
0.9760748
50
353.4027553
51
359.4846611
0
LINE
8
DEFAULT_255_1_388
10
24.1105339
20
93.2799898
11
24.1105339
21
92.406243
0
LINE
8
DEFAULT_255_1_388
10
24.1105339
20
92.406243
11
24.2930539
21
92.406243
0
LINE
8
DEFAULT_255_1_388
10
24.2930539
20
92.406243
11
24.2930539
21
92.2698048
0
LINE
8
DEFAULT_255_1_388
10
24.2930539
20
92.2698048
11
24.1105339
21
92.2698048
0
LINE
8
DEFAULT_255_1_388
10
24.1105339
20
92.2698048
11
24.1105339
21
91.9644
0
LINE
8
DEFAULT_255_1_388
10
24.1105339
20
91.9644
11
23.9424709
21
91.9644
0
LINE
8
DEFAULT_255_1_388
10
23.9424709
20
91.9644
11
23.9424709
21
92.2698048
0
LINE
8
DEFAULT_255_1_388
10
23.9424709
20
92.2698048
11
23.3434077
21
92.2698048
0
LINE
8
DEFAULT_255_1_388
10
23.3434077
20
92.2698048
11
23.3434077
21
92.3682933
0
LINE
8
DEFAULT_255_1_388
10
23.3434077
20
92.3682933
11
23.9325317
21
93.2799898
0
LINE
8
DEFAULT_255_1_388
10
23.9325317
20
93.2799898
11
24.1105339
21
93.2799898
0
LINE
8
DEFAULT_255_1_388
10
23.9225925
20
93.0152455
11
23.5331562
21
92.406243
0
LINE
8
DEFAULT_255_1_388
10
23.5331562
20
92.406243
11
23.9424709
21
92.406243
0
LINE
8
DEFAULT_255_1_388
10
23.9424709
20
92.406243
11
23.9424709
21
93.051388
0
LINE
8
DEFAULT_255_1_388
10
23.9424709
20
93.051388
11
23.9225925
21
93.0152455
0
LINE
8
DEFAULT_255_1_388
10
23.3202946
20
100.6003553
11
23.3202946
21
100.5172274
0
LINE
8
DEFAULT_255_1_388
10
22.2622206
20
100.5054811
11
22.2622206
21
100.6003553
0
LINE
8
DEFAULT_255_1_388
10
23.1477138
20
100.5045775
11
23.1477138
21
100.6021625
0
LINE
8
DEFAULT_255_1_388
10
22.4348014
20
100.6139088
11
22.4348014
21
100.5172274
0
ARC
8
DEFAULT_255_1_388
10
22.3480684
20
100.5127726
40
0.9722364
50
350.4878118
51
0.2625322
0
ARC
8
DEFAULT_255_1_388
10
22.6060644
20
100.4683994
40
0.7104556
50
336.0277991
51
350.5787241
0
ARC
8
DEFAULT_255_1_388
10
22.7573751
20
100.4000243
40
0.544417
50
319.887443
51
336.1331163
0
ARC
8
DEFAULT_255_1_388
10
22.8251563
20
100.3457733
40
0.4576311
50
302.4806296
51
319.6144102
0
ARC
8
DEFAULT_255_1_388
10
22.8122184
20
100.3707067
40
0.4856183
50
275.8196423
51
302.1885521
0
ARC
8
DEFAULT_255_1_388
10
22.7935046
20
100.4992466
40
0.6154183
50
269.9169897
51
276.339506
0
ARC
8
DEFAULT_255_1_388
10
22.7884646
20
100.422068
40
0.5382553
50
252.5221437
51
270.441579
0
ARC
8
DEFAULT_255_1_388
10
22.7722897
20
100.3614046
40
0.4755426
50
237.5349961
51
252.1858334
0
ARC
8
DEFAULT_255_1_388
10
22.7823273
20
100.374212
40
0.4917393
50
209.0632754
51
237.3492577
0
ARC
8
DEFAULT_255_1_388
10
22.8802599
20
100.4357104
40
0.6072464
50
205.118533
51
209.6465345
0
ARC
8
DEFAULT_255_1_388
10
22.9698601
20
100.4737174
40
0.7045164
50
188.7216633
51
204.8239753
0
ARC
8
DEFAULT_255_1_388
10
23.1945376
20
100.5115387
40
0.9323368
50
180.3722704
51
188.9253909
0
ARC
8
DEFAULT_255_1_388
10
23.1914938
20
100.6048416
40
0.929284
50
169.5253055
51
180.2766048
0
ARC
8
DEFAULT_255_1_388
10
22.9774737
20
100.6442024
40
0.7116745
50
155.8314601
51
169.5088611
0
ARC
8
DEFAULT_255_1_388
10
22.83342
20
100.7110312
40
0.5528904
50
139.6259579
51
156.0379072
0
ARC
8
DEFAULT_255_1_388
10
22.7670733
20
100.7644143
40
0.4677708
50
122.6414784
51
139.3431662
0
ARC
8
DEFAULT_255_1_388
10
22.7783988
20
100.7437787
40
0.4912586
50
93.0224537
51
122.4556091
0
ARC
8
DEFAULT_255_1_388
10
22.7905509
20
100.6351776
40
0.6003837
50
89.9756766
51
93.6340839
0
ARC
8
DEFAULT_255_1_388
10
22.7949107
20
100.6800879
40
0.5554884
50
73.7463329
51
90.4234008
0
ARC
8
DEFAULT_255_1_388
10
22.814658
20
100.7565772
40
0.4765353
50
57.663051
51
73.4516911
0
ARC
8
DEFAULT_255_1_388
10
22.8137618
20
100.7590108
40
0.4749629
50
29.1441355
51
57.4146687
0
ARC
8
DEFAULT_255_1_388
10
22.7085429
20
100.6933046
40
0.5988917
50
24.0985653
51
29.732054
0
ARC
8
DEFAULT_255_1_388
10
22.5923061
20
100.6451154
40
0.7246823
50
8.6654943
51
23.8241215
0
ARC
8
DEFAULT_255_1_388
10
22.3409479
20
100.6041037
40
0.9793537
50
359.7807044
51
8.8218476
0
ARC
8
DEFAULT_255_1_388
10
22.2119184
20
100.6069731
40
0.9358078
50
359.7054632
51
8.0359751
0
ARC
8
DEFAULT_255_1_388
10
22.5494235
20
100.6561252
40
0.5947474
50
7.8926278
51
20.2962188
0
ARC
8
DEFAULT_255_1_388
10
22.7325085
20
100.7236367
40
0.3996117
50
20.3231056
51
36.4990255
0
ARC
8
DEFAULT_255_1_388
10
22.8096383
20
100.7830399
40
0.3022818
50
36.1436715
51
85.6627846
0
ARC
8
DEFAULT_255_1_388
10
22.7913638
20
100.6660881
40
0.4203853
50
84.3845912
51
90.076054
0
ARC
8
DEFAULT_255_1_388
10
22.7865993
20
100.7403416
40
0.346157
50
89.3037228
51
109.9046209
0
ARC
8
DEFAULT_255_1_388
10
22.7761826
20
100.7833379
40
0.3022217
50
110.8229774
51
143.917961
0
ARC
8
DEFAULT_255_1_388
10
22.8812185
20
100.7031455
40
0.434348
50
143.5289166
51
163.2980252
0
ARC
8
DEFAULT_255_1_388
10
23.0958472
20
100.6356685
40
0.659321
50
163.0418884
51
174.3139873
0
ARC
8
DEFAULT_255_1_388
10
23.3663437
20
100.6044378
40
0.9315905
50
174.050934
51
179.4174954
0
ARC
8
DEFAULT_255_1_388
10
23.3095381
20
100.5125382
40
0.8747493
50
179.6928582
51
188.7908948
0
ARC
8
DEFAULT_255_1_388
10
23.0099181
20
100.4646086
40
0.5713262
50
188.6328449
51
202.5630732
0
ARC
8
DEFAULT_255_1_388
10
22.8688018
20
100.4079142
40
0.4192612
50
202.8078931
51
216.1195888
0
ARC
8
DEFAULT_255_1_388
10
22.7777535
20
100.3346479
40
0.3025752
50
215.0755613
51
264.6379773
0
ARC
8
DEFAULT_255_1_388
10
22.7920372
20
100.4281376
40
0.3970284
50
263.8464302
51
270.0830805
0
ARC
8
DEFAULT_255_1_388
10
22.7966917
20
100.3990808
40
0.3679937
50
269.3649295
51
287.5149684
0
ARC
8
DEFAULT_255_1_388
10
22.8167358
20
100.3262714
40
0.2925408
50
288.0629019
51
323.8115617
0
ARC
8
DEFAULT_255_1_388
10
22.7187334
20
100.3993754
40
0.4148018
50
323.6546541
51
342.6591359
0
ARC
8
DEFAULT_255_1_388
10
22.4901992
20
100.473728
40
0.6551163
50
342.4092446
51
353.6451501
0
ARC
8
DEFAULT_255_1_388
10
22.1716785
20
100.5133565
40
0.9760748
50
353.4027553
51
359.4846611
0
LINE
8
DEFAULT_255_1_388
10
23.7802089
20
100.5045775
11
23.7802089
21
100.6410157
0
LINE
8
DEFAULT_255_1_388
10
23.7802089
20
100.6410157
11
23.9058043
21
100.6410157
0
LINE
8
DEFAULT_255_1_388
10
23.6916596
20
100.8723282
11
23.5245001
21
100.8723282
0
LINE
8
DEFAULT_255_1_388
10
23.5127538
20
100.2488688
11
23.6808168
21
100.2488688
0
LINE
8
DEFAULT_255_1_388
10
23.9058043
20
100.5045775
11
23.7802089
21
100.5045775
0
ARC
8
DEFAULT_255_1_388
10
23.902527
20
101.0226922
40
0.3816905
50
270.491971
51
281.8953028
0
ARC
8
DEFAULT_255_1_388
10
23.9296697
20
100.8987199
40
0.2547877
50
281.6690378
51
301.2943765
0
ARC
8
DEFAULT_255_1_388
10
23.9488148
20
100.8636926
40
0.2149197
50
301.7834992
51
311.754567
0
ARC
8
DEFAULT_255_1_388
10
23.959119
20
100.852265
40
0.1995326
50
311.7325027
51
354.2803031
0
ARC
8
DEFAULT_255_1_388
10
23.8773606
20
100.866328
40
0.2823461
50
353.0941646
51
0.1174696
0
ARC
8
DEFAULT_255_1_388
10
23.8255163
20
100.8716874
40
0.3342238
50
359.1804452
51
15.0452323
0
ARC
8
DEFAULT_255_1_388
10
23.9769222
20
100.9158546
40
0.1765747
50
13.957816
51
77.6713812
0
ARC
8
DEFAULT_255_1_388
10
23.9334458
20
100.7600464
40
0.3381982
50
76.111571
51
90.7028736
0
ARC
8
DEFAULT_255_1_388
10
23.926787
20
100.790825
40
0.3074046
50
89.5321574
51
103.5319393
0
ARC
8
DEFAULT_255_1_388
10
23.9042253
20
100.8807443
40
0.2147041
50
103.2930114
51
133.5619756
0
ARC
8
DEFAULT_255_1_388
10
23.8992195
20
100.8874351
40
0.2064084
50
133.8349761
51
173.5343225
0
ARC
8
DEFAULT_255_1_388
10
23.9805852
20
100.8730144
40
0.2889266
50
172.5097183
51
180.1360699
0
ARC
8
DEFAULT_255_1_388
10
23.8735616
20
100.876888
40
0.3490913
50
155.3483706
51
180.7484035
0
ARC
8
DEFAULT_255_1_388
10
23.8680592
20
100.8736519
40
0.3454798
50
131.5745177
51
154.4799474
0
ARC
8
DEFAULT_255_1_388
10
23.9032874
20
100.8380422
40
0.3955058
50
96.9874487
51
131.9690874
0
ARC
8
DEFAULT_255_1_388
10
23.9279767
20
100.6979407
40
0.537622
50
89.8592909
51
97.7827481
0
ARC
8
DEFAULT_255_1_388
10
23.9333876
20
100.668436
40
0.5671399
50
78.3654493
51
90.4132586
0
ARC
8
DEFAULT_255_1_388
10
23.9736517
20
100.8550918
40
0.3762034
50
56.6229818
51
78.6387103
0
ARC
8
DEFAULT_255_1_388
10
23.9978347
20
100.8973846
40
0.3275964
50
47.0254604
51
56.085558
0
ARC
8
DEFAULT_255_1_388
10
24.0000598
20
100.9018189
40
0.3228382
50
10.9207523
51
46.777927
0
ARC
8
DEFAULT_255_1_388
10
23.8466191
20
100.8663401
40
0.4802559
50
359.6364235
51
11.6087615
0
ARC
8
DEFAULT_255_1_388
10
24.0530357
20
100.8646404
40
0.273833
50
332.3549969
51
359.7179765
0
ARC
8
DEFAULT_255_1_388
10
23.9798758
20
100.8993285
40
0.3547505
50
325.2332381
51
332.8746682
0
ARC
8
DEFAULT_255_1_388
10
23.9970341
20
100.8873763
40
0.3338396
50
292.9803892
51
325.2391113
0
ARC
8
DEFAULT_255_1_388
10
23.9659536
20
100.9478679
40
0.4016959
50
292.542178
51
293.6931461
0
ARC
8
DEFAULT_255_1_388
10
24.0103108
20
100.2213036
40
0.372079
50
57.643292
51
72.8626085
0
ARC
8
DEFAULT_255_1_388
10
24.0501943
20
100.2859273
40
0.2961455
50
36.7246661
51
57.4701329
0
ARC
8
DEFAULT_255_1_388
10
24.04891
20
100.287347
40
0.2963321
50
8.054535
51
36.3561529
0
ARC
8
DEFAULT_255_1_388
10
23.9518772
20
100.2699073
40
0.3948682
50
359.8316595
51
8.5873361
0
ARC
8
DEFAULT_255_1_388
10
23.9096246
20
100.264497
40
0.4371398
50
343.9831631
51
0.557075
0
ARC
8
DEFAULT_255_1_388
10
24.0093296
20
100.2371963
40
0.3337749
50
311.6358204
51
343.7652116
0
ARC
8
DEFAULT_255_1_388
10
23.966755
20
100.2851955
40
0.3979351
50
279.7829743
51
311.625622
0
ARC
8
DEFAULT_255_1_388
10
23.9328685
20
100.4468642
40
0.5630417
50
269.7285092
51
280.3857694
0
ARC
8
DEFAULT_255_1_388
10
23.9258998
20
100.4422241
40
0.5584119
50
256.6827433
51
270.4412869
0
ARC
8
DEFAULT_255_1_388
10
23.8877984
20
100.2864698
40
0.3980715
50
229.4223821
51
256.8554507
0
ARC
8
DEFAULT_255_1_388
10
23.8411538
20
100.2339683
40
0.3278564
50
181.8183354
51
229.6455015
0
ARC
8
DEFAULT_255_1_388
10
23.9581147
20
100.2486825
40
0.4453611
50
179.9760419
51
183.2330638
0
ARC
8
DEFAULT_255_1_388
10
23.93877
20
100.2463781
40
0.2579652
50
179.4467996
51
196.2871626
0
ARC
8
DEFAULT_255_1_388
10
23.8839153
20
100.2313709
40
0.2011057
50
196.5661293
51
227.7059371
0
ARC
8
DEFAULT_255_1_388
10
23.9023761
20
100.2520155
40
0.2287994
50
227.7653015
51
257.8763321
0
ARC
8
DEFAULT_255_1_388
10
23.9276844
20
100.3580961
40
0.3378385
50
257.4583525
51
270.4267406
0
ARC
8
DEFAULT_255_1_388
10
23.9328093
20
100.390723
40
0.3704652
50
269.5965319
51
280.8788143
0
ARC
8
DEFAULT_255_1_388
10
23.9586321
20
100.2617529
40
0.2389415
50
280.6347277
51
299.8594068
0
ARC
8
DEFAULT_255_1_388
10
23.9801091
20
100.2209736
40
0.19289
50
300.3575552
51
314.5515667
0
ARC
8
DEFAULT_255_1_388
10
23.9707767
20
100.2278025
40
0.204312
50
315.0730962
51
345.0429362
0
ARC
8
DEFAULT_255_1_388
10
23.8669274
20
100.2580539
40
0.31246
50
344.598526
51
357.9270698
0
ARC
8
DEFAULT_255_1_388
10
23.7659579
20
100.2649705
40
0.4136265
50
357.4755098
51
0.0224936
0
ARC
8
DEFAULT_255_1_388
10
23.8812457
20
100.2677099
40
0.2983498
50
359.5051035
51
13.4236939
0
ARC
8
DEFAULT_255_1_388
10
23.9787546
20
100.2926637
40
0.1977186
50
12.9497905
51
48.7550905
0
ARC
8
DEFAULT_255_1_388
10
23.9582468
20
100.2646373
40
0.2323321
50
49.509109
51
72.1832965
0
ARC
8
DEFAULT_255_1_388
10
23.9179937
20
100.1451632
40
0.358397
50
71.9008458
51
84.3555134
0
ARC
8
DEFAULT_255_1_388
10
23.8998331
20
99.9919712
40
0.512641
50
84.019632
51
89.3326067
0
LINE
8
DEFAULT_255_1_388
10
23.3202946
20
108.5378553
11
23.3202946
21
108.4547274
0
LINE
8
DEFAULT_255_1_388
10
22.2622206
20
108.4429811
11
22.2622206
21
108.5378553
0
LINE
8
DEFAULT_255_1_388
10
23.1477138
20
108.4420775
11
23.1477138
21
108.5396625
0
LINE
8
DEFAULT_255_1_388
10
22.4348014
20
108.5514088
11
22.4348014
21
108.4547274
0
ARC
8
DEFAULT_255_1_388
10
22.3480684
20
108.4502726
40
0.9722364
50
350.4878118
51
0.2625322
0
ARC
8
DEFAULT_255_1_388
10
22.6060644
20
108.4058994
40
0.7104556
50
336.0277991
51
350.5787241
0
ARC
8
DEFAULT_255_1_388
10
22.7573751
20
108.3375243
40
0.544417
50
319.887443
51
336.1331163
0
ARC
8
DEFAULT_255_1_388
10
22.8251563
20
108.2832733
40
0.4576311
50
302.4806296
51
319.6144102
0
ARC
8
DEFAULT_255_1_388
10
22.8122184
20
108.3082067
40
0.4856183
50
275.8196423
51
302.1885521
0
ARC
8
DEFAULT_255_1_388
10
22.7935046
20
108.4367466
40
0.6154183
50
269.9169897
51
276.339506
0
ARC
8
DEFAULT_255_1_388
10
22.7884646
20
108.359568
40
0.5382553
50
252.5221437
51
270.441579
0
ARC
8
DEFAULT_255_1_388
10
22.7722897
20
108.2989046
40
0.4755426
50
237.5349961
51
252.1858334
0
ARC
8
DEFAULT_255_1_388
10
22.7823273
20
108.311712
40
0.4917393
50
209.0632754
51
237.3492577
0
ARC
8
DEFAULT_255_1_388
10
22.8802599
20
108.3732104
40
0.6072464
50
205.118533
51
209.6465345
0
ARC
8
DEFAULT_255_1_388
10
22.9698601
20
108.4112174
40
0.7045164
50
188.7216633
51
204.8239753
0
ARC
8
DEFAULT_255_1_388
10
23.1945376
20
108.4490387
40
0.9323368
50
180.3722704
51
188.9253909
0
ARC
8
DEFAULT_255_1_388
10
23.1914938
20
108.5423416
40
0.929284
50
169.5253055
51
180.2766048
0
ARC
8
DEFAULT_255_1_388
10
22.9774737
20
108.5817024
40
0.7116745
50
155.8314601
51
169.5088611
0
ARC
8
DEFAULT_255_1_388
10
22.83342
20
108.6485312
40
0.5528904
50
139.6259579
51
156.0379072
0
ARC
8
DEFAULT_255_1_388
10
22.7670733
20
108.7019143
40
0.4677708
50
122.6414784
51
139.3431662
0
ARC
8
DEFAULT_255_1_388
10
22.7783988
20
108.6812787
40
0.4912586
50
93.0224537
51
122.4556091
0
ARC
8
DEFAULT_255_1_388
10
22.7905509
20
108.5726776
40
0.6003837
50
89.9756766
51
93.6340839
0
ARC
8
DEFAULT_255_1_388
10
22.7949107
20
108.6175879
40
0.5554884
50
73.7463329
51
90.4234008
0
ARC
8
DEFAULT_255_1_388
10
22.814658
20
108.6940772
40
0.4765353
50
57.663051
51
73.4516911
0
ARC
8
DEFAULT_255_1_388
10
22.8137618
20
108.6965108
40
0.4749629
50
29.1441355
51
57.4146687
0
ARC
8
DEFAULT_255_1_388
10
22.7085429
20
108.6308046
40
0.5988917
50
24.0985653
51
29.732054
0
ARC
8
DEFAULT_255_1_388
10
22.5923061
20
108.5826154
40
0.7246823
50
8.6654943
51
23.8241215
0
ARC
8
DEFAULT_255_1_388
10
22.3409479
20
108.5416037
40
0.9793537
50
359.7807044
51
8.8218476
0
ARC
8
DEFAULT_255_1_388
10
22.2119184
20
108.5444731
40
0.9358078
50
359.7054632
51
8.0359751
0
ARC
8
DEFAULT_255_1_388
10
22.5494235
20
108.5936252
40
0.5947474
50
7.8926278
51
20.2962188
0
ARC
8
DEFAULT_255_1_388
10
22.7325085
20
108.6611367
40
0.3996117
50
20.3231056
51
36.4990255
0
ARC
8
DEFAULT_255_1_388
10
22.8096383
20
108.7205399
40
0.3022818
50
36.1436715
51
85.6627846
0
ARC
8
DEFAULT_255_1_388
10
22.7913638
20
108.6035881
40
0.4203853
50
84.3845912
51
90.076054
0
ARC
8
DEFAULT_255_1_388
10
22.7865993
20
108.6778416
40
0.346157
50
89.3037228
51
109.9046209
0
ARC
8
DEFAULT_255_1_388
10
22.7761826
20
108.7208379
40
0.3022217
50
110.8229774
51
143.917961
0
ARC
8
DEFAULT_255_1_388
10
22.8812185
20
108.6406455
40
0.434348
50
143.5289166
51
163.2980252
0
ARC
8
DEFAULT_255_1_388
10
23.0958472
20
108.5731685
40
0.659321
50
163.0418884
51
174.3139873
0
ARC
8
DEFAULT_255_1_388
10
23.3663437
20
108.5419378
40
0.9315905
50
174.050934
51
179.4174954
0
ARC
8
DEFAULT_255_1_388
10
23.3095381
20
108.4500382
40
0.8747493
50
179.6928582
51
188.7908948
0
ARC
8
DEFAULT_255_1_388
10
23.0099181
20
108.4021086
40
0.5713262
50
188.6328449
51
202.5630732
0
ARC
8
DEFAULT_255_1_388
10
22.8688018
20
108.3454142
40
0.4192612
50
202.8078931
51
216.1195888
0
ARC
8
DEFAULT_255_1_388
10
22.7777535
20
108.2721479
40
0.3025752
50
215.0755613
51
264.6379773
0
ARC
8
DEFAULT_255_1_388
10
22.7920372
20
108.3656376
40
0.3970284
50
263.8464302
51
270.0830805
0
ARC
8
DEFAULT_255_1_388
10
22.7966917
20
108.3365808
40
0.3679937
50
269.3649295
51
287.5149684
0
ARC
8
DEFAULT_255_1_388
10
22.8167358
20
108.2637714
40
0.2925408
50
288.0629019
51
323.8115617
0
ARC
8
DEFAULT_255_1_388
10
22.7187334
20
108.3368754
40
0.4148018
50
323.6546541
51
342.6591359
0
ARC
8
DEFAULT_255_1_388
10
22.4901992
20
108.411228
40
0.6551163
50
342.4092446
51
353.6451501
0
ARC
8
DEFAULT_255_1_388
10
22.1716785
20
108.4508565
40
0.9760748
50
353.4027553
51
359.4846611
0
LINE
8
DEFAULT_255_1_388
10
24.3991505
20
107.9758382
11
24.3991505
21
107.8394
0
LINE
8
DEFAULT_255_1_388
10
24.3991505
20
107.8394
11
23.53715
21
107.8394
0
LINE
8
DEFAULT_255_1_388
10
23.53715
20
107.8394
11
23.53715
21
107.9595741
0
LINE
8
DEFAULT_255_1_388
10
23.53715
20
107.9595741
11
23.9925465
21
108.4655702
0
LINE
8
DEFAULT_255_1_388
10
23.6790097
20
108.7673607
11
23.5118502
21
108.7673607
0
LINE
8
DEFAULT_255_1_388
10
24.0910351
20
108.358046
11
23.7386449
21
107.9758382
0
LINE
8
DEFAULT_255_1_388
10
23.7386449
20
107.9758382
11
24.3991505
21
107.9758382
0
ARC
8
DEFAULT_255_1_388
10
22.4749525
20
109.8075983
40
2.0258655
50
318.5132526
51
320.7829045
0
ARC
8
DEFAULT_255_1_388
10
23.0697482
20
109.3234929
40
1.2589638
50
320.7372878
51
323.9739031
0
ARC
8
DEFAULT_255_1_388
10
23.5106413
20
109.0040554
40
0.7145141
50
323.8962701
51
328.64194
0
ARC
8
DEFAULT_255_1_388
10
23.7408671
20
108.8620545
40
0.4440242
50
328.8294576
51
331.7891185
0
ARC
8
DEFAULT_255_1_388
10
23.8530991
20
108.8041374
40
0.3177517
50
331.4254512
51
352.9365785
0
ARC
8
DEFAULT_255_1_388
10
23.8683991
20
108.800705
40
0.3021496
50
353.2257659
51
0.0166158
0
ARC
8
DEFAULT_255_1_388
10
23.8920752
20
108.8032894
40
0.2784847
50
359.486299
51
15.9343185
0
ARC
8
DEFAULT_255_1_388
10
23.9491018
20
108.8186269
40
0.2194403
50
16.1712913
51
43.5286088
0
ARC
8
DEFAULT_255_1_388
10
23.9577963
20
108.8273191
40
0.2071504
50
43.4417391
51
83.1661095
0
ARC
8
DEFAULT_255_1_388
10
23.9427124
20
108.7444316
40
0.2912888
50
82.160179
51
90.1505708
0
ARC
8
DEFAULT_255_1_388
10
23.9391606
20
108.6840279
40
0.3517025
50
89.5460741
51
102.5418361
0
ARC
8
DEFAULT_255_1_388
10
23.9118326
20
108.7999933
40
0.2325748
50
102.1738499
51
129.206123
0
ARC
8
DEFAULT_255_1_388
10
23.9029779
20
108.8139664
40
0.2161591
50
129.72865
51
135.753947
0
ARC
8
DEFAULT_255_1_388
10
23.9166261
20
108.8030728
40
0.2335433
50
136.1757367
51
166.3673339
0
ARC
8
DEFAULT_255_1_388
10
24.029895
20
108.7727148
40
0.3507873
50
165.9090694
51
178.8684636
0
ARC
8
DEFAULT_255_1_388
10
24.1274721
20
108.7674263
40
0.4484624
50
178.4391136
51
180.0083808
0
ARC
8
DEFAULT_255_1_388
10
23.9695423
20
108.7718197
40
0.4577138
50
163.2878482
51
180.5581842
0
ARC
8
DEFAULT_255_1_388
10
23.8793464
20
108.7966393
40
0.3641968
50
133.4540601
51
162.947111
0
ARC
8
DEFAULT_255_1_388
10
23.8994346
20
108.7752789
40
0.3935189
50
100.7869829
51
133.4382499
0
ARC
8
DEFAULT_255_1_388
10
23.9385591
20
108.6010399
40
0.5720313
50
89.660664
51
101.3702276
0
ARC
8
DEFAULT_255_1_388
10
23.94602
20
108.6079263
40
0.5651495
50
78.2172678
51
90.412935
0
ARC
8
DEFAULT_255_1_388
10
23.9859665
20
108.7906511
40
0.378122
50
55.9269121
51
78.4888449
0
ARC
8
DEFAULT_255_1_388
10
24.008038
20
108.8287187
40
0.3342379
50
47.929771
51
55.4049217
0
ARC
8
DEFAULT_255_1_388
10
24.0194911
20
108.8403618
40
0.3179217
50
4.334829
51
48.0560205
0
ARC
8
DEFAULT_255_1_388
10
23.8962713
20
108.8212487
40
0.442341
50
359.9251713
51
5.5971671
0
ARC
8
DEFAULT_255_1_388
10
23.9444867
20
108.8275728
40
0.3941854
50
337.8914027
51
358.9967534
0
ARC
8
DEFAULT_255_1_388
10
23.6392437
20
108.9453295
40
0.7213271
50
326.9132501
51
338.3508308
0
ARC
8
DEFAULT_255_1_388
10
23.1908549
20
109.2327105
40
1.2538973
50
319.6471833
51
327.0959558
0
ARC
8
DEFAULT_255_1_388
10
22.7595207
20
109.588505
40
1.8129975
50
317.2588228
51
319.9045804
0
LINE
8
DEFAULT_255_1_388
10
23.3285946
20
116.4753553
11
23.3285946
21
116.3922274
0
LINE
8
DEFAULT_255_1_388
10
22.2705206
20
116.3804811
11
22.2705206
21
116.4753553
0
LINE
8
DEFAULT_255_1_388
10
23.1560138
20
116.3795775
11
23.1560138
21
116.4771625
0
LINE
8
DEFAULT_255_1_388
10
22.4431014
20
116.4889088
11
22.4431014
21
116.3922274
0
ARC
8
DEFAULT_255_1_388
10
22.3563684
20
116.3877726
40
0.9722364
50
350.4878118
51
0.2625322
0
ARC
8
DEFAULT_255_1_388
10
22.6143644
20
116.3433994
40
0.7104556
50
336.0277991
51
350.5787241
0
ARC
8
DEFAULT_255_1_388
10
22.7656751
20
116.2750243
40
0.544417
50
319.887443
51
336.1331163
0
ARC
8
DEFAULT_255_1_388
10
22.8334563
20
116.2207733
40
0.4576311
50
302.4806296
51
319.6144102
0
ARC
8
DEFAULT_255_1_388
10
22.8205184
20
116.2457067
40
0.4856183
50
275.8196423
51
302.1885521
0
ARC
8
DEFAULT_255_1_388
10
22.8018046
20
116.3742466
40
0.6154183
50
269.9169897
51
276.339506
0
ARC
8
DEFAULT_255_1_388
10
22.7967646
20
116.297068
40
0.5382553
50
252.5221437
51
270.441579
0
ARC
8
DEFAULT_255_1_388
10
22.7805897
20
116.2364046
40
0.4755426
50
237.5349961
51
252.1858334
0
ARC
8
DEFAULT_255_1_388
10
22.7906273
20
116.249212
40
0.4917393
50
209.0632754
51
237.3492577
0
ARC
8
DEFAULT_255_1_388
10
22.8885599
20
116.3107104
40
0.6072464
50
205.118533
51
209.6465345
0
ARC
8
DEFAULT_255_1_388
10
22.9781601
20
116.3487174
40
0.7045164
50
188.7216633
51
204.8239753
0
ARC
8
DEFAULT_255_1_388
10
23.2028376
20
116.3865387
40
0.9323368
50
180.3722704
51
188.9253909
0
ARC
8
DEFAULT_255_1_388
10
23.1997938
20
116.4798416
40
0.929284
50
169.5253055
51
180.2766048
0
ARC
8
DEFAULT_255_1_388
10
22.9857737
20
116.5192024
40
0.7116745
50
155.8314601
51
169.5088611
0
ARC
8
DEFAULT_255_1_388
10
22.84172
20
116.5860312
40
0.5528904
50
139.6259579
51
156.0379072
0
ARC
8
DEFAULT_255_1_388
10
22.7753733
20
116.6394143
40
0.4677708
50
122.6414784
51
139.3431662
0
ARC
8
DEFAULT_255_1_388
10
22.7866988
20
116.6187787
40
0.4912586
50
93.0224537
51
122.4556091
0
ARC
8
DEFAULT_255_1_388
10
22.7988509
20
116.5101776
40
0.6003837
50
89.9756766
51
93.6340839
0
ARC
8
DEFAULT_255_1_388
10
22.8032107
20
116.5550879
40
0.5554884
50
73.7463329
51
90.4234008
0
ARC
8
DEFAULT_255_1_388
10
22.822958
20
116.6315772
40
0.4765353
50
57.663051
51
73.4516911
0
ARC
8
DEFAULT_255_1_388
10
22.8220618
20
116.6340108
40
0.4749629
50
29.1441355
51
57.4146687
0
ARC
8
DEFAULT_255_1_388
10
22.7168429
20
116.5683046
40
0.5988917
50
24.0985653
51
29.732054
0
ARC
8
DEFAULT_255_1_388
10
22.6006061
20
116.5201154
40
0.7246823
50
8.6654943
51
23.8241215
0
ARC
8
DEFAULT_255_1_388
10
22.3492479
20
116.4791037
40
0.9793537
50
359.7807044
51
8.8218476
0
ARC
8
DEFAULT_255_1_388
10
22.2202184
20
116.4819731
40
0.9358078
50
359.7054632
51
8.0359751
0
ARC
8
DEFAULT_255_1_388
10
22.5577235
20
116.5311252
40
0.5947474
50
7.8926278
51
20.2962188
0
ARC
8
DEFAULT_255_1_388
10
22.7408085
20
116.5986367
40
0.3996117
50
20.3231056
51
36.4990255
0
ARC
8
DEFAULT_255_1_388
10
22.8179383
20
116.6580399
40
0.3022818
50
36.1436715
51
85.6627846
0
ARC
8
DEFAULT_255_1_388
10
22.7996638
20
116.5410881
40
0.4203853
50
84.3845912
51
90.076054
0
ARC
8
DEFAULT_255_1_388
10
22.7948993
20
116.6153416
40
0.346157
50
89.3037228
51
109.9046209
0
ARC
8
DEFAULT_255_1_388
10
22.7844826
20
116.6583379
40
0.3022217
50
110.8229774
51
143.917961
0
ARC
8
DEFAULT_255_1_388
10
22.8895185
20
116.5781455
40
0.434348
50
143.5289166
51
163.2980252
0
ARC
8
DEFAULT_255_1_388
10
23.1041472
20
116.5106685
40
0.659321
50
163.0418884
51
174.3139873
0
ARC
8
DEFAULT_255_1_388
10
23.3746437
20
116.4794378
40
0.9315905
50
174.050934
51
179.4174954
0
ARC
8
DEFAULT_255_1_388
10
23.3178381
20
116.3875382
40
0.8747493
50
179.6928582
51
188.7908948
0
ARC
8
DEFAULT_255_1_388
10
23.0182181
20
116.3396086
40
0.5713262
50
188.6328449
51
202.5630732
0
ARC
8
DEFAULT_255_1_388
10
22.8771018
20
116.2829142
40
0.4192612
50
202.8078931
51
216.1195888
0
ARC
8
DEFAULT_255_1_388
10
22.7860535
20
116.2096479
40
0.3025752
50
215.0755613
51
264.6379773
0
ARC
8
DEFAULT_255_1_388
10
22.8003372
20
116.3031376
40
0.3970284
50
263.8464302
51
270.0830805
0
ARC
8
DEFAULT_255_1_388
10
22.8049917
20
116.2740808
40
0.3679937
50
269.3649295
51
287.5149684
0
ARC
8
DEFAULT_255_1_388
10
22.8250358
20
116.2012714
40
0.2925408
50
288.0629019
51
323.8115617
0
ARC
8
DEFAULT_255_1_388
10
22.7270334
20
116.2743754
40
0.4148018
50
323.6546541
51
342.6591359
0
ARC
8
DEFAULT_255_1_388
10
22.4984992
20
116.348728
40
0.6551163
50
342.4092446
51
353.6451501
0
ARC
8
DEFAULT_255_1_388
10
22.1799785
20
116.3883565
40
0.9760748
50
353.4027553
51
359.4846611
0
LINE
8
DEFAULT_255_1_388
10
24.0948172
20
117.0988148
11
24.0948172
21
115.7769
0
LINE
8
DEFAULT_255_1_388
10
24.0948172
20
115.7769
11
23.9267542
21
115.7769
0
LINE
8
DEFAULT_255_1_388
10
23.9267542
20
115.7769
11
23.9267542
21
116.890995
0
LINE
8
DEFAULT_255_1_388
10
23.9267542
20
116.890995
11
23.5897247
21
116.7672066
0
LINE
8
DEFAULT_255_1_388
10
23.5897247
20
116.7672066
11
23.5897247
21
116.9190055
0
LINE
8
DEFAULT_255_1_388
10
23.5897247
20
116.9190055
11
24.0686139
21
117.0988148
0
LINE
8
DEFAULT_255_1_388
10
24.0686139
20
117.0988148
11
24.0948172
21
117.0988148
0
LINE
8
DEFAULT_255_1_388
10
23.3202946
20
124.4128553
11
23.3202946
21
124.3297274
0
LINE
8
DEFAULT_255_1_388
10
22.2622206
20
124.3179811
11
22.2622206
21
124.4128553
0
LINE
8
DEFAULT_255_1_388
10
23.1477138
20
124.3170775
11
23.1477138
21
124.4146625
0
LINE
8
DEFAULT_255_1_388
10
22.4348014
20
124.4264088
11
22.4348014
21
124.3297274
0
ARC
8
DEFAULT_255_1_388
10
22.3480684
20
124.3252726
40
0.9722364
50
350.4878118
51
0.2625322
0
ARC
8
DEFAULT_255_1_388
10
22.6060644
20
124.2808994
40
0.7104556
50
336.0277991
51
350.5787241
0
ARC
8
DEFAULT_255_1_388
10
22.7573751
20
124.2125243
40
0.544417
50
319.887443
51
336.1331163
0
ARC
8
DEFAULT_255_1_388
10
22.8251563
20
124.1582733
40
0.4576311
50
302.4806296
51
319.6144102
0
ARC
8
DEFAULT_255_1_388
10
22.8122184
20
124.1832067
40
0.4856183
50
275.8196423
51
302.1885521
0
ARC
8
DEFAULT_255_1_388
10
22.7935046
20
124.3117466
40
0.6154183
50
269.9169897
51
276.339506
0
ARC
8
DEFAULT_255_1_388
10
22.7884646
20
124.234568
40
0.5382553
50
252.5221437
51
270.441579
0
ARC
8
DEFAULT_255_1_388
10
22.7722897
20
124.1739046
40
0.4755426
50
237.5349961
51
252.1858334
0
ARC
8
DEFAULT_255_1_388
10
22.7823273
20
124.186712
40
0.4917393
50
209.0632754
51
237.3492577
0
ARC
8
DEFAULT_255_1_388
10
22.8802599
20
124.2482104
40
0.6072464
50
205.118533
51
209.6465345
0
ARC
8
DEFAULT_255_1_388
10
22.9698601
20
124.2862174
40
0.7045164
50
188.7216633
51
204.8239753
0
ARC
8
DEFAULT_255_1_388
10
23.1945376
20
124.3240387
40
0.9323368
50
180.3722704
51
188.9253909
0
ARC
8
DEFAULT_255_1_388
10
23.1914938
20
124.4173416
40
0.929284
50
169.5253055
51
180.2766048
0
ARC
8
DEFAULT_255_1_388
10
22.9774737
20
124.4567024
40
0.7116745
50
155.8314601
51
169.5088611
0
ARC
8
DEFAULT_255_1_388
10
22.83342
20
124.5235312
40
0.5528904
50
139.6259579
51
156.0379072
0
ARC
8
DEFAULT_255_1_388
10
22.7670733
20
124.5769143
40
0.4677708
50
122.6414784
51
139.3431662
0
ARC
8
DEFAULT_255_1_388
10
22.7783988
20
124.5562787
40
0.4912586
50
93.0224537
51
122.4556091
0
ARC
8
DEFAULT_255_1_388
10
22.7905509
20
124.4476776
40
0.6003837
50
89.9756766
51
93.6340839
0
ARC
8
DEFAULT_255_1_388
10
22.7949107
20
124.4925879
40
0.5554884
50
73.7463329
51
90.4234008
0
ARC
8
DEFAULT_255_1_388
10
22.814658
20
124.5690772
40
0.4765353
50
57.663051
51
73.4516911
0
ARC
8
DEFAULT_255_1_388
10
22.8137618
20
124.5715108
40
0.4749629
50
29.1441355
51
57.4146687
0
ARC
8
DEFAULT_255_1_388
10
22.7085429
20
124.5058046
40
0.5988917
50
24.0985653
51
29.732054
0
ARC
8
DEFAULT_255_1_388
10
22.5923061
20
124.4576154
40
0.7246823
50
8.6654943
51
23.8241215
0
ARC
8
DEFAULT_255_1_388
10
22.3409479
20
124.4166037
40
0.9793537
50
359.7807044
51
8.8218476
0
ARC
8
DEFAULT_255_1_388
10
22.2119184
20
124.4194731
40
0.9358078
50
359.7054632
51
8.0359751
0
ARC
8
DEFAULT_255_1_388
10
22.5494235
20
124.4686252
40
0.5947474
50
7.8926278
51
20.2962188
0
ARC
8
DEFAULT_255_1_388
10
22.7325085
20
124.5361367
40
0.3996117
50
20.3231056
51
36.4990255
0
ARC
8
DEFAULT_255_1_388
10
22.8096383
20
124.5955399
40
0.3022818
50
36.1436715
51
85.6627846
0
ARC
8
DEFAULT_255_1_388
10
22.7913638
20
124.4785881
40
0.4203853
50
84.3845912
51
90.076054
0
ARC
8
DEFAULT_255_1_388
10
22.7865993
20
124.5528416
40
0.346157
50
89.3037228
51
109.9046209
0
ARC
8
DEFAULT_255_1_388
10
22.7761826
20
124.5958379
40
0.3022217
50
110.8229774
51
143.917961
0
ARC
8
DEFAULT_255_1_388
10
22.8812185
20
124.5156455
40
0.434348
50
143.5289166
51
163.2980252
0
ARC
8
DEFAULT_255_1_388
10
23.0958472
20
124.4481685
40
0.659321
50
163.0418884
51
174.3139873
0
ARC
8
DEFAULT_255_1_388
10
23.3663437
20
124.4169378
40
0.9315905
50
174.050934
51
179.4174954
0
ARC
8
DEFAULT_255_1_388
10
23.3095381
20
124.3250382
40
0.8747493
50
179.6928582
51
188.7908948
0
ARC
8
DEFAULT_255_1_388
10
23.0099181
20
124.2771086
40
0.5713262
50
188.6328449
51
202.5630732
0
ARC
8
DEFAULT_255_1_388
10
22.8688018
20
124.2204142
40
0.4192612
50
202.8078931
51
216.1195888
0
ARC
8
DEFAULT_255_1_388
10
22.7777535
20
124.1471479
40
0.3025752
50
215.0755613
51
264.6379773
0
ARC
8
DEFAULT_255_1_388
10
22.7920372
20
124.2406376
40
0.3970284
50
263.8464302
51
270.0830805
0
ARC
8
DEFAULT_255_1_388
10
22.7966917
20
124.2115808
40
0.3679937
50
269.3649295
51
287.5149684
0
ARC
8
DEFAULT_255_1_388
10
22.8167358
20
124.1387714
40
0.2925408
50
288.0629019
51
323.8115617
0
ARC
8
DEFAULT_255_1_388
10
22.7187334
20
124.2118754
40
0.4148018
50
323.6546541
51
342.6591359
0
ARC
8
DEFAULT_255_1_388
10
22.4901992
20
124.286228
40
0.6551163
50
342.4092446
51
353.6451501
0
ARC
8
DEFAULT_255_1_388
10
22.1716785
20
124.3258565
40
0.9760748
50
353.4027553
51
359.4846611
0
LINE
8
DEFAULT_255_1_388
10
24.3621044
20
124.492369
11
24.3621044
21
124.2755135
0
LINE
8
DEFAULT_255_1_388
10
23.5317287
20
124.2529244
11
23.5317287
21
124.4761048
0
LINE
8
DEFAULT_255_1_388
10
24.194945
20
124.2303353
11
24.194945
21
124.5041153
0
LINE
8
DEFAULT_255_1_388
10
23.6988881
20
124.5167652
11
23.6988881
21
124.2493102
0
ARC
8
DEFAULT_255_1_388
10
22.9843378
20
124.2700118
40
1.3777776
50
353.8440855
51
0.2287917
0
ARC
8
DEFAULT_255_1_388
10
23.5062395
20
124.2117414
40
0.852639
50
344.4934746
51
353.9763743
0
ARC
8
DEFAULT_255_1_388
10
23.8429202
20
124.1160191
40
0.5026273
50
329.2803599
51
344.7473406
0
ARC
8
DEFAULT_255_1_388
10
23.9544698
20
124.0548038
40
0.3754848
50
324.9361395
51
328.6153007
0
ARC
8
DEFAULT_255_1_388
10
23.9970348
20
124.0250586
40
0.3235566
50
280.5801797
51
324.9173226
0
ARC
8
DEFAULT_255_1_388
10
23.9518977
20
124.2130236
40
0.5167077
50
269.5979457
51
281.6732777
0
ARC
8
DEFAULT_255_1_388
10
23.943788
20
124.1995113
40
0.5032026
50
256.6228565
51
270.5105488
0
ARC
8
DEFAULT_255_1_388
10
23.8985623
20
124.0253345
40
0.3233092
50
215.8618351
51
257.2787793
0
ARC
8
DEFAULT_255_1_388
10
24.013433
20
124.1024106
40
0.4615831
50
197.9695203
51
215.2622745
0
ARC
8
DEFAULT_255_1_388
10
24.2930006
20
124.1967641
40
0.7566307
50
187.8816486
51
198.2346584
0
ARC
8
DEFAULT_255_1_388
10
24.7383244
20
124.2610453
40
1.2065653
50
180.8977266
51
188.0054894
0
ARC
8
DEFAULT_255_1_388
10
25.0433458
20
124.27254
40
1.5117443
50
180.7434591
51
181.152202
0
ARC
8
DEFAULT_255_1_388
10
24.8758453
20
124.4815371
40
1.3441277
50
173.7674302
51
180.2315596
0
ARC
8
DEFAULT_255_1_388
10
24.3676322
20
124.5389779
40
0.8326847
50
164.3058537
51
173.9000553
0
ARC
8
DEFAULT_255_1_388
10
24.0400322
20
124.6333652
40
0.4917711
50
148.7922028
51
164.5682288
0
ARC
8
DEFAULT_255_1_388
10
23.933106
20
124.6930457
40
0.3694204
50
144.5883979
51
148.1161588
0
ARC
8
DEFAULT_255_1_388
10
23.8943805
20
124.7200667
40
0.322202
50
101.6440149
51
144.5142619
0
ARC
8
DEFAULT_255_1_388
10
23.9421997
20
124.5300337
40
0.5180451
50
89.528284
51
102.5820197
0
ARC
8
DEFAULT_255_1_388
10
23.9510989
20
124.5256376
40
0.5224441
50
77.0437914
51
90.508231
0
ARC
8
DEFAULT_255_1_388
10
23.9963243
20
124.7104272
40
0.3322297
50
48.2777708
51
77.4996087
0
ARC
8
DEFAULT_255_1_388
10
24.0044983
20
124.7249557
40
0.315966
50
36.3141586
51
47.6307332
0
ARC
8
DEFAULT_255_1_388
10
23.9067705
20
124.6591159
40
0.4337313
50
18.2931065
51
35.6770203
0
ARC
8
DEFAULT_255_1_388
10
23.6206546
20
124.5609107
40
0.7362203
50
8.0246996
51
18.5605636
0
ARC
8
DEFAULT_255_1_388
10
23.1522901
20
124.4917432
40
1.2096583
50
1.127539
51
8.1718423
0
ARC
8
DEFAULT_255_1_388
10
22.7874035
20
124.4774374
40
1.5747719
50
0.5432713
51
1.38669
0
ARC
8
DEFAULT_255_1_388
10
22.9931414
20
124.5081163
40
1.2018103
50
359.8092569
51
4.9408001
0
ARC
8
DEFAULT_255_1_388
10
23.4667995
20
124.55039
40
0.7262727
50
4.8364937
51
12.2906017
0
ARC
8
DEFAULT_255_1_388
10
23.776746
20
124.6194485
40
0.4087324
50
12.0806994
51
23.8171225
0
ARC
8
DEFAULT_255_1_388
10
23.9087856
20
124.6753508
40
0.2653719
50
24.2874621
51
31.3934353
0
ARC
8
DEFAULT_255_1_388
10
23.9678291
20
124.7139822
40
0.1948607
50
30.7407708
51
82.4658033
0
ARC
8
DEFAULT_255_1_388
10
23.9475952
20
124.6146017
40
0.2961198
50
81.1057101
51
90.2187368
0
ARC
8
DEFAULT_255_1_388
10
23.9435764
20
124.6436421
40
0.2670929
50
89.380395
51
105.6763916
0
ARC
8
DEFAULT_255_1_388
10
23.9229486
20
124.718632
40
0.1893189
50
105.7980655
51
149.7387869
0
ARC
8
DEFAULT_255_1_388
10
24.0426626
20
124.6466719
40
0.3289892
50
149.4208441
51
163.628295
0
ARC
8
DEFAULT_255_1_388
10
24.2778856
20
124.5749345
40
0.5749004
50
163.3764549
51
172.141138
0
ARC
8
DEFAULT_255_1_388
10
24.6491577
20
124.5217582
40
0.9499585
50
172.0258462
51
178.0705453
0
ARC
8
DEFAULT_255_1_388
10
24.991313
20
124.5055682
40
1.2924734
50
177.8639301
51
179.5036263
0
ARC
8
DEFAULT_255_1_388
10
24.8694149
20
124.2452151
40
1.170534
50
179.7995545
51
185.246089
0
ARC
8
DEFAULT_255_1_388
10
24.4145742
20
124.2021404
40
0.7136613
50
185.1411911
51
193.0082205
0
ARC
8
DEFAULT_255_1_388
10
24.1172003
20
124.1318441
40
0.4080987
50
192.7897338
51
205.2507384
0
ARC
8
DEFAULT_255_1_388
10
23.9994213
20
124.0792538
40
0.2791522
50
205.8001921
51
211.2545876
0
ARC
8
DEFAULT_255_1_388
10
23.9405752
20
124.0398132
40
0.2084074
50
210.3789935
51
238.4007996
0
ARC
8
DEFAULT_255_1_388
10
23.9383838
20
124.0450786
40
0.2117943
50
239.6521916
51
265.9793852
0
ARC
8
DEFAULT_255_1_388
10
23.9479687
20
124.1207358
40
0.2879689
50
265.1324455
51
270.0603288
0
ARC
8
DEFAULT_255_1_388
10
23.9512064
20
124.0842418
40
0.2514919
50
269.3314378
51
287.2180039
0
ARC
8
DEFAULT_255_1_388
10
23.9667146
20
124.0276291
40
0.1928357
50
287.7957942
51
329.0808983
0
ARC
8
DEFAULT_255_1_388
10
23.8589903
20
124.0948651
40
0.319808
50
328.6635261
51
343.3325043
0
ARC
8
DEFAULT_255_1_388
10
23.6145362
20
124.1710195
40
0.5758408
50
343.0498092
51
351.9392499
0
ARC
8
DEFAULT_255_1_388
10
23.2244683
20
124.2285205
40
0.9701202
50
351.8071632
51
357.7957897
0
ARC
8
DEFAULT_255_1_388
10
22.861016
20
124.2473724
40
1.3340376
50
357.5870923
51
359.2682493
0
LINE
8
DEFAULT_255_1_388
10
21.9304903
20
132.9674898
11
21.9304903
21
131.7937596
0
LINE
8
DEFAULT_255_1_388
10
21.9304903
20
131.7937596
11
22.5539498
21
131.7937596
0
LINE
8
DEFAULT_255_1_388
10
22.5539498
20
131.7937596
11
22.5539498
21
131.6519
0
LINE
8
DEFAULT_255_1_388
10
22.5539498
20
131.6519
11
21.7561024
21
131.6519
0
LINE
8
DEFAULT_255_1_388
10
21.7561024
20
131.6519
11
21.7561024
21
132.9674898
0
LINE
8
DEFAULT_255_1_388
10
21.7561024
20
132.9674898
11
21.9304903
21
132.9674898
0
LINE
8
DEFAULT_255_1_388
10
23.6210594
20
131.6519
11
23.495464
21
131.9952545
0
LINE
8
DEFAULT_255_1_388
10
23.495464
20
131.9952545
11
22.9442896
21
131.9952545
0
LINE
8
DEFAULT_255_1_388
10
22.9442896
20
131.9952545
11
22.8205013
21
131.6519
0
LINE
8
DEFAULT_255_1_388
10
22.8205013
20
131.6519
11
22.6415956
21
131.6519
0
LINE
8
DEFAULT_255_1_388
10
22.6415956
20
131.6519
11
23.1439774
21
132.9674898
0
LINE
8
DEFAULT_255_1_388
10
23.1439774
20
132.9674898
11
23.2957762
21
132.9674898
0
LINE
8
DEFAULT_255_1_388
10
23.2957762
20
132.9674898
11
23.7990616
21
131.6519
0
LINE
8
DEFAULT_255_1_388
10
23.7990616
20
131.6519
11
23.6210594
21
131.6519
0
LINE
8
DEFAULT_255_1_388
10
23.2198768
20
132.7533451
11
22.9966964
21
132.1380177
0
LINE
8
DEFAULT_255_1_388
10
22.9966964
20
132.1380177
11
23.4439608
21
132.1380177
0
LINE
8
DEFAULT_255_1_388
10
23.4439608
20
132.1380177
11
23.2198768
21
132.7533451
0
LINE
8
DEFAULT_255_1_388
10
24.2978292
20
132.2789737
11
24.2978292
21
132.1425355
0
LINE
8
DEFAULT_255_1_388
10
24.2978292
20
132.1425355
11
23.8568897
21
132.1425355
0
LINE
8
DEFAULT_255_1_388
10
23.8568897
20
132.1425355
11
23.8568897
21
132.2789737
0
LINE
8
DEFAULT_255_1_388
10
23.8568897
20
132.2789737
11
24.2978292
21
132.2789737
0
ENDSEC
0
EOF