0
SECTION
2
HEADER
9
$MEASUREMENT
70
1
0
ENDSEC
0
SECTION
2
TABLES
0
TABLE
2
LTYPE
0
LTYPE
72
65
70
64
2
CONTINUOUS
3
______
73
0
40
0
0
ENDTAB
0
TABLE
2
LAYER
0
LAYER
2
DEFAULT_255_2_778
70
0
62
255
6
CONTINUOUS
0
ENDTAB
0
ENDSEC
0
SECTION
2
ENTITIES
0
ARC
8
DEFAULT_255_2_778
10
12.5219716
20
4.275919
40
4.4987678
50
179.9613655
51
195.0603386
0
ARC
8
DEFAULT_255_2_778
10
12.5425831
20
4.2880677
40
4.5218325
50
195.1411273
51
221.97815
0
ARC
8
DEFAULT_255_2_778
10
12.5863087
20
4.318327
40
4.574582
50
221.8935943
51
251.3755299
0
ARC
8
DEFAULT_255_2_778
10
12.5747189
20
4.2977483
40
4.5513818
50
251.4310559
51
267.0961786
0
ARC
8
DEFAULT_255_2_778
10
12.5810118
20
4.3796361
40
4.6334837
50
267.0697602
51
270.0023867
0
ARC
8
DEFAULT_255_2_778
10
12.577105
20
4.4372206
40
3.0498708
50
252.3230764
51
270.0770201
0
ARC
8
DEFAULT_255_2_778
10
12.544325
20
4.3396815
40
2.9469841
50
220.7103832
51
252.3544674
0
ARC
8
DEFAULT_255_2_778
10
12.4630093
20
4.2677707
40
2.8384432
50
191.9897916
51
220.6806592
0
ARC
8
DEFAULT_255_2_778
10
12.518587
20
4.2767884
40
2.8946831
50
179.9512282
51
191.9358625
0
LINE
8
DEFAULT_255_2_778
10
12.5812048
20
-0.2538475
11
12.5812048
21
1.3873525
0
LINE
8
DEFAULT_255_2_778
10
9.6239048
20
4.2792525
11
8.0232048
21
4.2792525
0
ARC
8
DEFAULT_255_2_778
10
12.5173791
20
4.7311767
40
4.9824245
50
269.9212788
51
280.5682433
0
ARC
8
DEFAULT_255_2_778
10
12.5806525
20
4.3929457
40
4.6383261
50
280.5661891
51
294.6321529
0
ARC
8
DEFAULT_255_2_778
10
12.6054955
20
4.3079285
40
4.5507089
50
294.7939676
51
336.733983
0
ARC
8
DEFAULT_255_2_778
10
12.2791085
20
4.4687185
40
4.9141025
50
336.514882
51
350.6164822
0
ARC
8
DEFAULT_255_2_778
10
11.9723301
20
4.5222555
40
5.2255054
50
350.5857505
51
0.0482596
0
ARC
8
DEFAULT_255_2_778
10
12.0524365
20
4.5332408
40
5.1454013
50
359.9266857
51
12.0637952
0
ARC
8
DEFAULT_255_2_778
10
12.3661679
20
4.6016321
40
4.8243046
50
12.0482272
51
28.0079199
0
ARC
8
DEFAULT_255_2_778
10
12.6193646
20
4.7471265
40
4.5324485
50
27.887133
51
68.5663172
0
ARC
8
DEFAULT_255_2_778
10
12.564443
20
4.5905626
40
4.6982583
50
68.6405725
51
81.807697
0
ARC
8
DEFAULT_255_2_778
10
12.5148344
20
4.2640667
40
5.0284921
50
81.7783232
51
90.049005
0
ARC
8
DEFAULT_255_2_778
10
12.5034504
20
4.2633322
40
5.0292297
50
89.9193041
51
100.5187684
0
ARC
8
DEFAULT_255_2_778
10
12.4377506
20
4.6166709
40
4.6698349
50
100.5176518
51
114.2248562
0
ARC
8
DEFAULT_255_2_778
10
12.3961867
20
4.7329855
40
4.5467188
50
114.348631
51
156.262835
0
ARC
8
DEFAULT_255_2_778
10
12.6997986
20
4.5825371
40
4.8852319
50
156.080995
51
170.8147311
0
ARC
8
DEFAULT_255_2_778
10
12.9989181
20
4.5307331
40
5.1887862
50
170.7772756
51
180.0450109
0
ARC
8
DEFAULT_255_2_778
10
8.0275995
20
4.5291958
40
0.2174807
50
180.6688824
51
184.1302541
0
ARC
8
DEFAULT_255_2_778
10
7.5856139
20
4.4976618
40
0.2256285
50
0.5066282
51
4.0333496
0
ARC
8
DEFAULT_255_2_778
10
4.4232398
20
4.5224265
40
3.3880703
50
343.3084427
51
359.6149399
0
ARC
8
DEFAULT_255_2_778
10
4.5687823
20
4.4762256
40
3.2353915
50
323.3687147
51
343.3518571
0
ARC
8
DEFAULT_255_2_778
10
4.9069002
20
4.1798953
40
2.7874785
50
278.167575
51
324.1099417
0
ARC
8
DEFAULT_255_2_778
10
4.9653481
20
4.0073206
40
2.6085636
50
269.988699
51
277.4353119
0
ARC
8
DEFAULT_255_2_778
10
4.9638952
20
4.0370923
40
2.6383356
50
245.940469
51
270.0203779
0
ARC
8
DEFAULT_255_2_778
10
5.0981692
20
4.2917076
40
2.9256324
50
213.6478908
51
245.5721769
0
ARC
8
DEFAULT_255_2_778
10
5.3602814
20
4.4873158
40
3.2522617
50
194.3311657
51
213.9580011
0
ARC
8
DEFAULT_255_2_778
10
5.4933453
20
4.5237862
40
3.3902131
50
179.9514845
51
194.3717044
0
ARC
8
DEFAULT_255_2_778
10
5.4545623
20
4.5299306
40
3.3514303
50
163.4741948
51
180.0559662
0
ARC
8
DEFAULT_255_2_778
10
5.3206697
20
4.5724875
40
3.2109644
50
142.344384
51
163.5226166
0
ARC
8
DEFAULT_255_2_778
10
5.0058163
20
4.8580608
40
2.7874395
50
95.8856408
51
143.0379095
0
ARC
8
DEFAULT_255_2_778
10
4.9644938
20
4.9794001
40
2.6626569
50
89.9926883
51
95.268869
0
ARC
8
DEFAULT_255_2_778
10
4.957793
20
4.2657958
40
5.0264661
50
89.9197464
51
100.5209395
0
ARC
8
DEFAULT_255_2_778
10
4.8925636
20
4.6166186
40
4.6696304
50
100.5200265
51
114.2251352
0
ARC
8
DEFAULT_255_2_778
10
4.851543
20
4.7316062
40
4.5479476
50
114.3482667
51
156.2514283
0
ARC
8
DEFAULT_255_2_778
10
5.1527627
20
4.5822997
40
4.883814
50
156.0712852
51
170.8093349
0
ARC
8
DEFAULT_255_2_778
10
5.4504794
20
4.5307247
40
5.1859474
50
170.7721965
51
180.044942
0
ARC
8
DEFAULT_255_2_778
10
5.4537609
20
4.520003
40
5.1892316
50
179.9265319
51
191.6931599
0
ARC
8
DEFAULT_255_2_778
10
5.1210187
20
4.4496734
40
4.8491414
50
191.6762283
51
207.1095514
0
ARC
8
DEFAULT_255_2_778
10
4.8444269
20
4.2959349
40
4.532892
50
206.972947
51
248.1238237
0
ARC
8
DEFAULT_255_2_778
10
4.9044992
20
4.4618358
40
4.7092335
50
248.1976561
51
261.3104191
0
ARC
8
DEFAULT_255_2_778
10
4.9596036
20
4.808366
40
5.0601114
50
261.2864404
51
270.0569549
0
ARC
8
DEFAULT_255_2_778
10
4.9734495
20
4.8684828
40
5.1202335
50
269.901349
51
278.8470055
0
ARC
8
DEFAULT_255_2_778
10
5.0625451
20
4.3036363
40
4.5484048
50
278.8323414
51
290.6243979
0
ARC
8
DEFAULT_255_2_778
10
5.1319936
20
4.0791414
40
4.3138584
50
290.8113877
51
326.4639841
0
ARC
8
DEFAULT_255_2_778
10
4.4942224
20
4.5381595
40
5.0991447
50
326.1239061
51
338.2283952
0
ARC
8
DEFAULT_255_2_778
10
3.7823276
20
4.8257451
40
5.8669285
50
338.1988558
51
347.9885613
0
ARC
8
DEFAULT_255_2_778
10
2.9842429
20
4.9990426
40
6.6836052
50
347.9592738
51
355.9470537
0
ARC
8
DEFAULT_255_2_778
10
13.0038726
20
4.5299992
40
3.3548407
50
163.4926984
51
180.0570817
0
ARC
8
DEFAULT_255_2_778
10
12.8662454
20
4.5736594
40
3.2104816
50
142.3965535
51
163.5418766
0
ARC
8
DEFAULT_255_2_778
10
12.5503969
20
4.8592008
40
2.7862157
50
95.8732449
51
143.0853104
0
ARC
8
DEFAULT_255_2_778
10
12.510181
20
4.9748341
40
2.6672229
50
89.9924266
51
95.268054
0
ARC
8
DEFAULT_255_2_778
10
12.51043
20
5.0251997
40
2.6168572
50
64.8984915
51
89.9977319
0
ARC
8
DEFAULT_255_2_778
10
12.3631546
20
4.7501004
40
2.9285005
50
33.7255362
51
64.5724837
0
ARC
8
DEFAULT_255_2_778
10
12.1081762
20
4.5599658
40
3.2461757
50
13.8616264
51
34.0179729
0
ARC
8
DEFAULT_255_2_778
10
11.9933019
20
4.5289662
40
3.3651323
50
359.9606812
51
13.905477
0
ARC
8
DEFAULT_255_2_778
10
11.9677658
20
4.5232309
40
3.3906695
50
343.9018262
51
0.0578935
0
ARC
8
DEFAULT_255_2_778
10
12.1110675
20
4.4792942
40
3.2408048
50
323.7932283
51
343.9456446
0
ARC
8
DEFAULT_255_2_778
10
12.4134275
20
4.2292792
40
2.8492432
50
287.2600501
51
324.2583656
0
ARC
8
DEFAULT_255_2_778
10
12.5117219
20
4.0002114
40
2.6014548
50
269.9738278
51
286.6895731
0
LINE
8
DEFAULT_255_2_778
10
4.9648336
20
7.6420569
11
4.9648336
21
9.2922569
0
LINE
8
DEFAULT_255_2_778
10
9.6511336
20
4.5266569
11
9.6490336
21
4.5266569
0
ENDSEC
0
EOF