0
SECTION
2
HEADER
9
$MEASUREMENT
70
1
0
ENDSEC
0
SECTION
2
TABLES
0
TABLE
2
LTYPE
0
LTYPE
72
65
70
64
2
CONTINUOUS
3
______
73
0
40
0
0
ENDTAB
0
TABLE
2
LAYER
0
LAYER
2
DEFAULT_255_2_778
70
0
62
255
6
CONTINUOUS
0
ENDTAB
0
ENDSEC
0
SECTION
2
ENTITIES
0
ARC
8
DEFAULT_255_2_778
10
14.1544533
20
8.2499118
40
2.9871633
50
7.5023769
51
10.7034025
0
ARC
8
DEFAULT_255_2_778
10
14.9079162
20
8.3932268
40
2.2201925
50
10.6805713
51
14.4632949
0
ARC
8
DEFAULT_255_2_778
10
15.5596236
20
8.5626605
40
1.546822
50
14.4153751
51
19.1788243
0
ARC
8
DEFAULT_255_2_778
10
16.044365
20
8.7308425
40
1.033734
50
19.2009139
51
23.8884338
0
ARC
8
DEFAULT_255_2_778
10
16.4271353
20
8.9034602
40
0.6138571
50
23.6247593
51
31.8659666
0
ARC
8
DEFAULT_255_2_778
10
16.7175924
20
9.0869644
40
0.2703096
50
31.3349379
51
45.3023989
0
ARC
8
DEFAULT_255_2_778
10
16.8519167
20
9.2276647
40
0.0758966
50
42.6727255
51
77.8819585
0
ARC
8
DEFAULT_255_2_778
10
16.8635975
20
9.268229
40
0.0339088
50
82.79665
51
89.9200494
0
ARC
8
DEFAULT_255_2_778
10
16.8820792
20
9.1947475
40
0.1185163
50
115.0251876
51
152.0596881
0
ARC
8
DEFAULT_255_2_778
10
17.2289832
20
8.9787215
40
0.5269637
50
148.9808997
51
162.8878745
0
ARC
8
DEFAULT_255_2_778
10
17.8495833
20
8.776148
40
1.1797473
50
162.3536963
51
173.2990368
0
ARC
8
DEFAULT_255_2_778
10
17.9821751
20
8.7529507
40
1.3141621
50
172.9691222
51
178.6104458
0
ARC
8
DEFAULT_255_2_778
10
17.8815325
20
8.7563925
40
1.2134659
50
178.657674
51
179.9950337
0
ARC
8
DEFAULT_255_2_778
10
17.7286909
20
8.7542737
40
1.0606267
50
179.8798606
51
186.1885326
0
ARC
8
DEFAULT_255_2_778
10
163.1023003
20
18.7607098
40
146.777401
50
183.9538649
51
183.9972122
0
ARC
8
DEFAULT_255_2_778
10
-4.8877093
20
6.9736237
40
21.6256705
50
3.1224263
51
4.1248529
0
ARC
8
DEFAULT_255_2_778
10
7.5048315
20
7.6582904
40
9.2142378
50
0.9832728
51
3.0687453
0
ARC
8
DEFAULT_255_2_778
10
9.44286
20
7.7002059
40
7.2757805
50
0.0067834
51
0.9151414
0
ARC
8
DEFAULT_255_2_778
10
10.5175495
20
7.693312
40
6.2010958
50
355.8091612
51
0.0716562
0
ARC
8
DEFAULT_255_2_778
10
11.0554136
20
7.6583731
40
5.6621185
50
351.437926
51
355.7640195
0
ARC
8
DEFAULT_255_2_778
10
10.9483185
20
7.6761548
40
5.7706675
50
347.6739776
51
351.4216516
0
ARC
8
DEFAULT_255_2_778
10
10.5387535
20
7.7664516
40
6.1900676
50
344.1314634
51
347.6667228
0
ARC
8
DEFAULT_255_2_778
10
9.8928722
20
7.9505387
40
6.8616706
50
340.8067766
51
344.1275571
0
ARC
8
DEFAULT_255_2_778
10
9.0249705
20
8.2528063
40
7.7807021
50
337.7456959
51
340.8057519
0
ARC
8
DEFAULT_255_2_778
10
8.3211163
20
8.5359024
40
8.5393423
50
336.7951832
51
337.7762479
0
ARC
8
DEFAULT_255_2_778
10
11.619632
20
7.0851669
40
4.9361667
50
328.8727118
51
337.1863046
0
ARC
8
DEFAULT_255_2_778
10
10.3523652
20
7.845688
40
6.4141195
50
322.3315112
51
328.9091601
0
ARC
8
DEFAULT_255_2_778
10
8.9221191
20
8.9453986
40
8.2182697
50
316.9213049
51
322.3560868
0
ARC
8
DEFAULT_255_2_778
10
7.6283695
20
10.1400887
40
9.9792275
50
313.7548432
51
316.9845348
0
ARC
8
DEFAULT_255_2_778
10
10.4460854
20
7.1485765
40
5.8698785
50
309.6762335
51
314.0828197
0
ARC
8
DEFAULT_255_2_778
10
10.9536537
20
6.5361773
40
5.0744803
50
305.0726022
51
309.6799391
0
ARC
8
DEFAULT_255_2_778
10
11.3557195
20
5.9638048
40
4.3750039
50
300.5869873
51
305.0704111
0
ARC
8
DEFAULT_255_2_778
10
11.6932152
20
5.3904467
40
3.709691
50
295.5973623
51
300.6057555
0
ARC
8
DEFAULT_255_2_778
10
11.98629
20
4.7771659
40
3.029981
50
290.56152
51
295.6097345
0
ARC
8
DEFAULT_255_2_778
10
12.2357616
20
4.1074755
40
2.3153358
50
285.1535706
51
290.6017254
0
ARC
8
DEFAULT_255_2_778
10
12.4373097
20
3.3547876
40
1.5361355
50
279.167757
51
285.236298
0
ARC
8
DEFAULT_255_2_778
10
12.5603272
20
2.5648193
40
0.7366716
50
270.8958374
51
279.5112273
0
ARC
8
DEFAULT_255_2_778
10
12.5716959
20
1.9393967
40
0.1111591
50
269.7694596
51
270.0767775
0
ARC
8
DEFAULT_255_2_778
10
12.5667085
20
2.0002504
40
0.1720716
50
230.344696
51
271.5119212
0
ARC
8
DEFAULT_255_2_778
10
12.4813305
20
1.8940455
40
0.0358775
50
186.3658453
51
227.0783784
0
ARC
8
DEFAULT_255_2_778
10
12.4691272
20
1.8912422
40
0.0234824
50
180.0108615
51
182.8673311
0
ARC
8
DEFAULT_255_2_778
10
12.624546
20
1.8880771
40
0.1789291
50
172.6843947
51
178.9878635
0
ARC
8
DEFAULT_255_2_778
10
12.6333273
20
1.8890077
40
0.1875316
50
161.8046358
51
173.3080444
0
ARC
8
DEFAULT_255_2_778
10
12.5494882
20
1.9184721
40
0.0987009
50
136.8793767
51
162.8563519
0
ARC
8
DEFAULT_255_2_778
10
5.3171365
20
12.6936789
40
12.8654886
50
304.6666883
51
305.329451
0
ARC
8
DEFAULT_255_2_778
10
7.4477701
20
9.6883903
40
9.1815562
50
305.327157
51
306.2286794
0
ARC
8
DEFAULT_255_2_778
10
8.3853037
20
8.4064722
40
7.593387
50
306.2388708
51
307.6269766
0
ARC
8
DEFAULT_255_2_778
10
7.973187
20
8.9426523
40
8.2696477
50
307.6203919
51
307.7935513
0
ARC
8
DEFAULT_255_2_778
10
7.4363051
20
9.6343116
40
9.1452245
50
307.7960299
51
308.0894087
0
ARC
8
DEFAULT_255_2_778
10
7.7169403
20
9.2775632
40
8.6913248
50
308.0841418
51
308.1108515
0
ARC
8
DEFAULT_255_2_778
10
5.9218012
20
11.5660587
40
11.5998874
50
308.1109654
51
308.1308294
0
ARC
8
DEFAULT_255_2_778
10
8.2195688
20
8.6396887
40
7.8792186
50
308.1270735
51
308.1561029
0
ARC
8
DEFAULT_255_2_778
10
6.1193122
20
11.3125434
40
11.2785169
50
308.1570669
51
308.1771995
0
ARC
8
DEFAULT_255_2_778
10
8.3558074
20
8.4694473
40
7.661183
50
308.1711403
51
308.2005655
0
ARC
8
DEFAULT_255_2_778
10
2.5634982
20
15.8297678
40
17.0273544
50
308.2010692
51
308.2142142
0
ARC
8
DEFAULT_255_2_778
10
2.6996414
20
15.6541198
40
16.8051286
50
308.2199701
51
308.2331949
0
ARC
8
DEFAULT_255_2_778
10
4.1623339
20
13.7953633
40
14.4398712
50
308.2386467
51
308.2539301
0
ARC
8
DEFAULT_255_2_778
10
7.1495085
20
10.0067961
40
9.6153034
50
308.2535201
51
308.276313
0
ARC
8
DEFAULT_255_2_778
10
4.3830634
20
13.5123993
40
14.0810029
50
308.2770761
51
308.2925335
0
ARC
8
DEFAULT_255_2_778
10
4.4931441
20
13.3733616
40
13.9036638
50
308.291548
51
308.307096
0
ARC
8
DEFAULT_255_2_778
10
4.5974626
20
13.2397876
40
13.7341836
50
308.3110203
51
308.3266539
0
ARC
8
DEFAULT_255_2_778
10
7.9031817
20
9.0585256
40
8.4040119
50
308.3245258
51
308.349904
0
ARC
8
DEFAULT_255_2_778
10
4.8038092
20
12.9781832
40
13.4009934
50
308.3440912
51
308.3599007
0
ARC
8
DEFAULT_255_2_778
10
5.836621
20
11.6728726
40
11.7365006
50
308.3609647
51
308.3788975
0
ARC
8
DEFAULT_255_2_778
10
5.9213034
20
11.5657186
40
11.5999244
50
308.3796044
51
308.3976299
0
ARC
8
DEFAULT_255_2_778
10
6.0090574
20
11.4572442
40
11.4604058
50
308.3906344
51
308.4087611
0
ARC
8
DEFAULT_255_2_778
10
-355.8837349
20
467.8011982
40
593.8831023
50
308.4152174
51
308.415565
0
ARC
8
DEFAULT_255_2_778
10
6.1732521
20
11.2514135
40
11.1971082
50
308.4231683
51
308.4414843
0
ARC
8
DEFAULT_255_2_778
10
0.9599821
20
17.821204
40
19.5840225
50
308.4377465
51
308.4481523
0
ARC
8
DEFAULT_255_2_778
10
6.3355241
20
11.0502314
40
10.9386467
50
308.4495311
51
308.4680438
0
ARC
8
DEFAULT_255_2_778
10
1.2109183
20
17.5014819
40
19.177592
50
308.4655211
51
308.4760145
0
ARC
8
DEFAULT_255_2_778
10
1.3297562
20
17.3494425
40
18.9846257
50
308.4807301
51
308.4912644
0
ARC
8
DEFAULT_255_2_778
10
2.175232
20
16.2869417
40
17.6267831
50
308.4897657
51
308.5066865
0
ARC
8
DEFAULT_255_2_778
10
2.3443728
20
16.0735487
40
17.3544874
50
308.508341
51
308.5253697
0
ARC
8
DEFAULT_255_2_778
10
2.5123608
20
15.86264
40
17.0848535
50
308.5251828
51
308.542323
0
ARC
8
DEFAULT_255_2_778
10
2.6793122
20
15.6540553
40
16.8176833
50
308.5402342
51
308.5574897
0
ARC
8
DEFAULT_255_2_778
10
-2.187067
20
21.7591972
40
24.6250134
50
308.5577086
51
308.5693879
0
ARC
8
DEFAULT_255_2_778
10
-1.9685943
20
21.4834988
40
24.2732482
50
308.5719226
51
308.5836661
0
ARC
8
DEFAULT_255_2_778
10
-16.1505029
20
39.2527999
40
47.0081241
50
308.5885765
51
308.594587
0
ARC
8
DEFAULT_255_2_778
10
0.093075
20
18.8998253
40
20.9678208
50
308.5963816
51
308.6097387
0
ARC
8
DEFAULT_255_2_778
10
0.276412
20
18.6697333
40
20.6736189
50
308.6106204
51
308.6240499
0
ARC
8
DEFAULT_255_2_778
10
-15.1747979
20
38.0075989
40
45.4262539
50
308.62474
51
308.630799
0
ARC
8
DEFAULT_255_2_778
10
0.6524952
20
18.202068
40
20.0734975
50
308.632344
51
308.6459379
0
ARC
8
DEFAULT_255_2_778
10
-8.9848771
20
30.2564392
40
35.5067995
50
308.6442493
51
308.6518689
0
ARC
8
DEFAULT_255_2_778
10
1.0226038
20
17.7439997
40
19.4846019
50
308.6510135
51
308.6647806
0
ARC
8
DEFAULT_255_2_778
10
5.2193833
20
12.5019694
40
12.7695566
50
308.6563406
51
308.670219
0
ARC
8
DEFAULT_255_2_778
10
-13.6029917
20
36.0234083
40
42.8949593
50
308.668356
51
308.6745219
0
ARC
8
DEFAULT_255_2_778
10
-7.9291683
20
28.9350655
40
33.8154837
50
308.674306
51
308.6820618
0
ARC
8
DEFAULT_255_2_778
10
5.5486462
20
12.1023302
40
12.2517999
50
308.6787726
51
308.692916
0
ARC
8
DEFAULT_255_2_778
10
-12.6770815
20
34.8645725
40
41.4116493
50
308.686818
51
308.6930632
0
ARC
8
DEFAULT_255_2_778
10
-0.5927194
20
19.7793727
40
22.083042
50
308.6893444
51
308.702898
0
ARC
8
DEFAULT_255_2_778
10
-9.1004237
20
30.400658
40
35.6915956
50
308.6998514
51
308.7045929
0
ARC
8
DEFAULT_255_2_778
10
-8.9002084
20
30.1516381
40
35.3720697
50
308.7037333
51
308.7084912
0
ARC
8
DEFAULT_255_2_778
10
-13.8006096
20
36.2672747
40
43.2088382
50
308.7078333
51
308.714618
0
ARC
8
DEFAULT_255_2_778
10
-13.3359089
20
35.6916707
40
42.4690682
50
308.7111296
51
308.7179661
0
ARC
8
DEFAULT_255_2_778
10
-12.9383417
20
35.1956336
40
41.8333696
50
308.718061
51
308.7249347
0
ARC
8
DEFAULT_255_2_778
10
107.800207
20
-115.272291
40
151.0873256
50
128.6945366
51
128.7496267
0
ARC
8
DEFAULT_255_2_778
10
35.0051308
20
-24.4054851
40
34.6575218
50
128.4494972
51
128.6800049
0
ARC
8
DEFAULT_255_2_778
10
31.6307367
20
-20.1599436
40
29.2343171
50
128.1270753
51
128.4442116
0
ARC
8
DEFAULT_255_2_778
10
11.3318181
20
5.4336556
40
3.4354541
50
310.90209
51
313.5972516
0
ARC
8
DEFAULT_255_2_778
10
10.5434203
20
6.2648566
40
4.5810817
50
313.5694613
51
315.5065837
0
ARC
8
DEFAULT_255_2_778
10
9.5553
20
7.2339981
40
5.9651394
50
315.5179468
51
317.5934688
0
ARC
8
DEFAULT_255_2_778
10
8.2549704
20
8.4224184
40
7.7267294
50
317.5891742
51
319.4930259
0
ARC
8
DEFAULT_255_2_778
10
7.4522917
20
9.1153006
40
8.7870844
50
319.4575243
51
319.7026752
0
ARC
8
DEFAULT_255_2_778
10
6.5074146
20
9.9075933
40
10.0201618
50
319.7416882
51
321.8175933
0
ARC
8
DEFAULT_255_2_778
10
5.2127174
20
10.9297761
40
11.6697345
50
321.8021555
51
323.7240466
0
ARC
8
DEFAULT_255_2_778
10
5.1403676
20
10.9889813
40
11.7630923
50
323.7000708
51
325.9850492
0
ARC
8
DEFAULT_255_2_778
10
6.7216666
20
9.9234458
40
9.8562966
50
325.9770286
51
327.7940742
0
ARC
8
DEFAULT_255_2_778
10
8.7749721
20
8.6308401
40
7.4300046
50
327.7893346
51
329.5789684
0
ARC
8
DEFAULT_255_2_778
10
10.7814639
20
7.4547581
40
5.1042416
50
329.5585442
51
331.7286488
0
ARC
8
DEFAULT_255_2_778
10
12.5488043
20
6.5070173
40
3.0988253
50
331.684123
51
334.6361316
0
ARC
8
DEFAULT_255_2_778
10
13.8907868
20
5.8736486
40
1.6148912
50
334.5458942
51
338.9283262
0
ARC
8
DEFAULT_255_2_778
10
14.5331263
20
5.6220073
40
0.9250382
50
339.1680613
51
341.4966904
0
ARC
8
DEFAULT_255_2_778
10
10.4821394
20
6.9639033
40
5.1924904
50
341.6411496
51
344.580885
0
ARC
8
DEFAULT_255_2_778
10
9.3754105
20
7.2706109
40
6.3409316
50
344.5681118
51
348.0238691
0
ARC
8
DEFAULT_255_2_778
10
9.2909944
20
7.2952923
40
6.4286352
50
347.9648011
51
352.5859283
0
ARC
8
DEFAULT_255_2_778
10
10.5099337
20
7.1406002
40
5.1999269
50
352.5430433
51
357.2360851
0
ARC
8
DEFAULT_255_2_778
10
11.6504309
20
7.0794384
40
4.0578119
50
357.3221464
51
359.9579335
0
ARC
8
DEFAULT_255_2_778
10
12.3911459
20
7.0796625
40
3.3170975
50
359.94467
51
3.0957615
0
ARC
8
DEFAULT_255_2_778
10
12.9808056
20
7.1103385
40
2.726642
50
3.1212561
51
5.6406593
0
ARC
8
DEFAULT_255_2_778
10
13.023128
20
7.1737596
40
2.6789396
50
4.3796767
51
7.1206132
0
ARC
8
DEFAULT_255_2_778
10
13.5861787
20
7.244118
40
2.1115101
50
7.1200461
51
9.9547111
0
ARC
8
DEFAULT_255_2_778
10
14.0696907
20
7.3297326
40
1.6204776
50
9.928508
51
13.437594
0
ARC
8
DEFAULT_255_2_778
10
14.3827103
20
7.4029333
40
1.2990174
50
13.5057271
51
15.1969525
0
ARC
8
DEFAULT_255_2_778
10
14.690962
20
7.4895904
40
0.9788333
50
15.0317478
51
20.1737059
0
ARC
8
DEFAULT_255_2_778
10
15.0541298
20
7.6238077
40
0.5916586
50
20.1021915
51
25.9103931
0
ARC
8
DEFAULT_255_2_778
10
15.3302475
20
7.7589781
40
0.2842335
50
25.7231071
51
32.1470045
0
ARC
8
DEFAULT_255_2_778
10
15.5033086
20
7.8675061
40
0.0799584
50
32.2871232
51
35.9408733
0
ARC
8
DEFAULT_255_2_778
10
15.5776864
20
7.8418602
40
0.0732152
50
97.5671734
51
134.6694162
0
ARC
8
DEFAULT_255_2_778
10
15.7581553
20
7.6266858
40
0.3538577
50
130.954704
51
143.442005
0
ARC
8
DEFAULT_255_2_778
10
16.1556414
20
7.3217618
40
0.8548029
50
142.8940798
51
150.5148378
0
ARC
8
DEFAULT_255_2_778
10
16.4902188
20
7.1241792
40
1.2433183
50
150.177787
51
152.6132343
0
ARC
8
DEFAULT_255_2_778
10
16.7540637
20
6.9895852
40
1.5395055
50
152.6823958
51
157.3873071
0
ARC
8
DEFAULT_255_2_778
10
17.0546409
20
6.8637597
40
1.8653558
50
157.369466
51
162.4726286
0
ARC
8
DEFAULT_255_2_778
10
17.2095921
20
6.8129841
40
2.0284054
50
162.4231143
51
164.7464952
0
ARC
8
DEFAULT_255_2_778
10
38.0379935
20
0.5274852
40
23.7838802
50
163.3387175
51
164.258015
0
ARC
8
DEFAULT_255_2_778
10
51.9428058
20
-3.421343
40
38.2385179
50
164.2156649
51
164.4122734
0
ARC
8
DEFAULT_255_2_778
10
107.877391
20
-18.926888
40
96.2824336
50
164.4688801
51
164.7855045
0
LINE
8
DEFAULT_255_2_778
10
14.9696439
20
6.3408302
11
14.9687448
21
6.3375378
0
ARC
8
DEFAULT_255_2_778
10
8.4134106
20
8.2367993
40
6.824925
50
341.7556604
51
343.842236
0
ARC
8
DEFAULT_255_2_778
10
9.5783013
20
7.8523145
40
5.5982227
50
339.3412173
51
341.7604144
0
ARC
8
DEFAULT_255_2_778
10
10.5082483
20
7.5010472
40
4.6041452
50
336.4421598
51
339.3485981
0
ARC
8
DEFAULT_255_2_778
10
11.2064687
20
7.1964732
40
3.8423861
50
333.0759938
51
336.4440829
0
ARC
8
DEFAULT_255_2_778
10
11.6458615
20
6.9739794
40
3.3498732
50
329.4024794
51
333.066013
0
ARC
8
DEFAULT_255_2_778
10
11.7830329
20
6.8946287
40
3.1914116
50
325.6092153
51
329.3752174
0
ARC
8
DEFAULT_255_2_778
10
11.3058594
20
7.2287717
40
3.7739179
50
321.7584189
51
325.5148991
0
ARC
8
DEFAULT_255_2_778
10
3.3572705
20
13.5674238
40
13.9404146
50
320.3190524
51
321.5183038
0
LINE
8
DEFAULT_255_2_778
10
14.0859797
20
4.6663027
11
14.0858448
21
4.6661378
0
ARC
8
DEFAULT_255_2_778
10
15.6840223
20
3.0371422
40
2.28206
50
134.4528674
51
137.8829319
0
ARC
8
DEFAULT_255_2_778
10
14.8110695
20
3.8350061
40
1.0994574
50
138.216071
51
145.9981283
0
ARC
8
DEFAULT_255_2_778
10
14.8190999
20
3.8304791
40
1.1086466
50
146.0362559
51
146.31042
0
ARC
8
DEFAULT_255_2_778
10
11.2036217
20
6.4988777
40
3.3865896
50
318.0850244
51
322.6743473
0
ARC
8
DEFAULT_255_2_778
10
11.1151161
20
6.5776818
40
3.5050931
50
314.2046583
51
318.0929214
0
ARC
8
DEFAULT_255_2_778
10
11.0913845
20
6.6015094
40
3.5387202
50
313.3519372
51
314.2111169
0
ARC
8
DEFAULT_255_2_778
10
11.1148527
20
6.5753734
40
3.503605
50
307.697388
51
313.3662775
0
ARC
8
DEFAULT_255_2_778
10
11.3189859
20
6.3083539
40
3.1675003
50
302.8691183
51
307.729212
0
ARC
8
DEFAULT_255_2_778
10
11.6833491
20
5.7415882
40
2.4937193
50
298.3073676
51
302.9050276
0
ARC
8
DEFAULT_255_2_778
10
12.1025697
20
4.9571866
40
1.6043269
50
292.9056373
51
298.4100672
0
ARC
8
DEFAULT_255_2_778
10
12.4348357
20
4.1612187
40
0.74181
50
284.975277
51
293.1942308
0
ARC
8
DEFAULT_255_2_778
10
12.5647792
20
3.6678144
40
0.2315937
50
271.8225492
51
285.4617974
0
ARC
8
DEFAULT_255_2_778
10
12.5640188
20
3.5412117
40
0.1051883
50
225.8889241
51
274.430628
0
ARC
8
DEFAULT_255_2_778
10
12.5287732
20
3.5002795
40
0.0513654
50
182.9857641
51
222.3341224
0
ARC
8
DEFAULT_255_2_778
10
12.5238726
20
3.4993435
40
0.0464277
50
180.0071262
51
182.1472159
0
ARC
8
DEFAULT_255_2_778
10
12.5450746
20
3.5342312
40
0.0761009
50
180.0997961
51
207.29141
0
ARC
8
DEFAULT_255_2_778
10
12.5832025
20
3.5287557
40
0.1143535
50
145.2494669
51
177.3219813
0
ARC
8
DEFAULT_255_2_778
10
12.9709059
20
3.2551202
40
0.5888928
50
132.7508824
51
144.8760823
0
LINE
8
DEFAULT_255_2_778
10
12.5711584
20
3.6875513
11
12.5721448
21
3.6885378
0
ARC
8
DEFAULT_255_2_778
10
10.7364744
20
5.827241
40
2.8184637
50
310.639822
51
312.4772379
0
ARC
8
DEFAULT_255_2_778
10
10.3650551
20
6.2335889
40
3.3689822
50
312.4692982
51
314.5059053
0
ARC
8
DEFAULT_255_2_778
10
10.0804028
20
6.5235202
40
3.7752914
50
314.5024299
51
316.9150203
0
ARC
8
DEFAULT_255_2_778
10
9.88146
20
6.7100568
40
4.0480073
50
316.9101917
51
319.6389619
0
ARC
8
DEFAULT_255_2_778
10
9.7657444
20
6.8087688
40
4.2001063
50
319.6351587
51
322.8597581
0
ARC
8
DEFAULT_255_2_778
10
9.7251701
20
6.8399219
40
4.2512596
50
322.8552221
51
325.5895412
0
ARC
8
DEFAULT_255_2_778
10
9.7310547
20
6.8361043
40
4.2442474
50
325.5871662
51
329.3564829
0
ARC
8
DEFAULT_255_2_778
10
9.7707465
20
6.8127574
40
4.1981985
50
329.3545163
51
333.5614513
0
ARC
8
DEFAULT_255_2_778
10
9.8235287
20
6.7865588
40
4.1392721
50
333.5608699
51
338.2803
0
ARC
8
DEFAULT_255_2_778
10
9.8631468
20
6.7706238
40
4.0965697
50
338.2822914
51
343.3261448
0
ARC
8
DEFAULT_255_2_778
10
9.8700297
20
6.7684251
40
4.0893454
50
343.3279854
51
344.0756182
0
ARC
8
DEFAULT_255_2_778
10
13.2938629
20
5.8137956
40
0.5354104
50
341.7852962
51
357.6700317
0
ARC
8
DEFAULT_255_2_778
10
13.2469696
20
5.8175996
40
0.5824227
50
357.4836746
51
0.0037434
0
ARC
8
DEFAULT_255_2_778
10
13.2371557
20
5.817739
40
0.5922365
50
359.9901884
51
12.0332845
0
ARC
8
DEFAULT_255_2_778
10
13.3796162
20
5.8503554
40
0.4461118
50
11.7507843
51
21.7086475
0
ARC
8
DEFAULT_255_2_778
10
13.5248169
20
5.9049954
40
0.2910134
50
22.2881159
51
23.3298153
0
ARC
8
DEFAULT_255_2_778
10
13.6220318
20
5.9490084
40
0.1843266
50
22.7344886
51
31.6975724
0
ARC
8
DEFAULT_255_2_778
10
13.7244019
20
6.0124446
40
0.0638953
50
31.5318812
51
43.6367133
0
ARC
8
DEFAULT_255_2_778
10
13.8132958
20
5.9890887
40
0.0798027
50
122.3069379
51
139.8405932
0
ARC
8
DEFAULT_255_2_778
10
14.0121763
20
5.8074756
40
0.3490822
50
138.1108482
51
149.2607958
0
ARC
8
DEFAULT_255_2_778
10
14.4830768
20
5.5185019
40
0.9015587
50
148.7726036
51
155.6978623
0
ARC
8
DEFAULT_255_2_778
10
15.2560047
20
5.1613847
40
1.7529823
50
155.4568068
51
159.5925939
0
ARC
8
DEFAULT_255_2_778
10
-23.8752698
20
21.1908
40
40.5350892
50
337.4557677
51
337.643656
0
ARC
8
DEFAULT_255_2_778
10
-0.7287722
20
11.5819813
40
15.4733703
50
337.0711934
51
337.4567386
0
ARC
8
DEFAULT_255_2_778
10
6.8166184
20
8.3848472
40
7.2785833
50
336.0708781
51
337.1100882
0
ARC
8
DEFAULT_255_2_778
10
9.9101181
20
7.011353
40
3.8938786
50
334.2704897
51
336.0811308
0
ARC
8
DEFAULT_255_2_778
10
10.9616564
20
6.5053666
40
2.7269363
50
331.2515588
51
334.2562549
0
ARC
8
DEFAULT_255_2_778
10
10.6120823
20
6.7064673
40
3.1301548
50
327.6188495
51
331.1018268
0
ARC
8
DEFAULT_255_2_778
10
8.2365655
20
8.2022
40
5.9373337
50
326.3625133
51
327.7062131
0
ARC
8
DEFAULT_255_2_778
10
2.9259631
20
11.727476
40
12.3115039
50
325.761218
51
326.3938599
0
ARC
8
DEFAULT_255_2_778
10
-12.1410446
20
21.9748211
40
30.5329966
50
325.4777377
51
325.7722297
0
ARC
8
DEFAULT_255_2_778
10
-35.205875
20
37.8081092
40
58.5093982
50
325.5008515
51
325.5034987
0
LINE
8
DEFAULT_255_2_778
10
13.0137448
20
4.6687378
11
13.0134647
21
4.6683379
0
ARC
8
DEFAULT_255_2_778
10
9.5941618
20
7.0808784
40
4.1847322
50
319.2382287
51
324.7945442
0
ARC
8
DEFAULT_255_2_778
10
8.4461212
20
8.0714436
40
5.7010489
50
312.2846357
51
319.2310801
0
ARC
8
DEFAULT_255_2_778
10
8.509319
20
7.9861565
40
5.5954424
50
308.7941738
51
312.3934629
0
ARC
8
DEFAULT_255_2_778
10
9.2353172
20
7.0807201
40
4.4348884
50
305.5205127
51
308.8126995
0
ARC
8
DEFAULT_255_2_778
10
10.0239799
20
5.9727674
40
3.0749093
50
301.8122079
51
305.5543464
0
ARC
8
DEFAULT_255_2_778
10
10.6640405
20
4.9370346
40
1.8573654
50
297.0583006
51
301.8758139
0
ARC
8
DEFAULT_255_2_778
10
11.0119527
20
4.2604415
40
1.0965673
50
292.7974617
51
296.9511338
0
ARC
8
DEFAULT_255_2_778
10
9.6824048
20
6.838979
40
3.9952658
50
272.8918666
51
296.0483679
0
ARC
8
DEFAULT_255_2_778
10
9.5780446
20
7.8415742
40
5.002137
50
269.975949
51
273.5063453
0
ARC
8
DEFAULT_255_2_778
10
9.5910224
20
7.1014997
40
4.2620887
50
264.4656799
51
269.7973102
0
ARC
8
DEFAULT_255_2_778
10
9.743092
20
8.7521719
40
5.9197373
50
260.4681831
51
264.5414971
0
ARC
8
DEFAULT_255_2_778
10
9.9005998
20
9.7247777
40
6.905
50
256.9857956
51
260.5156936
0
ARC
8
DEFAULT_255_2_778
10
8.9151383
20
5.4216432
40
2.4904918
50
252.4235342
51
256.7813903
0
ARC
8
DEFAULT_255_2_778
10
9.1100096
20
6.0381378
40
3.137052
50
248.6234277
51
252.4307366
0
ARC
8
DEFAULT_255_2_778
10
9.8217106
20
7.7300686
40
4.9722117
50
238.4308912
51
248.0929219
0
ARC
8
DEFAULT_255_2_778
10
10.736033
20
9.3128528
40
6.7996116
50
237.2764269
51
238.8489969
0
ARC
8
DEFAULT_255_2_778
10
11.0001801
20
9.7232532
40
7.287671
50
234.9809044
51
237.2735416
0
ARC
8
DEFAULT_255_2_778
10
10.9846899
20
9.703966
40
7.2629866
50
233.3033785
51
234.993668
0
ARC
8
DEFAULT_255_2_778
10
10.5299008
20
9.0958219
40
6.5035982
50
231.742481
51
233.3143146
0
ARC
8
DEFAULT_255_2_778
10
9.655045
20
7.9880419
40
5.092022
50
230.238988
51
231.7541152
0
ARC
8
DEFAULT_255_2_778
10
8.5171085
20
6.6228829
40
3.3147898
50
228.5099273
51
230.2669152
0
ARC
8
DEFAULT_255_2_778
10
7.3701842
20
5.3298813
40
1.5864161
50
225.9856379
51
228.6011639
0
ARC
8
DEFAULT_255_2_778
10
6.5572869
20
4.493588
40
0.4201649
50
220.5095609
51
226.4654944
0
ARC
8
DEFAULT_255_2_778
10
6.3034028
20
4.275211
40
0.0852926
50
214.0634268
51
219.760726
0
ARC
8
DEFAULT_255_2_778
10
10.3524628
20
8.2912874
40
5.786791
50
215.7122399
51
224.608854
0
ARC
8
DEFAULT_255_2_778
10
11.3646073
20
9.0586175
40
7.0565861
50
213.3373338
51
215.9739874
0
ARC
8
DEFAULT_255_2_778
10
11.3703893
20
9.0631407
40
7.0639026
50
212.4968361
51
213.3422114
0
ARC
8
DEFAULT_255_2_778
10
10.9478546
20
8.3344487
40
6.3279168
50
202.8872902
51
208.9852598
0
ARC
8
DEFAULT_255_2_778
10
9.8944124
20
7.8921932
40
5.185409
50
195.0792944
51
202.9123373
0
ARC
8
DEFAULT_255_2_778
10
9.0520809
20
7.6680491
40
4.3137703
50
184.0457265
51
195.1153042
0
ARC
8
DEFAULT_255_2_778
10
8.6944125
20
7.633715
40
3.954581
50
180.0090219
51
183.9151249
0
ARC
8
DEFAULT_255_2_778
10
8.6047607
20
7.6335137
40
3.8649294
50
175.7931096
51
180.0062482
0
ARC
8
DEFAULT_255_2_778
10
12.3378345
20
7.1242536
40
7.628894
50
169.1175503
51
174.0351328
0
ARC
8
DEFAULT_255_2_778
10
8.0108988
20
8.0084405
40
3.2132525
50
146.5892806
51
170.0338191
0
ARC
8
DEFAULT_255_2_778
10
7.922459
20
8.0178278
40
3.1345251
50
137.7658205
51
145.8423422
0
ARC
8
DEFAULT_255_2_778
10
13.4024705
20
3.4405224
40
10.2728582
50
138.570527
51
139.4080499
0
ARC
8
DEFAULT_255_2_778
10
12.4139482
20
4.3101468
40
8.956265
50
138.2412858
51
138.5571954
0
ARC
8
DEFAULT_255_2_778
10
10.0424857
20
6.4861536
40
5.7382154
50
131.0058593
51
138.6788616
0
ARC
8
DEFAULT_255_2_778
10
8.8098705
20
7.881053
40
3.8768303
50
118.4706547
51
130.7850633
0
ARC
8
DEFAULT_255_2_778
10
8.9552778
20
7.5922005
40
4.200078
50
111.2749349
51
118.3359223
0
ARC
8
DEFAULT_255_2_778
10
9.2173207
20
6.9421131
40
4.9009495
50
109.0220437
51
111.3720224
0
ARC
8
DEFAULT_255_2_778
10
8.8391573
20
8.1170841
40
3.6669727
50
103.3091476
51
109.4196582
0
ARC
8
DEFAULT_255_2_778
10
9.1728997
20
6.7177318
40
5.1055714
50
96.8542308
51
103.3387832
0
ARC
8
DEFAULT_255_2_778
10
9.2437205
20
6.2133181
40
5.6148412
50
93.0249102
51
96.9574576
0
ARC
8
DEFAULT_255_2_778
10
9.2305845
20
6.4803455
40
5.3474928
50
90.021854
51
93.0353396
0
ARC
8
DEFAULT_255_2_778
10
9.241755
20
6.1265274
40
5.7013256
50
83.4433986
51
90.1327566
0
ARC
8
DEFAULT_255_2_778
10
9.4122543
20
7.5891414
40
4.2288102
50
76.2065508
51
83.4755908
0
ARC
8
DEFAULT_255_2_778
10
9.7278729
20
8.859519
40
2.9198201
50
67.2295692
51
76.2777865
0
ARC
8
DEFAULT_255_2_778
10
10.1289684
20
9.804482
40
1.8932692
50
54.9725916
51
67.3535571
0
ARC
8
DEFAULT_255_2_778
10
-1.7360983
20
-7.7023747
40
23.0418097
50
55.3189643
51
55.7990234
0
ARC
8
DEFAULT_255_2_778
10
2.1076746
20
-2.1492231
40
16.2881381
50
54.644661
51
55.322745
0
ARC
8
DEFAULT_255_2_778
10
4.6541119
20
1.4380667
40
11.8889348
50
53.6837974
51
54.6497286
0
ARC
8
DEFAULT_255_2_778
10
6.3489797
20
3.7418524
40
9.0288645
50
52.2139233
51
53.6918031
0
ARC
8
DEFAULT_255_2_778
10
7.0298356
20
4.6259092
40
7.9130211
50
51.6469823
51
52.1879165
0
ARC
8
DEFAULT_255_2_778
10
7.2958508
20
4.9608733
40
7.4852777
50
49.1666747
51
51.6528221
0
ARC
8
DEFAULT_255_2_778
10
6.3718305
20
3.9007861
40
8.891538
50
47.1371126
51
49.1281528
0
ARC
8
DEFAULT_255_2_778
10
3.93497
20
1.2632012
40
12.4825125
50
46.3363812
51
47.173963
0
ARC
8
DEFAULT_255_2_778
10
-0.0237885
20
-2.8822552
40
18.2145781
50
45.6332619
51
46.3311308
0
ARC
8
DEFAULT_255_2_778
10
-7.7282354
20
-10.7659968
40
29.2378203
50
45.2471363
51
45.6429599
0
ARC
8
DEFAULT_255_2_778
10
-22.7594034
20
-25.9300566
40
50.5892774
50
44.999156
51
45.2492574
0
ARC
8
DEFAULT_255_2_778
10
14.1553425
20
11.0131696
40
1.6363285
50
225.7312634
51
247.0930678
0
ARC
8
DEFAULT_255_2_778
10
14.3389889
20
11.4128589
40
2.076024
50
246.7179843
51
269.8529672
0
ARC
8
DEFAULT_255_2_778
10
14.3376448
20
11.3204114
40
1.9835737
50
269.8849367
51
269.9999999
0
ARC
8
DEFAULT_255_2_778
10
14.3738074
20
11.1947285
40
1.8582427
50
268.8849191
51
303.8930053
0
ARC
8
DEFAULT_255_2_778
10
13.6891978
20
12.5880354
40
3.4029726
50
300.3771237
51
308.2083292
0
ARC
8
DEFAULT_255_2_778
10
14.2852361
20
11.8373107
40
2.4444178
50
308.1144093
51
319.8131892
0
ARC
8
DEFAULT_255_2_778
10
14.7460054
20
11.4561461
40
1.8464674
50
319.6227437
51
351.9426595
0
ARC
8
DEFAULT_255_2_778
10
14.5195532
20
11.4824905
40
2.0743842
50
352.0988868
51
358.6203479
0
ARC
8
DEFAULT_255_2_778
10
14.4150364
20
11.4864716
40
2.1789671
50
358.5818636
51
0.0027173
0
ARC
8
DEFAULT_255_2_778
10
13.9646315
20
11.4607513
40
2.6294989
50
0.5626978
51
17.7720025
0
ARC
8
DEFAULT_255_2_778
10
13.0049125
20
11.1774255
40
3.6299719
50
17.4069145
51
25.374388
0
ARC
8
DEFAULT_255_2_778
10
12.3508421
20
10.8752879
40
4.3504237
50
25.2782437
51
29.8595989
0
ARC
8
DEFAULT_255_2_778
10
12.0473438
20
10.7046576
40
4.6985858
50
29.8214821
51
31.6382715
0
ARC
8
DEFAULT_255_2_778
10
11.9140436
20
10.6223907
40
4.8552281
50
31.6396505
51
34.3182731
0
ARC
8
DEFAULT_255_2_778
10
11.9366874
20
10.638746
40
4.8273051
50
34.3094688
51
36.5544345
0
ARC
8
DEFAULT_255_2_778
10
12.1978311
20
10.8330398
40
4.501812
50
36.5475494
51
38.4497415
0
ARC
8
DEFAULT_255_2_778
10
12.7038619
20
11.2356979
40
3.8551281
50
38.4396469
51
40.2213039
0
ARC
8
DEFAULT_255_2_778
10
13.4222161
20
11.8440256
40
2.9138019
50
40.2090932
51
41.9153812
0
ARC
8
DEFAULT_255_2_778
10
14.2925452
20
12.6278318
40
1.742555
50
41.8546338
51
44.0651169
0
ARC
8
DEFAULT_255_2_778
10
15.1042439
20
13.4170481
40
0.6104339
50
43.8234525
51
47.6765783
0
ARC
8
DEFAULT_255_2_778
10
15.4831366
20
13.838473
40
0.0438858
50
42.9515617
51
64.6568246
0
ARC
8
DEFAULT_255_2_778
10
9.9754659
20
8.8784607
40
7.4523577
50
42.1354278
51
46.8097389
0
ARC
8
DEFAULT_255_2_778
10
1.9941924
20
0.3336623
40
19.1448329
50
46.8972219
51
48.6177628
0
ARC
8
DEFAULT_255_2_778
10
14.074606
20
14.6853947
40
0.5759843
50
1.287609
51
32.7842885
0
ARC
8
DEFAULT_255_2_778
10
13.7766689
20
14.5149129
40
0.918953
50
31.6619616
51
41.8450108
0
ARC
8
DEFAULT_255_2_778
10
13.6099215
20
14.3697695
40
1.1400037
50
41.6884375
51
47.8163531
0
ARC
8
DEFAULT_255_2_778
10
13.5956639
20
14.3560763
40
1.159725
50
47.7486811
51
51.5423764
0
ARC
8
DEFAULT_255_2_778
10
13.7381393
20
14.5363135
40
0.9299766
50
51.5098524
51
54.0426011
0
ARC
8
DEFAULT_255_2_778
10
14.0155524
20
14.9199536
40
0.4565458
50
53.9529762
51
55.8111372
0
ARC
8
DEFAULT_255_2_778
10
9.4700672
20
8.5619968
40
8.2721127
50
54.5141442
51
58.961643
0
ARC
8
DEFAULT_255_2_778
10
9.6945024
20
8.9344363
40
7.8372768
50
58.9635944
51
63.6565691
0
ARC
8
DEFAULT_255_2_778
10
9.8320181
20
9.2108491
40
7.5285465
50
63.6609559
51
68.3025844
0
ARC
8
DEFAULT_255_2_778
10
9.9019916
20
9.3850199
40
7.3408464
50
68.3074548
51
72.5377151
0
ARC
8
DEFAULT_255_2_778
10
9.9306753
20
9.4750093
40
7.2463968
50
72.5405454
51
76.5706584
0
ARC
8
DEFAULT_255_2_778
10
9.9364331
20
9.4978897
40
7.222805
50
76.5729313
51
80.5409566
0
ARC
8
DEFAULT_255_2_778
10
9.929463
20
9.4545723
40
7.2666791
50
80.5428768
51
83.978782
0
ARC
8
DEFAULT_255_2_778
10
9.9166771
20
9.3308558
40
7.3910543
50
83.9808135
51
86.9072706
0
ARC
8
DEFAULT_255_2_778
10
9.9018531
20
9.0474289
40
7.6748681
50
86.910922
51
89.3181388
0
ARC
8
DEFAULT_255_2_778
10
9.8955879
20
8.6413018
40
8.0810412
50
89.3079882
51
90.0020004
0
ARC
8
DEFAULT_255_2_778
10
9.8959162
20
8.2404546
40
8.4818885
50
90.0041232
51
90.7706464
0
ARC
8
DEFAULT_255_2_778
10
9.9043079
20
7.6016876
40
9.1207106
50
90.7693871
51
91.2821921
0
ARC
8
DEFAULT_255_2_778
10
9.9275635
20
6.5793023
40
10.1433603
50
91.2842951
51
91.7712446
0
ARC
8
DEFAULT_255_2_778
10
9.9866931
20
4.663443
40
12.0601319
50
91.7706923
51
92.089797
0
ARC
8
DEFAULT_255_2_778
10
10.1290386
20
0.774348
40
15.9518309
50
92.0913489
51
92.3169605
0
ARC
8
DEFAULT_255_2_778
10
9.9072204
20
3.7034777
40
13.0165375
50
91.8626085
51
97.0125261
0
ARC
8
DEFAULT_255_2_778
10
9.7620943
20
4.8938486
40
11.8173533
50
97.0187687
51
104.4991009
0
ARC
8
DEFAULT_255_2_778
10
8.7620493
20
7.7045603
40
8.8497356
50
102.7864486
51
110.855614
0
ARC
8
DEFAULT_255_2_778
10
8.4202788
20
8.579044
40
7.9108766
50
110.7973155
51
135.588485
0
ARC
8
DEFAULT_255_2_778
10
9.1080141
20
7.8912854
40
8.8834517
50
135.5239487
51
143.6816208
0
ARC
8
DEFAULT_255_2_778
10
9.904443
20
7.2915271
40
9.8803918
50
143.614666
51
147.1943341
0
ARC
8
DEFAULT_255_2_778
10
4.7764952
20
9.9804559
40
4.1459585
50
140.0142313
51
153.5963628
0
ARC
8
DEFAULT_255_2_778
10
6.7675039
20
8.9963816
40
6.3668834
50
153.6320582
51
164.4627801
0
ARC
8
DEFAULT_255_2_778
10
9.1784897
20
8.2718436
40
8.8839952
50
164.1258403
51
167.6809518
0
ARC
8
DEFAULT_255_2_778
10
11.2162546
20
7.8291088
40
10.9692999
50
167.6925842
51
171.1725406
0
ARC
8
DEFAULT_255_2_778
10
13.3789579
20
7.4836502
40
13.1594033
50
171.1312674
51
172.9408746
0
ARC
8
DEFAULT_255_2_778
10
15.3527663
20
7.238638
40
15.1483602
50
172.9386556
51
174.4529044
0
ARC
8
DEFAULT_255_2_778
10
5.0691041
20
8.3843875
40
4.8043316
50
176.1982262
51
177.7374088
0
ARC
8
DEFAULT_255_2_778
10
5.7163304
20
8.3592473
40
5.4520459
50
177.7419435
51
179.4448919
0
ARC
8
DEFAULT_255_2_778
10
6.2184192
20
8.352678
40
5.9541749
50
179.4284887
51
180.0021661
0
ARC
8
DEFAULT_255_2_778
10
6.9577615
20
8.3567771
40
6.6935187
50
180.0370147
51
182.3705567
0
ARC
8
DEFAULT_255_2_778
10
8.3815631
20
8.4176574
40
8.1186201
50
182.3842238
51
185.108267
0
ARC
8
DEFAULT_255_2_778
10
9.5910429
20
8.5206709
40
9.3324697
50
185.0770463
51
186.5203694
0
ARC
8
DEFAULT_255_2_778
10
10.8772421
20
8.6761514
40
10.6280084
50
186.5657539
51
190.7800328
0
ARC
8
DEFAULT_255_2_778
10
10.9618116
20
8.6854407
40
10.7128249
50
190.7442394
51
192.6558384
0
ARC
8
DEFAULT_255_2_778
10
9.9361992
20
8.4528653
40
9.6611754
50
192.6426795
51
194.70648
0
ARC
8
DEFAULT_255_2_778
10
8.340999
20
8.0336774
40
8.0118173
50
194.7030066
51
196.6278869
0
ARC
8
DEFAULT_255_2_778
10
6.5949913
20
7.5106371
40
6.1891513
50
196.6136292
51
198.8040061
0
ARC
8
DEFAULT_255_2_778
10
5.4251384
20
7.1169005
40
4.9548253
50
198.8544153
51
199.7006089
0
ARC
8
DEFAULT_255_2_778
10
4.560931
20
6.8046777
40
4.0359515
50
199.6634348
51
201.6377254
0
ARC
8
DEFAULT_255_2_778
10
3.5592668
20
6.4070334
40
2.9582446
50
201.632428
51
203.8352521
0
ARC
8
DEFAULT_255_2_778
10
2.7415395
20
6.0447111
40
2.0638431
50
203.8083229
51
206.670379
0
ARC
8
DEFAULT_255_2_778
10
2.0886955
20
5.7156469
40
1.332757
50
206.6265579
51
210.4719313
0
ARC
8
DEFAULT_255_2_778
10
1.6200359
20
5.4386846
40
0.7883783
50
210.3961501
51
215.8035743
0
ARC
8
DEFAULT_255_2_778
10
1.3215087
20
5.2218822
40
0.4194351
50
215.640768
51
223.94152
0
ARC
8
DEFAULT_255_2_778
10
1.2038842
20
5.1112841
40
0.2580007
50
224.3826704
51
228.2376627
0
ARC
8
DEFAULT_255_2_778
10
2.1527927
20
6.1752331
40
1.6836285
50
228.2659425
51
236.7656768
0
ARC
8
DEFAULT_255_2_778
10
2.0161164
20
5.9655916
40
1.4333694
50
236.7426487
51
244.429439
0
ARC
8
DEFAULT_255_2_778
10
1.8617549
20
5.639535
40
1.0726237
50
244.3498043
51
251.3158494
0
ARC
8
DEFAULT_255_2_778
10
1.6867082
20
5.1113906
40
0.5162477
50
250.9418219
51
258.6899107
0
ARC
8
DEFAULT_255_2_778
10
1.6034592
20
4.6941059
40
0.09074
50
258.5604221
51
267.7171741
0
ARC
8
DEFAULT_255_2_778
10
7.633185
20
7.1205856
40
6.5373716
50
202.6462076
51
204.9625152
0
ARC
8
DEFAULT_255_2_778
10
7.7784254
20
7.1864568
40
6.6968437
50
204.9490197
51
205.2618121
0
ARC
8
DEFAULT_255_2_778
10
7.4103062
20
7.0086907
40
6.2880671
50
205.2283803
51
207.7977219
0
ARC
8
DEFAULT_255_2_778
10
5.8788
20
6.2000053
40
4.5561659
50
207.7833547
51
209.9449658
0
ARC
8
DEFAULT_255_2_778
10
4.0938044
20
5.1664583
40
2.4935484
50
209.840157
51
213.0427346
0
ARC
8
DEFAULT_255_2_778
10
2.8825872
20
4.3790039
40
1.0488577
50
213.0612451
51
216.709706
0
ARC
8
DEFAULT_255_2_778
10
2.9138228
20
4.330569
40
1.0465268
50
213.5600529
51
213.7915152
0
ARC
8
DEFAULT_255_2_778
10
6.8960255
20
7.1454783
40
5.9228892
50
214.9968014
51
216.461431
0
ARC
8
DEFAULT_255_2_778
10
1.7458117
20
3.3393501
40
0.4811186
50
19.4604583
51
36.5124793
0
ARC
8
DEFAULT_255_2_778
10
22.5941698
20
17.4497055
40
24.7092937
50
214.3722732
51
215.4505666
0
LINE
8
DEFAULT_255_2_778
10
2.4655781
20
3.1183068
11
2.4661144
21
3.1175567
0
ARC
8
DEFAULT_255_2_778
10
8.6388107
20
7.3893623
40
7.5066973
50
214.6851157
51
225.012682
0
ARC
8
DEFAULT_255_2_778
10
6.6685121
20
5.5252566
40
4.7959779
50
225.9169578
51
227.0046017
0
ARC
8
DEFAULT_255_2_778
10
9.977338
20
9.790259
40
10.1835733
50
229.7533745
51
231.4572697
0
ARC
8
DEFAULT_255_2_778
10
9.2700778
20
8.9025659
40
9.0485771
50
231.4576439
51
233.4691763
0
ARC
8
DEFAULT_255_2_778
10
8.8672624
20
8.3602877
40
8.3730589
50
233.4752193
51
235.5672583
0
ARC
8
DEFAULT_255_2_778
10
9.1819147
20
8.8690073
40
8.9706066
50
235.7469098
51
243.4083979
0
ARC
8
DEFAULT_255_2_778
10
11.398957
20
13.1444132
40
13.786341
50
243.1227489
51
244.3227213
0
ARC
8
DEFAULT_255_2_778
10
13.1708938
20
16.8245969
40
17.8708859
50
244.3152631
51
245.1131134
0
ARC
8
DEFAULT_255_2_778
10
15.5722564
20
21.997091
40
23.5736252
50
245.1091239
51
245.6663626
0
ARC
8
DEFAULT_255_2_778
10
17.5966487
20
26.4584832
40
28.4728245
50
245.6538166
51
245.7211328
0
ARC
8
DEFAULT_255_2_778
10
11.045055
20
12.7680932
40
13.3038298
50
247.1982772
51
248.8517016
0
ARC
8
DEFAULT_255_2_778
10
9.7165102
20
9.3253337
40
9.6136249
50
248.8336872
51
251.339126
0
ARC
8
DEFAULT_255_2_778
10
8.9518442
20
7.0512529
40
7.2144284
50
251.3140142
51
255.3292323
0
ARC
8
DEFAULT_255_2_778
10
8.7105429
20
6.1602668
40
6.2913827
50
255.4000769
51
257.1477719
0
ARC
8
DEFAULT_255_2_778
10
8.6598954
20
5.9459097
40
6.0711302
50
257.1637931
51
264.6945131
0
ARC
8
DEFAULT_255_2_778
10
8.7696107
20
7.0929085
40
7.2233607
50
264.6692341
51
268.0518365
0
ARC
8
DEFAULT_255_2_778
10
8.8056263
20
7.9033972
40
8.0346097
50
267.9916362
51
268.0929183
0
ARC
8
DEFAULT_255_2_778
10
8.5379832
20
-5.8122929
40
5.6855307
50
88.1590347
51
89.9973636
0
ARC
8
DEFAULT_255_2_778
10
8.5128439
20
-6.555963
40
6.4296246
50
86.9490599
51
88.1480232
0
ARC
8
DEFAULT_255_2_778
10
8.3262234
20
-10.0043997
40
9.8831065
50
86.2315661
51
86.9327281
0
ARC
8
DEFAULT_255_2_778
10
10.4295514
20
21.142567
40
21.3348173
50
266.0927987
51
266.5503747
0
ARC
8
DEFAULT_255_2_778
10
9.3087428
20
2.4962534
40
2.654851
50
266.4815585
51
269.7043749
0
ARC
8
DEFAULT_255_2_778
10
9.3056692
20
10.8138834
40
10.9724508
50
269.944522
51
271.6069329
0
ARC
8
DEFAULT_255_2_778
10
9.4065441
20
7.3783587
40
7.5354499
50
271.5727611
51
274.6795389
0
ARC
8
DEFAULT_255_2_778
10
9.5020667
20
6.1264686
40
6.2799438
50
274.7427493
51
276.9139291
0
ARC
8
DEFAULT_255_2_778
10
9.5021627
20
6.092374
40
6.2460868
50
276.950704
51
281.2615773
0
ARC
8
DEFAULT_255_2_778
10
9.2460024
20
7.3848737
40
7.5637257
50
281.252622
51
283.6966982
0
ARC
8
DEFAULT_255_2_778
10
8.7119679
20
9.5808078
40
9.8236635
50
283.690224
51
285.4704349
0
ARC
8
DEFAULT_255_2_778
10
8.2202958
20
11.389273
40
11.6977569
50
285.4286354
51
285.6528456
0
ARC
8
DEFAULT_255_2_778
10
9.5178737
20
7.0084553
40
7.1296279
50
285.1105794
51
288.3380977
0
ARC
8
DEFAULT_255_2_778
10
9.2175638
20
7.9290167
40
8.0979258
50
288.3057537
51
290.0787712
0
ARC
8
DEFAULT_255_2_778
10
8.7144172
20
9.2419296
40
9.503803
50
290.2103646
51
299.2941426
0
ARC
8
DEFAULT_255_2_778
10
9.1459966
20
8.4833712
40
8.6310824
50
299.259416
51
302.4226696
0
ARC
8
DEFAULT_255_2_778
10
13.1050419
20
2.2960852
40
1.2858448
50
301.3303521
51
305.4528133
0
ARC
8
DEFAULT_255_2_778
10
12.1496058
20
3.6472083
40
2.9406498
50
305.347542
51
307.9142312
0
ARC
8
DEFAULT_255_2_778
10
10.4511999
20
5.8353521
40
5.7105855
50
307.8676038
51
309.627469
0
ARC
8
DEFAULT_255_2_778
10
7.9098282
20
8.9102359
40
9.6997548
50
309.6052789
51
310.9368136
0
ARC
8
DEFAULT_255_2_778
10
4.3774543
20
12.9812719
40
15.0896528
50
310.9406885
51
312.3152811
0
ARC
8
DEFAULT_255_2_778
10
2.4197204
20
15.1493028
40
18.0107761
50
312.2774561
51
312.4472872
0
ARC
8
DEFAULT_255_2_778
10
1.8621389
20
15.7577525
40
18.8360684
50
312.4496867
51
312.9901633
0
ARC
8
DEFAULT_255_2_778
10
1.8381951
20
15.7857375
40
18.8728654
50
312.985403
51
313.7745469
0
ARC
8
DEFAULT_255_2_778
10
3.3666664
20
14.1914351
40
16.6642404
50
313.7721901
51
314.4109815
0
ARC
8
DEFAULT_255_2_778
10
5.9155909
20
11.5933888
40
13.024618
50
314.3991854
51
315.2492578
0
ARC
8
DEFAULT_255_2_778
10
8.8306295
20
8.7044669
40
8.9205566
50
315.2453192
51
316.168362
0
ARC
8
DEFAULT_255_2_778
10
11.3609656
20
6.2783911
40
5.4150699
50
316.1446027
51
317.4557096
0
ARC
8
DEFAULT_255_2_778
10
13.1846821
20
4.5908111
40
2.9303818
50
317.6553148
51
320.5637295
0
ARC
8
DEFAULT_255_2_778
10
11.9933575
20
5.5738783
40
4.4749435
50
320.5317058
51
322.8952304
0
ARC
8
DEFAULT_255_2_778
10
10.7209387
20
6.5389721
40
6.0719571
50
322.8756294
51
324.9470095
0
ARC
8
DEFAULT_255_2_778
10
9.655839
20
7.2889296
40
7.3745965
50
324.929852
51
326.7148482
0
ARC
8
DEFAULT_255_2_778
10
8.9702897
20
7.7404637
40
8.1954861
50
326.7062769
51
328.4242316
0
ARC
8
DEFAULT_255_2_778
10
8.7003961
20
7.9075441
40
8.5129093
50
328.4173616
51
331.1595833
0
ARC
8
DEFAULT_255_2_778
10
9.8465475
20
7.3039932
40
7.2178235
50
330.9676357
51
338.3883559
0
ARC
8
DEFAULT_255_2_778
10
11.5098666
20
6.6170157
40
5.4184727
50
338.6639327
51
340.3265445
0
ARC
8
DEFAULT_255_2_778
10
5.1711138
20
9.087048
40
12.2202759
50
339.4270044
51
341.4019807
0
ARC
8
DEFAULT_255_2_778
10
6.5529404
20
8.6222829
40
10.7623832
50
341.4008817
51
343.5182785
0
ARC
8
DEFAULT_255_2_778
10
7.6781107
20
8.2884604
40
9.5887372
50
343.5235631
51
345.4595264
0
ARC
8
DEFAULT_255_2_778
10
8.6848996
20
8.0287551
40
8.5489927
50
345.4502693
51
347.983102
0
ARC
8
DEFAULT_255_2_778
10
9.6115158
20
7.8313164
40
7.6015755
50
347.9845376
51
350.5998002
0
ARC
8
DEFAULT_255_2_778
10
10.3805927
20
7.7043045
40
6.8220811
50
350.5972257
51
353.5720326
0
ARC
8
DEFAULT_255_2_778
10
10.9781856
20
7.6365446
40
6.220659
50
353.5760025
51
356.6420366
0
ARC
8
DEFAULT_255_2_778
10
11.344921
20
7.6143284
40
5.8532522
50
356.6488577
51
359.7901884
0
ARC
8
DEFAULT_255_2_778
10
11.4658241
20
7.6130972
40
5.7323455
50
359.7980701
51
0.0008004
0
ARC
8
DEFAULT_255_2_778
10
11.4053461
20
7.6129559
40
5.7928235
50
0.0021889
51
2.1760131
0
ARC
8
DEFAULT_255_2_778
10
11.1689762
20
7.6035334
40
6.0293809
50
2.1802029
51
3.9195361
0
ARC
8
DEFAULT_255_2_778
10
10.5039762
20
7.5567792
40
6.6960215
50
3.9297049
51
5.5738352
0
ARC
8
DEFAULT_255_2_778
10
8.9543818
20
7.4057337
40
8.2529599
50
5.5725976
51
6.6121617
0
ARC
8
DEFAULT_255_2_778
10
5.0404974
20
6.9507024
40
12.1932064
50
6.6184049
51
7.2805045
0
ARC
8
DEFAULT_255_2_778
10
-7.2472451
20
5.3899584
40
24.5796708
50
7.259457
51
7.4321699
0
ARC
8
DEFAULT_255_2_778
10
-216.8008408
20
-21.9502436
40
235.9092621
50
7.4332031
51
7.4506035
0
LINE
8
DEFAULT_255_2_778
10
16.8636448
20
9.3021378
11
16.8319448
21
9.3021378
0
LINE
8
DEFAULT_255_2_778
10
12.4774448
20
1.9859378
11
12.6350448
21
2.1121378
0
LINE
8
DEFAULT_255_2_778
10
17.1166448
20
8.6404378
11
17.1160448
21
8.6399378
0
ENDSEC
0
EOF