0
SECTION
2
HEADER
9
$MEASUREMENT
70
1
0
ENDSEC
0
SECTION
2
TABLES
0
TABLE
2
LTYPE
0
LTYPE
72
65
70
64
2
CONTINUOUS
3
______
73
0
40
0
0
ENDTAB
0
TABLE
2
LAYER
0
LAYER
2
DEFAULT_255_2_778
70
0
62
255
6
CONTINUOUS
0
ENDTAB
0
ENDSEC
0
SECTION
2
ENTITIES
0
ARC
8
DEFAULT_255_2_778
10
26.0388306
20
6.9406979
40
0.3822857
50
179.9528738
51
270.0471337
0
ARC
8
DEFAULT_255_2_778
10
26.0388306
20
6.9413268
40
0.3822856
50
89.9528663
51
180.0471412
0
ARC
8
DEFAULT_255_2_778
10
26.0395088
20
6.9414759
40
0.3821366
50
359.9304977
51
90.054525
0
ARC
8
DEFAULT_255_2_778
10
26.0380977
20
6.9419594
40
0.3835486
50
270.1564711
51
359.8585244
0
ARC
8
DEFAULT_255_2_778
10
22.2392585
20
0.4032257
40
0.3824134
50
179.972042
51
270.027958
0
ARC
8
DEFAULT_255_2_778
10
22.2393223
20
0.4035352
40
0.3824772
50
89.9816031
51
180.0184074
0
ARC
8
DEFAULT_255_2_778
10
22.2398434
20
0.4041101
40
0.3819024
50
359.895314
51
90.0597498
0
ARC
8
DEFAULT_255_2_778
10
22.2397153
20
0.4028424
40
0.3820302
50
269.9594748
51
0.0854764
0
ARC
8
DEFAULT_255_2_778
10
26.0433182
20
6.9396391
40
0.7011734
50
90.0386552
51
179.9531615
0
ARC
8
DEFAULT_255_2_778
10
26.0333992
20
6.9583484
40
0.691492
50
181.5028998
51
201.2778418
0
ARC
8
DEFAULT_255_2_778
10
22.2288073
20
0.3976558
40
0.6902863
50
100.8013041
51
179.5221895
0
ARC
8
DEFAULT_255_2_778
10
22.2396332
20
0.4039003
40
0.7010883
50
180.0398776
51
269.9355911
0
ARC
8
DEFAULT_255_2_778
10
22.2378351
20
0.4039218
40
0.7011102
50
270.0825379
51
359.9583672
0
ARC
8
DEFAULT_255_2_778
10
22.2510224
20
0.3786356
40
0.6883688
50
2.0627142
51
20.6782621
0
ARC
8
DEFAULT_255_2_778
10
26.0490658
20
6.9460981
40
0.690407
50
282.4445712
51
359.4866433
0
ARC
8
DEFAULT_255_2_778
10
26.0383567
20
6.9394242
40
0.7010886
50
0.0398903
51
89.935566
0
LINE
8
DEFAULT_255_2_778
10
25.3890451
20
6.7074123
11
22.0994451
21
1.0757123
0
LINE
8
DEFAULT_255_2_778
10
22.8950451
20
0.6217123
11
26.1978451
21
6.2719123
0
ARC
8
DEFAULT_255_2_778
10
23.1728758
20
6.9405375
40
0.382392
50
179.9838083
51
270.031169
0
ARC
8
DEFAULT_255_2_778
10
23.173153
20
6.9408762
40
0.3826692
50
90.0103564
51
180.0345415
0
ARC
8
DEFAULT_255_2_778
10
23.1735459
20
6.9417071
40
0.3818387
50
359.8857197
51
90.0693366
0
ARC
8
DEFAULT_255_2_778
10
23.1733542
20
6.9403755
40
0.3820301
50
269.9594568
51
0.0854945
0
ARC
8
DEFAULT_255_2_778
10
19.3707814
20
0.404743
40
0.3836991
50
180.1638836
51
269.8361089
0
ARC
8
DEFAULT_255_2_778
10
19.3693692
20
0.4039601
40
0.3822855
50
89.9528407
51
180.0471518
0
ARC
8
DEFAULT_255_2_778
10
19.3699983
20
0.4039601
40
0.3822856
50
359.952861
51
90.0471284
0
ARC
8
DEFAULT_255_2_778
10
19.3701898
20
0.4031396
40
0.3820944
50
269.9241347
51
0.0758728
0
ARC
8
DEFAULT_255_2_778
10
23.173872
20
6.9399576
40
0.7010883
50
90.064413
51
179.9601265
0
ARC
8
DEFAULT_255_2_778
10
23.1674846
20
6.9588899
40
0.6949455
50
181.5208517
51
201.2030945
0
ARC
8
DEFAULT_255_2_778
10
19.3630929
20
0.3970419
40
0.6906361
50
100.7997254
51
179.4936264
0
ARC
8
DEFAULT_255_2_778
10
19.3736793
20
0.4039409
40
0.7011959
50
180.0649893
51
269.9350066
0
ARC
8
DEFAULT_255_2_778
10
19.3723743
20
0.4038553
40
0.7011099
50
270.0416445
51
359.941997
0
ARC
8
DEFAULT_255_2_778
10
19.3861718
20
0.3783803
40
0.6877581
50
2.0635891
51
20.6875376
0
ARC
8
DEFAULT_255_2_778
10
23.1831934
20
6.9458206
40
0.6905181
50
282.4519861
51
359.4876162
0
ARC
8
DEFAULT_255_2_778
10
23.1726596
20
6.9389212
40
0.7010247
50
0.0591984
51
89.9408016
0
ARC
8
DEFAULT_255_2_778
10
17.9386154
20
5.003477
40
0.3835697
50
0.1446707
51
89.8553368
0
ARC
8
DEFAULT_255_2_778
10
17.9385509
20
5.0054785
40
0.3836343
50
270.1542667
51
359.8457333
0
ARC
8
DEFAULT_255_2_778
10
17.939348
20
5.0041097
40
0.3822642
50
179.9496632
51
270.0353594
0
ARC
8
DEFAULT_255_2_778
10
17.939348
20
5.0047814
40
0.3822642
50
89.9646406
51
180.0503368
0
ARC
8
DEFAULT_255_2_778
10
17.9391106
20
5.0050189
40
0.7011735
50
270.0386737
51
359.9531505
0
ARC
8
DEFAULT_255_2_778
10
17.9589628
20
4.979245
40
0.681787
50
2.1182767
51
20.9252967
0
ARC
8
DEFAULT_255_2_778
10
17.9354167
20
5.0111057
40
0.6934524
50
17.7700399
51
89.6556876
0
ARC
8
DEFAULT_255_2_778
10
17.950866
20
5.37429
40
0.3304482
50
91.9565765
51
107.6292246
0
ARC
8
DEFAULT_255_2_778
10
19.4245588
20
-0.0219761
40
5.9240617
50
105.4060212
51
105.471048
0
ARC
8
DEFAULT_255_2_778
10
17.6464107
20
6.3755542
40
0.7160159
50
282.401577
51
286.0445873
0
ARC
8
DEFAULT_255_2_778
10
17.9292225
20
4.9984566
40
0.6899629
50
100.7790749
51
179.5192737
0
ARC
8
DEFAULT_255_2_778
10
17.9403294
20
5.004891
40
0.7010459
50
180.0527541
51
269.9390665
0
ARC
8
DEFAULT_255_2_778
10
17.9394544
20
2.557775
40
0.3823705
50
89.9805994
51
180.0194037
0
ARC
8
DEFAULT_255_2_778
10
17.9397919
20
2.5577536
40
0.382392
50
359.9838061
51
90.0311712
0
ARC
8
DEFAULT_255_2_778
10
17.9399411
20
2.5574882
40
0.3822428
50
269.9464595
51
0.023582
0
ARC
8
DEFAULT_255_2_778
10
17.9394972
20
2.5576589
40
0.3824134
50
180.0020068
51
270.0129819
0
ARC
8
DEFAULT_255_2_778
10
17.960666
20
2.5326808
40
0.6800763
50
2.1037301
51
20.9501214
0
ARC
8
DEFAULT_255_2_778
10
17.9357598
20
2.5648166
40
0.6929394
50
17.7305958
51
89.6838068
0
ARC
8
DEFAULT_255_2_778
10
17.9511576
20
2.9256644
40
0.3322827
50
91.9960715
51
107.5814608
0
ARC
8
DEFAULT_255_2_778
10
19.7462841
20
-3.6784589
40
7.1757613
50
105.3166092
51
105.3604729
0
ARC
8
DEFAULT_255_2_778
10
17.6560699
20
3.9023507
40
0.6879687
50
282.0917354
51
285.9818229
0
ARC
8
DEFAULT_255_2_778
10
17.9295458
20
2.5515894
40
0.6902859
50
100.8012875
51
179.5222209
0
ARC
8
DEFAULT_255_2_778
10
17.9403722
20
2.5578335
40
0.7010885
50
180.0398804
51
269.9355759
0
ARC
8
DEFAULT_255_2_778
10
17.9391106
20
2.5579189
40
0.7011735
50
270.0386749
51
359.9531476
0
ARC
8
DEFAULT_255_2_778
10
3.201672
20
1.7559446
40
2.9206283
50
179.6998316
51
184.6754033
0
ARC
8
DEFAULT_255_2_778
10
1.7287425
20
1.6291519
40
1.4422787
50
184.4246767
51
195.3894503
0
ARC
8
DEFAULT_255_2_778
10
1.3300513
20
1.529379
40
1.0314501
50
195.9232062
51
221.1993602
0
ARC
8
DEFAULT_255_2_778
10
1.6115791
20
1.7481584
40
1.38754
50
220.3395041
51
220.9985849
0
ARC
8
DEFAULT_255_2_778
10
1.7998
20
1.9163962
40
1.6399698
50
221.1206147
51
225.8956588
0
ARC
8
DEFAULT_255_2_778
10
2.2233772
20
2.3510324
40
2.2468671
50
225.853148
51
229.0091176
0
ARC
8
DEFAULT_255_2_778
10
2.6628575
20
2.8526188
40
2.9137449
50
228.9557138
51
230.5202839
0
ARC
8
DEFAULT_255_2_778
10
3.2025789
20
2.1583432
40
2.7256
50
230.4754717
51
233.6624887
0
ARC
8
DEFAULT_255_2_778
10
2.640013
20
1.391229
40
1.7743159
50
233.6180314
51
238.4356906
0
ARC
8
DEFAULT_255_2_778
10
2.3444247
20
0.9071396
40
1.2071197
50
238.3624917
51
246.4469195
0
ARC
8
DEFAULT_255_2_778
10
2.2715296
20
0.7486707
40
1.0327298
50
246.6410072
51
249.1166285
0
ARC
8
DEFAULT_255_2_778
10
2.3123933
20
0.8940761
40
1.1832286
50
249.777757
51
266.537339
0
ARC
8
DEFAULT_255_2_778
10
2.4636587
20
2.665534
40
2.9609156
50
265.6859438
51
269.0679844
0
ARC
8
DEFAULT_255_2_778
10
2.5894622
20
9.7645142
40
10.0610082
50
269.009244
51
270.1606384
0
LINE
8
DEFAULT_255_2_778
10
2.6176699
20
-0.2964545
11
2.6178839
21
-0.2964545
0
ARC
8
DEFAULT_255_2_778
10
4.0286575
20
1.544991
40
1.8414457
50
269.9759281
51
271.5520429
0
ARC
8
DEFAULT_255_2_778
10
4.0906006
20
0.5415559
40
0.8374219
50
269.1743155
51
294.4116762
0
ARC
8
DEFAULT_255_2_778
10
4.2799339
20
0.096755
40
0.354321
50
296.2594742
51
347.066281
0
ARC
8
DEFAULT_255_2_778
10
4.09804
20
0.1434223
40
0.5420662
50
346.561972
51
0.5203882
0
ARC
8
DEFAULT_255_2_778
10
4.1512635
20
0.1558893
40
0.4888786
50
359.1158529
51
18.9803409
0
ARC
8
DEFAULT_255_2_778
10
4.232052
20
0.1603346
40
0.4116288
50
22.0541177
51
81.1925989
0
ARC
8
DEFAULT_255_2_778
10
4.0882635
20
-0.3088453
40
0.9000385
50
76.7156511
51
83.0619227
0
ARC
8
DEFAULT_255_2_778
10
4.0367172
20
-0.7603332
40
1.354451
50
83.2044527
51
89.9453524
0
ARC
8
DEFAULT_255_2_778
10
4.0278975
20
-1.218728
40
1.8128735
50
89.680423
51
90.000432
0
ARC
8
DEFAULT_255_2_778
10
2.4899511
20
1.3102473
40
0.7166754
50
235.077216
51
267.7075394
0
ARC
8
DEFAULT_255_2_778
10
2.8048552
20
1.843772
40
1.3352345
50
230.2125825
51
237.1043256
0
ARC
8
DEFAULT_255_2_778
10
2.7058607
20
2.9165242
40
2.0914863
50
229.3000659
51
231.8075222
0
ARC
8
DEFAULT_255_2_778
10
1.578296
20
1.6627559
40
0.4073864
50
184.7213734
51
234.5487435
0
ARC
8
DEFAULT_255_2_778
10
1.6084426
20
1.6522658
40
0.4367589
50
179.9764237
51
183.0241482
0
ARC
8
DEFAULT_255_2_778
10
1.5548465
20
2.7537368
40
0.3831639
50
128.6399147
51
179.8491613
0
ARC
8
DEFAULT_255_2_778
10
2.0294468
20
2.28803
40
1.0463281
50
131.2889625
51
133.019692
0
ARC
8
DEFAULT_255_2_778
10
2.7176021
20
1.4901959
40
2.0999186
50
128.4194468
51
131.0329635
0
ARC
8
DEFAULT_255_2_778
10
2.6130144
20
2.8229972
40
1.0140067
50
107.2358818
51
130.8043033
0
ARC
8
DEFAULT_255_2_778
10
2.4643345
20
3.2477249
40
0.5645288
50
90.3096196
51
105.5961705
0
ARC
8
DEFAULT_255_2_778
10
4.0324124
20
5.2221064
40
1.409871
50
269.7834547
51
275.7868444
0
ARC
8
DEFAULT_255_2_778
10
4.0601465
20
4.9034008
40
1.0900026
50
276.0255762
51
277.1695405
0
ARC
8
DEFAULT_255_2_778
10
4.1680792
20
4.3510955
40
0.5299207
50
273.0402797
51
317.2960599
0
ARC
8
DEFAULT_255_2_778
10
4.2586527
20
4.2224516
40
0.377568
50
322.3267052
51
351.5793384
0
ARC
8
DEFAULT_255_2_778
10
4.0856504
20
4.2557768
40
0.5536381
50
350.7895266
51
0.2347897
0
ARC
8
DEFAULT_255_2_778
10
4.1436786
20
4.2672497
40
0.4956907
50
358.9360533
51
20.0782756
0
ARC
8
DEFAULT_255_2_778
10
4.227657
20
4.2677054
40
0.4176268
50
23.9778623
51
84.843659
0
ARC
8
DEFAULT_255_2_778
10
4.0545479
20
3.5100119
40
1.1923835
50
79.8249074
51
88.8858524
0
ARC
8
DEFAULT_255_2_778
10
4.0278575
20
2.8614
40
1.8414457
50
88.4479571
51
90.0240719
0
ARC
8
DEFAULT_255_2_778
10
2.5919497
20
-6.0113639
40
10.7142409
50
89.8613134
51
90.8771714
0
ARC
8
DEFAULT_255_2_778
10
2.4648563
20
1.7550189
40
2.9468338
50
90.7180584
51
94.6130502
0
ARC
8
DEFAULT_255_2_778
10
2.3081671
20
3.5271252
40
1.1679461
50
93.9430046
51
110.2926739
0
ARC
8
DEFAULT_255_2_778
10
2.3089627
20
3.5689007
40
1.1291421
50
111.0657455
51
120.3086792
0
ARC
8
DEFAULT_255_2_778
10
2.5627286
20
3.1310542
40
1.6352094
50
120.242737
51
125.6437405
0
ARC
8
DEFAULT_255_2_778
10
3.0801245
20
2.405655
40
2.5262197
50
125.5925572
51
129.102226
0
ARC
8
DEFAULT_255_2_778
10
3.5609194
20
1.8025753
40
3.2974709
50
128.9761025
51
129.3916838
0
ARC
8
DEFAULT_255_2_778
10
2.5422904
20
1.7052327
40
2.7210334
50
129.5332044
51
132.3822935
0
ARC
8
DEFAULT_255_2_778
10
2.0190855
20
2.2774903
40
1.9456487
50
132.3608412
51
136.2798938
0
ARC
8
DEFAULT_255_2_778
10
1.7198385
20
2.5661648
40
1.5298633
50
136.3477507
51
139.1403703
0
ARC
8
DEFAULT_255_2_778
10
1.3678163
20
2.8544147
40
1.0751186
50
138.4854916
51
156.8625536
0
ARC
8
DEFAULT_255_2_778
10
1.4772317
20
2.8288196
40
1.18595
50
157.8026084
51
173.1785728
0
ARC
8
DEFAULT_255_2_778
10
2.5575652
20
2.6846182
40
2.275812
50
172.8043623
51
178.9663413
0
ARC
8
DEFAULT_255_2_778
10
4.0659931
20
2.6369438
40
3.7849098
50
178.6566943
51
180.031764
0
LINE
8
DEFAULT_255_2_778
10
22.5195839
20
6.7075455
11
19.2336839
21
1.0754455
0
LINE
8
DEFAULT_255_2_778
10
20.0295839
20
0.6213455
11
23.3320839
21
6.2715455
0
LINE
8
DEFAULT_255_2_778
10
0.8102839
20
0.6036455
11
1.4679839
21
0.0559455
0
LINE
8
DEFAULT_255_2_778
10
2.6178839
20
-0.2964545
11
4.0278839
21
-0.2964545
0
LINE
8
DEFAULT_255_2_778
10
4.0278839
20
0.5941455
11
2.4612839
21
0.5941455
0
LINE
8
DEFAULT_255_2_778
10
1.9503839
20
0.8177455
11
1.4126839
21
1.2727455
0
LINE
8
DEFAULT_255_2_778
10
1.1716839
20
1.6524455
11
1.1716839
21
2.7547455
0
LINE
8
DEFAULT_255_2_778
10
1.4126839
20
3.1354455
11
1.9503839
21
3.5905455
0
LINE
8
DEFAULT_255_2_778
10
2.4612839
20
3.8122455
11
4.0270839
21
3.8122455
0
LINE
8
DEFAULT_255_2_778
10
4.0270839
20
4.7028455
11
2.6178839
21
4.7028455
0
LINE
8
DEFAULT_255_2_778
10
1.4682839
20
4.3509455
11
0.8102839
21
3.8038455
0
LINE
8
DEFAULT_255_2_778
10
0.2810839
20
2.6348455
11
0.2810839
21
1.7712455
0
ARC
8
DEFAULT_255_2_778
10
8.4565218
20
4.1279333
40
1.0068974
50
357.8423685
51
19.1922737
0
ARC
8
DEFAULT_255_2_778
10
9.069946
20
4.3384048
40
0.3583884
50
19.6531954
51
78.0391417
0
ARC
8
DEFAULT_255_2_778
10
9.0226858
20
4.1417278
40
0.5606164
50
77.4796659
51
90.4783513
0
ARC
8
DEFAULT_255_2_778
10
9.0079834
20
4.2004257
40
0.5019992
50
88.8560743
51
110.4369934
0
ARC
8
DEFAULT_255_2_778
10
9.0039078
20
4.2931518
40
0.4146711
50
114.386133
51
175.1777224
0
ARC
8
DEFAULT_255_2_778
10
9.8987035
20
4.1060681
40
1.3266951
50
170.3696943
51
180.6928773
0
ARC
8
DEFAULT_255_2_778
10
6.9917598
20
1.0842086
40
0.489814
50
269.9883011
51
303.8512761
0
ARC
8
DEFAULT_255_2_778
10
6.991661
20
1.0839601
40
0.4895656
50
269.361483
51
269.9998545
0
ARC
8
DEFAULT_255_2_778
10
6.6898801
20
1.8241491
40
1.2297244
50
266.8823814
51
270.0011752
0
ARC
8
DEFAULT_255_2_778
10
6.6555209
20
1.4996898
40
0.9040301
50
248.2161938
51
267.9384695
0
ARC
8
DEFAULT_255_2_778
10
6.4282785
20
0.9488053
40
0.308223
50
213.2464228
51
249.4392628
0
ARC
8
DEFAULT_255_2_778
10
6.6392297
20
1.0286988
40
0.5306984
50
190.6193921
51
207.966531
0
ARC
8
DEFAULT_255_2_778
10
7.9437447
20
1.2841181
40
1.8599711
50
182.7613045
51
190.9472606
0
ARC
8
DEFAULT_255_2_778
10
15.5887655
20
1.7665025
40
9.5200313
50
182.5513905
51
183.4445581
0
ARC
8
DEFAULT_255_2_778
10
-19.2946877
20
0.1327087
40
25.4016947
50
2.7303077
51
2.7569785
0
ARC
8
DEFAULT_255_2_778
10
3.4444987
20
4.0078829
40
2.5416344
50
1.8520382
51
3.8142721
0
ARC
8
DEFAULT_255_2_778
10
5.1553933
20
4.1588067
40
0.8253094
50
1.2602681
51
25.7141795
0
ARC
8
DEFAULT_255_2_778
10
5.6004497
20
4.3583673
40
0.3380031
50
27.9699459
51
76.590166
0
ARC
8
DEFAULT_255_2_778
10
5.553711
20
4.1795713
40
0.5227793
50
76.1518724
51
90.5705387
0
ARC
8
DEFAULT_255_2_778
10
5.53919
20
4.1815952
40
0.5208129
50
88.9751459
51
108.8945841
0
ARC
8
DEFAULT_255_2_778
10
5.5210863
20
4.302601
40
0.4010719
50
112.0471421
51
174.3660478
0
ARC
8
DEFAULT_255_2_778
10
6.340403
20
4.1228068
40
1.2380057
50
169.8029822
51
180.727256
0
ARC
8
DEFAULT_255_2_778
10
7.1516097
20
4.1072342
40
2.0491129
50
180.0039433
51
180.5844481
0
ARC
8
DEFAULT_255_2_778
10
7.4884403
20
4.1114627
40
2.3859692
50
180.6034789
51
181.843074
0
ARC
8
DEFAULT_255_2_778
10
-30.4386483
20
-0.0777162
40
35.6593919
50
1.969403
51
2.1082782
0
ARC
8
DEFAULT_255_2_778
10
9.1532124
20
1.2136099
40
3.9540807
50
180.954413
51
187.027822
0
ARC
8
DEFAULT_255_2_778
10
6.2920309
20
0.8469284
40
1.0696216
50
186.2855152
51
218.1384923
0
ARC
8
DEFAULT_255_2_778
10
6.3850632
20
0.9421553
40
1.2017287
50
218.9702365
51
229.5314967
0
ARC
8
DEFAULT_255_2_778
10
6.6196362
20
1.2205125
40
1.5657389
50
229.6122844
51
240.5847
0
ARC
8
DEFAULT_255_2_778
10
6.4443541
20
0.9095924
40
1.2088143
50
240.5838024
51
255.9048565
0
ARC
8
DEFAULT_255_2_778
10
6.4274656
20
0.864493
40
1.1609724
50
256.1712006
51
270.1549521
0
ARC
8
DEFAULT_255_2_778
10
7.070089
20
0.6895597
40
0.986205
50
271.0641866
51
293.6780983
0
ARC
8
DEFAULT_255_2_778
10
6.6220989
20
1.7764398
40
2.1616583
50
292.9833198
51
301.5177373
0
ARC
8
DEFAULT_255_2_778
10
5.7130427
20
3.3246591
40
3.9568517
50
301.0196115
51
302.831076
0
ARC
8
DEFAULT_255_2_778
10
10.6296197
20
0.3251049
40
2.0482144
50
179.9938486
51
180.7524243
0
ARC
8
DEFAULT_255_2_778
10
9.5283432
20
0.2744566
40
0.9470593
50
178.5629283
51
201.1435642
0
ARC
8
DEFAULT_255_2_778
10
8.9773463
20
0.067143
40
0.358417
50
202.0053561
51
258.0630123
0
ARC
8
DEFAULT_255_2_778
10
9.0218245
20
0.2523794
40
0.5488721
50
257.5198813
51
270.45731
0
ARC
8
DEFAULT_255_2_778
10
9.0324187
20
0.2693277
40
0.5658371
50
269.3708337
51
284.155585
0
ARC
8
DEFAULT_255_2_778
10
9.0844428
20
0.0680831
40
0.3579824
50
283.9588911
51
309.7533847
0
ARC
8
DEFAULT_255_2_778
10
9.0039777
20
0.1190346
40
0.4495648
50
313.4875925
51
355.0367636
0
ARC
8
DEFAULT_255_2_778
10
8.3181912
20
0.2386174
40
1.1446889
50
352.0420655
51
359.182237
0
ARC
8
DEFAULT_255_2_778
10
7.3833617
20
0.2647287
40
2.079835
50
358.830539
51
0.0442346
0
ARC
8
DEFAULT_255_2_778
10
5.6138789
20
0.2634382
40
3.8493182
50
0.0431087
51
0.6121421
0
ARC
8
DEFAULT_255_2_778
10
-3.1619121
20
0.17835
40
12.6255204
50
0.5727766
51
0.6277057
0
ARC
8
DEFAULT_255_2_778
10
15.7026707
20
0.3915063
40
6.2402688
50
180.3740716
51
180.6871675
0
ARC
8
DEFAULT_255_2_778
10
11.4680475
20
0.3617049
40
2.0055423
50
180.0108583
51
180.3125321
0
ARC
8
DEFAULT_255_2_778
10
10.9321723
20
0.2776313
40
1.0063807
50
177.8421192
51
199.1985281
0
ARC
8
DEFAULT_255_2_778
10
10.3192977
20
0.0673023
40
0.3584377
50
199.6633165
51
258.0464482
0
ARC
8
DEFAULT_255_2_778
10
10.3666239
20
0.2642174
40
0.5609121
50
257.4830749
51
270.4782045
0
ARC
8
DEFAULT_255_2_778
10
10.3813311
20
0.2051598
40
0.5019351
50
268.8554795
51
290.4380765
0
ARC
8
DEFAULT_255_2_778
10
10.3854201
20
0.1123941
40
0.4145662
50
294.3886327
51
355.1853808
0
ARC
8
DEFAULT_255_2_778
10
9.4901227
20
0.2994721
40
1.3270797
50
350.3755626
51
0.6930796
0
ARC
8
DEFAULT_255_2_778
10
13.4599469
20
1.924759
40
2.1820734
50
125.8565199
51
129.9222984
0
ARC
8
DEFAULT_255_2_778
10
12.7180499
20
2.9446386
40
0.9209115
50
120.1189094
51
125.6141705
0
ARC
8
DEFAULT_255_2_778
10
12.506169
20
3.3304363
40
0.4809916
50
90.2100842
51
121.3480551
0
ARC
8
DEFAULT_255_2_778
10
12.8288966
20
2.5206956
40
1.2923244
50
77.2637293
51
92.8471219
0
ARC
8
DEFAULT_255_2_778
10
13.0315156
20
3.456565
40
0.3349246
50
36.0203226
51
75.7766637
0
ARC
8
DEFAULT_255_2_778
10
12.9117332
20
3.3694027
40
0.4830632
50
23.7008016
51
36.0270727
0
ARC
8
DEFAULT_255_2_778
10
12.959446
20
3.3923828
40
0.4301416
50
19.2389255
51
23.4526239
0
ARC
8
DEFAULT_255_2_778
10
12.6547997
20
3.3235411
40
0.7413032
50
356.8715975
51
16.5028531
0
ARC
8
DEFAULT_255_2_778
10
-2.7927256
20
3.267665
40
16.187731
50
359.9881773
51
0.0545795
0
ARC
8
DEFAULT_255_2_778
10
14.0739331
20
3.2441115
40
0.6792286
50
178.2946751
51
209.2246585
0
ARC
8
DEFAULT_255_2_778
10
13.8188119
20
3.1122086
40
0.3922953
50
210.6043861
51
261.8943456
0
ARC
8
DEFAULT_255_2_778
10
13.8483249
20
3.2566373
40
0.5395152
50
260.954035
51
270.178464
0
ARC
8
DEFAULT_255_2_778
10
13.8597993
20
3.2057665
40
0.4887399
50
268.8517591
51
290.4136995
0
ARC
8
DEFAULT_255_2_778
10
13.8628659
20
3.1164224
40
0.4049263
50
294.4197445
51
354.9373391
0
ARC
8
DEFAULT_255_2_778
10
12.9502905
20
3.3106462
40
1.3358635
50
350.0876844
51
0.049826
0
ARC
8
DEFAULT_255_2_778
10
11.9161279
20
3.3386517
40
2.3701775
50
359.3510762
51
0.0066027
0
ARC
8
DEFAULT_255_2_778
10
12.5844884
20
3.3593537
40
1.7019395
50
359.3122447
51
12.4665819
0
ARC
8
DEFAULT_255_2_778
10
13.068113
20
3.4543154
40
1.2092749
50
13.019869
51
40.4533904
0
ARC
8
DEFAULT_255_2_778
10
12.7229697
20
3.1828542
40
1.6481295
50
39.8493535
51
45.0524819
0
ARC
8
DEFAULT_255_2_778
10
13.0553936
20
3.5384765
40
1.1617023
50
44.2653961
51
88.7945869
0
ARC
8
DEFAULT_255_2_778
10
13.0164799
20
3.1607611
40
1.5404637
50
87.6430209
51
90.0139329
0
ARC
8
DEFAULT_255_2_778
10
12.3331676
20
3.7931913
40
0.9086462
50
92.1041739
51
122.3730046
0
ARC
8
DEFAULT_255_2_778
10
13.2172817
20
2.2854619
40
2.6561157
50
121.066178
51
129.9509698
0
LINE
8
DEFAULT_255_2_778
10
10.8163053
20
4.1080248
11
10.8163052
21
4.108624
0
ARC
8
DEFAULT_255_2_778
10
9.9730165
20
4.1389294
40
0.8438331
50
357.941839
51
24.4236429
0
ARC
8
DEFAULT_255_2_778
10
10.4080339
20
4.3275996
40
0.369821
50
25.676253
51
80.3524539
0
ARC
8
DEFAULT_255_2_778
10
10.3731328
20
4.1658382
40
0.5351931
50
79.5710859
51
90.2812901
0
ARC
8
DEFAULT_255_2_778
10
10.3606996
20
4.1750529
40
0.5260633
50
88.9319592
51
108.6281438
0
ARC
8
DEFAULT_255_2_778
10
10.3387773
20
4.3094095
40
0.3923683
50
111.8633102
51
174.67986
0
ARC
8
DEFAULT_255_2_778
10
11.4331216
20
4.0870577
40
1.507393
50
170.11668
51
180.5914719
0
ARC
8
DEFAULT_255_2_778
10
13.6416588
20
4.0437707
40
3.7159533
50
179.5724878
51
180.0084169
0
ARC
8
DEFAULT_255_2_778
10
14.146607
20
5.9315795
40
1.7709607
50
359.5193999
51
6.258822
0
ARC
8
DEFAULT_255_2_778
10
15.2269434
20
6.0570634
40
0.6834186
50
5.6754999
51
20.9740688
0
ARC
8
DEFAULT_255_2_778
10
15.5492903
20
6.1751119
40
0.3402136
50
21.8423733
51
82.5522863
0
ARC
8
DEFAULT_255_2_778
10
15.3590177
20
5.3675477
40
1.1686503
50
78.4309385
51
87.9172342
0
ARC
8
DEFAULT_255_2_778
10
15.2678444
20
3.6657126
40
2.8728238
50
87.3335995
51
90.1623265
0
ARC
8
DEFAULT_255_2_778
10
14.322759
20
4.6680448
40
1.8704801
50
89.9802028
51
91.377701
0
ARC
8
DEFAULT_255_2_778
10
14.2633326
20
5.6844463
40
0.8536602
50
89.029814
51
113.7897573
0
ARC
8
DEFAULT_255_2_778
10
14.0715994
20
6.1454041
40
0.3546832
50
115.4861741
51
167.1415879
0
ARC
8
DEFAULT_255_2_778
10
14.2548511
20
6.0986393
40
0.5437679
50
166.6346876
51
180.5178421
0
ARC
8
DEFAULT_255_2_778
10
14.1998858
20
6.0861781
40
0.4888387
50
179.1154342
51
198.9855381
0
ARC
8
DEFAULT_255_2_778
10
14.1191921
20
6.0817973
40
0.4117037
50
202.0639552
51
261.2084155
0
ARC
8
DEFAULT_255_2_778
10
14.263052
20
6.5515799
40
0.9007074
50
256.7276134
51
263.071817
0
ARC
8
DEFAULT_255_2_778
10
14.3145761
20
7.0034229
40
1.3554705
50
263.2136655
51
269.9454297
0
ARC
8
DEFAULT_255_2_778
10
14.3233917
20
7.4589777
40
1.8110529
50
269.6802597
51
270.0004323
0
ARC
8
DEFAULT_255_2_778
10
14.3227513
20
-1.2753128
40
1.8691377
50
89.9799521
51
91.378454
0
ARC
8
DEFAULT_255_2_778
10
14.2632731
20
-0.2587641
40
0.8521718
50
89.0241185
51
113.8295151
0
ARC
8
DEFAULT_255_2_778
10
14.0721317
20
0.2003977
40
0.3550886
50
115.5501639
51
166.9099537
0
ARC
8
DEFAULT_255_2_778
10
14.2556974
20
0.1530981
40
0.5446155
50
166.4369292
51
180.5337356
0
LINE
8
DEFAULT_255_2_778
10
13.7111053
20
0.1480248
11
13.7111052
21
0.1476932
0
ARC
8
DEFAULT_255_2_778
10
14.1963803
20
0.1401967
40
0.485333
50
179.1149748
51
199.047533
0
ARC
8
DEFAULT_255_2_778
10
14.1185853
20
0.1371118
40
0.4114049
50
202.1788109
51
261.2523418
0
ARC
8
DEFAULT_255_2_778
10
14.2628588
20
0.6088473
40
0.9023805
50
256.7490102
51
263.0766034
0
ARC
8
DEFAULT_255_2_778
10
14.314316
20
1.0603996
40
1.3568471
50
263.218029
51
269.9437837
0
ARC
8
DEFAULT_255_2_778
10
14.3230917
20
1.5147223
40
1.8111974
50
269.680272
51
270.000432
0
ARC
8
DEFAULT_255_2_778
10
16.5904704
20
1.1285951
40
1.4250808
50
269.7802738
51
275.7158759
0
ARC
8
DEFAULT_255_2_778
10
16.6186232
20
0.8009929
40
1.0963134
50
275.9570624
51
277.0935483
0
ARC
8
DEFAULT_255_2_778
10
16.7262263
20
0.2440481
40
0.5317034
50
272.9949384
51
316.8118034
0
ARC
8
DEFAULT_255_2_778
10
16.818868
20
0.1120711
40
0.3752709
50
321.8294215
51
351.4030804
0
ARC
8
DEFAULT_255_2_778
10
16.6454461
20
0.1459735
40
0.5518643
50
350.6142136
51
0.2441157
0
ARC
8
DEFAULT_255_2_778
10
16.6990632
20
0.1576886
40
0.4983301
50
358.9233253
51
20.1172579
0
ARC
8
DEFAULT_255_2_778
10
16.7854451
20
0.159072
40
0.4177099
50
24.0173688
51
84.9453158
0
ARC
8
DEFAULT_255_2_778
10
16.6113199
20
-0.6127714
40
1.2065097
50
79.9315199
51
89.0832414
0
ARC
8
DEFAULT_255_2_778
10
16.5856593
20
-1.2750128
40
1.8691378
50
88.621546
51
90.0200479
0
LINE
8
DEFAULT_255_2_778
10
8.5721053
20
4.0900248
11
8.5721053
21
1.5027248
0
LINE
8
DEFAULT_255_2_778
10
8.5721053
20
1.5027248
11
7.2646053
21
0.6774248
0
LINE
8
DEFAULT_255_2_778
10
6.9862053
20
0.5944248
11
6.6899053
21
0.5944248
0
LINE
8
DEFAULT_255_2_778
10
6.0776053
20
1.3545248
11
5.9848053
21
4.0900248
0
LINE
8
DEFAULT_255_2_778
10
5.1037053
20
4.0347248
11
5.1966053
21
1.2341248
0
LINE
8
DEFAULT_255_2_778
10
6.4306053
20
-0.2964752
11
7.0884053
21
-0.2964752
0
LINE
8
DEFAULT_255_2_778
10
7.8583053
20
-0.0001752
11
8.5814053
21
0.4735248
0
LINE
8
DEFAULT_255_2_778
10
8.5814053
20
0.4735248
11
8.5814053
21
0.3253248
0
LINE
8
DEFAULT_255_2_778
10
9.4625053
20
0.3613248
11
9.4627053
21
4.0900248
0
LINE
8
DEFAULT_255_2_778
10
10.8171053
20
0.3155248
11
10.8171053
21
2.5690248
0
LINE
8
DEFAULT_255_2_778
10
10.8171053
20
2.5690248
11
12.0596053
21
3.5982248
0
LINE
8
DEFAULT_255_2_778
10
12.5044053
20
3.8114248
11
12.7647053
21
3.8114248
0
LINE
8
DEFAULT_255_2_778
10
13.0161053
20
4.7012248
11
12.2998053
21
4.7012248
0
LINE
8
DEFAULT_255_2_778
10
11.5117053
20
4.3216248
11
10.8163053
21
3.7453248
0
LINE
8
DEFAULT_255_2_778
10
10.8163053
20
3.7453248
11
10.8163053
21
4.1080248
0
LINE
8
DEFAULT_255_2_778
10
9.9257053
20
4.0432248
11
9.9265053
21
0.3155248
0
LINE
8
DEFAULT_255_2_778
10
15.2597053
20
6.5385248
11
14.3234053
21
6.5385248
0
LINE
8
DEFAULT_255_2_778
10
14.3234053
20
5.6479248
11
15.0282053
21
5.6479248
0
LINE
8
DEFAULT_255_2_778
10
15.0282053
20
5.6479248
11
15.0282053
21
0.5938248
0
LINE
8
DEFAULT_255_2_778
10
15.0282053
20
0.5938248
11
14.3234053
21
0.5938248
0
LINE
8
DEFAULT_255_2_778
10
14.3231053
20
-0.2964752
11
16.5850053
21
-0.2964752
0
LINE
8
DEFAULT_255_2_778
10
16.5850053
20
0.5941248
11
15.9175053
21
0.5941248
0
LINE
8
DEFAULT_255_2_778
10
15.9175053
20
0.5941248
11
15.9175053
21
5.9167248
0
ENDSEC
0
EOF