0
SECTION
2
HEADER
9
$MEASUREMENT
70
1
0
ENDSEC
0
SECTION
2
TABLES
0
TABLE
2
LTYPE
0
LTYPE
72
65
70
64
2
CONTINUOUS
3
______
73
0
40
0
0
ENDTAB
0
TABLE
2
LAYER
0
LAYER
2
DEFAULT_255_2_778
70
0
62
255
6
CONTINUOUS
0
ENDTAB
0
ENDSEC
0
SECTION
2
ENTITIES
0
ARC
8
DEFAULT_255_2_778
10
11.8043338
20
10.6434605
40
0.4901645
50
43.3578914
51
44.4186833
0
ARC
8
DEFAULT_255_2_778
10
11.2216543
20
10.0919455
40
1.2924636
50
41.9462857
51
43.4002136
0
ARC
8
DEFAULT_255_2_778
10
10.6968806
20
9.6187728
40
1.9990603
50
40.5679436
51
41.9794217
0
ARC
8
DEFAULT_255_2_778
10
10.2605683
20
9.2450103
40
2.5735748
50
38.9293908
51
40.5716798
0
ARC
8
DEFAULT_255_2_778
10
9.8889935
20
8.9444786
40
3.0514734
50
37.1604716
51
38.9351418
0
ARC
8
DEFAULT_255_2_778
10
9.5835761
20
8.7128526
40
3.4347883
50
35.1047474
51
37.1622465
0
ARC
8
DEFAULT_255_2_778
10
9.3372206
20
8.539523
40
3.7360095
50
32.7206882
51
35.1067242
0
ARC
8
DEFAULT_255_2_778
10
9.1549333
20
8.4221974
40
3.9527905
50
29.9951548
51
32.7232041
0
ARC
8
DEFAULT_255_2_778
10
9.0505217
20
8.361422
40
4.0736011
50
28.0081331
51
30.0013069
0
ARC
8
DEFAULT_255_2_778
10
8.986522
20
8.3275274
40
4.1460221
50
24.7979906
51
28.0063487
0
ARC
8
DEFAULT_255_2_778
10
8.946679
20
8.3089972
40
4.1899632
50
21.1588783
51
24.799503
0
ARC
8
DEFAULT_255_2_778
10
8.9315768
20
8.303089
40
4.2061798
50
17.02938
51
21.1596778
0
ARC
8
DEFAULT_255_2_778
10
8.9214565
20
8.300024
40
4.2167541
50
12.5646577
51
17.0289276
0
ARC
8
DEFAULT_255_2_778
10
8.8940328
20
8.2940528
40
4.2448199
50
8.0219283
51
12.5628013
0
ARC
8
DEFAULT_255_2_778
10
8.8289377
20
8.2851573
40
4.3105194
50
3.1825676
51
8.0182633
0
ARC
8
DEFAULT_255_2_778
10
8.7331769
20
8.2795303
40
4.406445
50
359.9940581
51
3.1864934
0
ARC
8
DEFAULT_255_2_778
10
8.6388464
20
8.2793906
40
4.5007756
50
357.5545666
51
359.9959612
0
ARC
8
DEFAULT_255_2_778
10
8.53392
20
8.2839453
40
4.6058008
50
355.0141021
51
357.5536512
0
ARC
8
DEFAULT_255_2_778
10
8.4071319
20
8.2950263
40
4.7330721
50
352.5780098
51
355.0138615
0
ARC
8
DEFAULT_255_2_778
10
8.2595644
20
8.3143078
40
4.881894
50
350.1387974
51
352.5773326
0
ARC
8
DEFAULT_255_2_778
10
11.5056285
20
11.4120436
40
4.2332134
50
291.6779413
51
298.4026745
0
ARC
8
DEFAULT_255_2_778
10
11.875264
20
10.730017
40
3.4574622
50
298.3906643
51
306.5092715
0
ARC
8
DEFAULT_255_2_778
10
12.1965348
20
10.2966576
40
2.9180039
50
306.5014884
51
316.7773681
0
ARC
8
DEFAULT_255_2_778
10
12.3953976
20
10.1068806
40
2.6431279
50
316.8229315
51
330.0993088
0
ARC
8
DEFAULT_255_2_778
10
12.2352796
20
10.1839008
40
2.8203573
50
330.3644321
51
347.7448481
0
ARC
8
DEFAULT_255_2_778
10
11.7936152
20
10.2972891
40
3.2760699
50
347.4465801
51
350.1335068
0
ARC
8
DEFAULT_255_2_778
10
16.481428
20
9.3391306
40
1.5131493
50
164.5014734
51
164.7975337
0
ARC
8
DEFAULT_255_2_778
10
19.102804
20
8.6125077
40
4.2333686
50
164.0155948
51
164.5050782
0
ARC
8
DEFAULT_255_2_778
10
21.5879605
20
7.9014063
40
6.8182607
50
163.4042232
51
164.0218455
0
ARC
8
DEFAULT_255_2_778
10
23.3398778
20
7.3804033
40
8.6460074
50
162.7651369
51
163.411372
0
ARC
8
DEFAULT_255_2_778
10
24.2980208
20
7.0838943
40
9.6489805
50
162.1439514
51
162.7692479
0
ARC
8
DEFAULT_255_2_778
10
24.783075
20
6.927816
40
10.1585274
50
161.2266397
51
162.144913
0
ARC
8
DEFAULT_255_2_778
10
24.7671561
20
6.9339495
40
10.1414815
50
160.0847381
51
161.2305045
0
ARC
8
DEFAULT_255_2_778
10
24.1219989
20
7.1697539
40
9.4545845
50
158.2899853
51
160.0965118
0
ARC
8
DEFAULT_255_2_778
10
22.676742
20
7.7509149
40
7.8968677
50
155.305224
51
158.3286155
0
ARC
8
DEFAULT_255_2_778
10
20.2223324
20
8.9055357
40
5.1845943
50
148.2562349
51
155.5661735
0
ARC
8
DEFAULT_255_2_778
10
18.4134202
20
10.0088185
40
3.0658471
50
142.3396114
51
148.0045902
0
ARC
8
DEFAULT_255_2_778
10
17.6043574
20
10.634252
40
2.0432285
50
135.375824
51
142.3620706
0
ARC
8
DEFAULT_255_2_778
10
15.3757221
20
16.9794258
40
4.9705973
50
276.9774693
51
278.9630787
0
ARC
8
DEFAULT_255_2_778
10
15.3984215
20
16.7986603
40
4.788413
50
275.040664
51
276.9706245
0
ARC
8
DEFAULT_255_2_778
10
15.3853338
20
16.9576162
40
4.9479044
50
273.1501715
51
275.0299036
0
ARC
8
DEFAULT_255_2_778
10
15.3380994
20
17.8541986
40
5.845728
50
271.4595009
51
273.12952
0
ARC
8
DEFAULT_255_2_778
10
15.2348013
20
22.2737838
40
10.2665145
50
270.2913425
51
271.4075781
0
ARC
8
DEFAULT_255_2_778
10
14.9639008
20
60.6003668
40
48.594039
50
270.3048842
51
270.3809655
0
ARC
8
DEFAULT_255_2_778
10
15.281856
20
-3.9463987
40
15.953525
50
90.2132455
51
90.844597
0
ARC
8
DEFAULT_255_2_778
10
15.0832029
20
7.9150269
40
4.0905291
50
90.5113901
51
96.3851576
0
ARC
8
DEFAULT_255_2_778
10
14.9993984
20
8.8251495
40
3.1767829
50
96.7085677
51
101.4113686
0
ARC
8
DEFAULT_255_2_778
10
15.0776186
20
8.4470076
40
3.5629263
50
101.4412449
51
105.428581
0
ARC
8
DEFAULT_255_2_778
10
15.3016262
20
7.6367991
40
4.4035315
50
105.4336491
51
108.8330476
0
ARC
8
DEFAULT_255_2_778
10
15.708848
20
6.4395577
40
5.6681326
50
108.8223021
51
111.5312335
0
ARC
8
DEFAULT_255_2_778
10
16.3377093
20
4.8427831
40
7.3842779
50
111.5230728
51
113.7504972
0
ARC
8
DEFAULT_255_2_778
10
17.2145405
20
2.8447743
40
9.5662191
50
113.7376998
51
115.4581556
0
ARC
8
DEFAULT_255_2_778
10
18.3450352
20
0.4667199
40
12.1993086
50
115.4511672
51
116.8543782
0
ARC
8
DEFAULT_255_2_778
10
19.8498949
20
-2.5061142
40
15.5313267
50
116.8531607
51
118.1104159
0
ARC
8
DEFAULT_255_2_778
10
21.7062255
20
-5.9875872
40
19.4767812
50
118.1015516
51
119.0367328
0
ARC
8
DEFAULT_255_2_778
10
23.0948634
20
-8.5005276
40
22.3478709
50
119.0223541
51
119.3096331
0
ARC
8
DEFAULT_255_2_778
10
12.6797517
20
6.9411479
40
0.2700728
50
169.045576
51
169.4654526
0
ARC
8
DEFAULT_255_2_778
10
12.762256
20
6.9252041
40
0.3541034
50
168.71329
51
169.0496109
0
ARC
8
DEFAULT_255_2_778
10
12.8173556
20
6.914231
40
0.410285
50
168.4132248
51
168.7165128
0
ARC
8
DEFAULT_255_2_778
10
12.948072
20
6.8875165
40
0.5437032
50
168.1840635
51
168.4221303
0
ARC
8
DEFAULT_255_2_778
10
13.0591912
20
6.8642059
40
0.6572411
50
167.9745159
51
168.1785747
0
ARC
8
DEFAULT_255_2_778
10
13.2119456
20
6.8316369
40
0.8134289
50
167.8049934
51
167.9725185
0
ARC
8
DEFAULT_255_2_778
10
13.3571889
20
6.800161
40
0.9620436
50
167.6612924
51
167.7999589
0
ARC
8
DEFAULT_255_2_778
10
13.4979044
20
6.7693461
40
1.1060936
50
167.5359271
51
167.6595553
0
ARC
8
DEFAULT_255_2_778
10
13.9023895
20
6.6797764
40
1.5203772
50
167.4441557
51
167.5299097
0
ARC
8
DEFAULT_255_2_778
10
13.7978239
20
6.7030546
40
1.413252
50
167.3496968
51
167.4437449
0
ARC
8
DEFAULT_255_2_778
10
13.9955925
20
6.6589138
40
1.6158865
50
167.2745604
51
167.3582791
0
ARC
8
DEFAULT_255_2_778
10
14.3389749
20
6.5815191
40
1.9678827
50
167.2190627
51
167.278821
0
ARC
8
DEFAULT_255_2_778
10
14.7077264
20
6.4978741
40
2.346002
50
167.1683918
51
167.2191654
0
ARC
8
DEFAULT_255_2_778
10
14.6008127
20
6.5224184
40
2.2363074
50
167.1192891
51
167.1731892
0
ARC
8
DEFAULT_255_2_778
10
15.3169799
20
6.3590927
40
2.9708622
50
167.0866307
51
167.1276518
0
ARC
8
DEFAULT_255_2_778
10
17.464721
20
5.8663147
40
5.1744099
50
167.0590374
51
167.0828295
0
ARC
8
DEFAULT_255_2_778
10
16.159782
20
6.1659887
40
3.8355036
50
167.0240328
51
167.0564319
0
ARC
8
DEFAULT_255_2_778
10
15.7870179
20
6.2524109
40
3.4528528
50
166.9962626
51
167.0325632
0
ARC
8
DEFAULT_255_2_778
10
15.4843997
20
6.3230646
40
3.1420971
50
166.9696991
51
167.0099063
0
ARC
8
DEFAULT_255_2_778
10
43.8302163
20
-0.2363434
40
32.2369618
50
166.9666713
51
166.9706187
0
ARC
8
DEFAULT_255_2_778
10
22.1532099
20
4.7795774
40
9.9871965
50
166.9432608
51
166.9560867
0
ARC
8
DEFAULT_255_2_778
10
19.7675665
20
5.3328896
40
7.5382277
50
166.9265661
51
166.9436611
0
ARC
8
DEFAULT_255_2_778
10
-16.5287839
20
13.7789603
40
29.7278591
50
346.8939292
51
346.972381
0
ARC
8
DEFAULT_255_2_778
10
5.5303977
20
8.673361
40
7.0855398
50
346.9852577
51
347.4267864
0
ARC
8
DEFAULT_255_2_778
10
6.983683
20
8.3486897
40
5.5964298
50
347.4321509
51
348.1868615
0
ARC
8
DEFAULT_255_2_778
10
7.3298155
20
8.2758882
40
5.2427244
50
348.191223
51
348.9644803
0
ARC
8
DEFAULT_255_2_778
10
7.4377824
20
8.2547598
40
5.1327096
50
348.9652731
51
349.8437201
0
ARC
8
DEFAULT_255_2_778
10
7.4962414
20
8.2443254
40
5.0733265
50
349.8432977
51
351.1968796
0
ARC
8
DEFAULT_255_2_778
10
7.5526697
20
8.2356424
40
5.0162341
50
351.1962502
51
352.7965818
0
ARC
8
DEFAULT_255_2_778
10
7.6322899
20
8.2256081
40
4.9359841
50
352.796249
51
354.3742782
0
ARC
8
DEFAULT_255_2_778
10
7.7428663
20
8.2148676
40
4.8248873
50
354.3724849
51
356.3195924
0
ARC
8
DEFAULT_255_2_778
10
7.9094225
20
8.2044961
40
4.658009
50
356.3153941
51
358.8998384
0
ARC
8
DEFAULT_255_2_778
10
8.0535452
20
8.201086
40
4.5138472
50
358.907992
51
359.9980901
0
ARC
8
DEFAULT_255_2_778
10
8.2388649
20
8.2023593
40
4.3285279
50
359.9811534
51
3.5689349
0
ARC
8
DEFAULT_255_2_778
10
8.5411766
20
8.2218775
40
4.0255876
50
3.5595178
51
8.112391
0
ARC
8
DEFAULT_255_2_778
10
8.857312
20
8.2674388
40
3.7061863
50
8.1047571
51
13.6428925
0
ARC
8
DEFAULT_255_2_778
10
9.1317738
20
8.3340061
40
3.4237675
50
13.6436971
51
19.8993828
0
ARC
8
DEFAULT_255_2_778
10
9.2410382
20
8.3712545
40
3.3083496
50
19.936893
51
20.3784469
0
ARC
8
DEFAULT_255_2_778
10
9.3128632
20
8.3988435
40
3.231413
50
20.3633513
51
25.2790072
0
ARC
8
DEFAULT_255_2_778
10
9.3920002
20
8.4358728
40
3.1440418
50
25.284662
51
30.2651708
0
ARC
8
DEFAULT_255_2_778
10
9.4166045
20
8.4498537
40
3.1157446
50
30.2711516
51
34.8147673
0
ARC
8
DEFAULT_255_2_778
10
9.4118049
20
8.4465641
40
3.1215633
50
34.8140443
51
35.4742948
0
ARC
8
DEFAULT_255_2_778
10
7.8182259
20
6.5284058
40
5.5690988
50
42.0452112
51
46.6403292
0
ARC
8
DEFAULT_255_2_778
10
7.6508505
20
6.3509871
40
5.8130084
50
46.6415097
51
50.8250088
0
ARC
8
DEFAULT_255_2_778
10
7.4598121
20
6.1162827
40
6.1156334
50
50.8265434
51
54.8098289
0
ARC
8
DEFAULT_255_2_778
10
7.2739768
20
5.8538093
40
6.4372337
50
54.8043877
51
57.928547
0
ARC
8
DEFAULT_255_2_778
10
7.1624988
20
5.678316
40
6.6451366
50
57.9174914
51
58.9069761
0
ARC
8
DEFAULT_255_2_778
10
6.9948005
20
5.3926009
40
6.9764084
50
58.9393877
51
63.8263386
0
ARC
8
DEFAULT_255_2_778
10
6.7741731
20
4.9475335
40
7.4731566
50
63.8133955
51
67.5497959
0
ARC
8
DEFAULT_255_2_778
10
6.6379995
20
4.6202032
40
7.8276812
50
67.543557
51
70.7874384
0
ARC
8
DEFAULT_255_2_778
10
6.5831755
20
4.4655562
40
7.9917561
50
70.7811273
51
73.3969697
0
ARC
8
DEFAULT_255_2_778
10
6.6016506
20
4.5294469
40
7.9252503
50
73.3929849
51
75.5053146
0
ARC
8
DEFAULT_255_2_778
10
6.6802047
20
4.8354596
40
7.6093163
50
75.5012623
51
77.4032822
0
ARC
8
DEFAULT_255_2_778
10
6.802056
20
5.3808724
40
7.0504577
50
77.4030432
51
78.8585953
0
ARC
8
DEFAULT_255_2_778
10
6.9592422
20
6.1830191
40
6.2330556
50
78.8514634
51
80.306868
0
ARC
8
DEFAULT_255_2_778
10
7.1334871
20
7.200299
40
5.2009612
50
80.3121188
51
81.3287264
0
ARC
8
DEFAULT_255_2_778
10
7.3158961
20
8.4023164
40
3.9851825
50
81.3158094
51
82.3879089
0
ARC
8
DEFAULT_255_2_778
10
7.5087808
20
9.8465148
40
2.5281604
50
82.3851529
51
83.2221017
0
ARC
8
DEFAULT_255_2_778
10
7.6871089
20
11.3529198
40
1.0112374
50
83.1821281
51
83.8963565
0
ARC
8
DEFAULT_255_2_778
10
3.941161
20
10.3755499
40
4.3337079
50
25.2363214
51
27.2289302
0
ARC
8
DEFAULT_255_2_778
10
3.9399736
20
10.3750401
40
4.3349993
50
24.5802037
51
25.2357248
0
ARC
8
DEFAULT_255_2_778
10
3.0361507
20
10.003587
40
5.3115669
50
14.7875767
51
24.1684817
0
ARC
8
DEFAULT_255_2_778
10
-2.5745317
20
8.4248222
40
11.1397746
50
13.650361
51
15.2732453
0
ARC
8
DEFAULT_255_2_778
10
-9.1557833
20
6.8035473
40
17.9177605
50
13.3723465
51
13.7217626
0
ARC
8
DEFAULT_255_2_778
10
-13.2330803
20
5.8299518
40
22.1096843
50
13.374172
51
13.3832523
0
ARC
8
DEFAULT_255_2_778
10
-13.1915919
20
5.8397103
40
22.0670637
50
13.3653525
51
13.3744389
0
ARC
8
DEFAULT_255_2_778
10
-12.4034176
20
6.028175
40
21.2566709
50
13.3480751
51
13.3622091
0
ARC
8
DEFAULT_255_2_778
10
-12.3491595
20
6.041407
40
21.2008237
50
13.3329891
51
13.3471339
0
ARC
8
DEFAULT_255_2_778
10
-12.2886289
20
6.0545075
40
21.1389036
50
13.3221135
51
13.3362732
0
ARC
8
DEFAULT_255_2_778
10
-12.2347622
20
6.0676489
40
21.0834581
50
13.3069226
51
13.321093
0
ARC
8
DEFAULT_255_2_778
10
-43.423444
20
-1.3059646
40
53.1319221
50
13.2981016
51
13.3037141
0
ARC
8
DEFAULT_255_2_778
10
-12.1211382
20
6.093712
40
20.9668859
50
13.2806608
51
13.2948567
0
ARC
8
DEFAULT_255_2_778
10
-12.0613758
20
6.1066348
40
20.9057531
50
13.2696058
51
13.2838166
0
ARC
8
DEFAULT_255_2_778
10
-12.0082789
20
6.1195989
40
20.851098
50
13.2542014
51
13.2684229
0
ARC
8
DEFAULT_255_2_778
10
-11.948894
20
6.1324348
40
20.7903523
50
13.2430552
51
13.2572916
0
ARC
8
DEFAULT_255_2_778
10
-11.8896965
20
6.1452278
40
20.7297984
50
13.2318671
51
13.2461185
0
ARC
8
DEFAULT_255_2_778
10
-11.8338144
20
6.1576204
40
20.6725633
50
13.2196191
51
13.2338832
0
ARC
8
DEFAULT_255_2_778
10
-11.7749854
20
6.1703292
40
20.6123869
50
13.2083455
51
13.2226246
0
ARC
8
DEFAULT_255_2_778
10
-11.7163407
20
6.182996
40
20.5523993
50
13.1970293
51
13.2113234
0
ARC
8
DEFAULT_255_2_778
10
-11.6578791
20
6.1956211
40
20.4925994
50
13.1856703
51
13.1999793
0
ARC
8
DEFAULT_255_2_778
10
-11.6027169
20
6.2078495
40
20.436102
50
13.1732463
51
13.1875681
0
ARC
8
DEFAULT_255_2_778
10
-42.6290137
20
-1.0546792
40
52.3010581
50
13.1683638
51
13.1739495
0
ARC
8
DEFAULT_255_2_778
10
-11.4802196
20
6.2328122
40
20.3111393
50
13.1546929
51
13.1690491
0
ARC
8
DEFAULT_255_2_778
10
-11.4255854
20
6.2449208
40
20.255183
50
13.1421423
51
13.1565113
0
ARC
8
DEFAULT_255_2_778
10
-42.3764323
20
-0.9821414
40
52.0385962
50
13.1371738
51
13.1427563
0
ARC
8
DEFAULT_255_2_778
10
-11.3072594
20
6.269291
40
20.1344151
50
13.1223381
51
13.1367394
0
ARC
8
DEFAULT_255_2_778
10
-42.2009312
20
-0.933107
40
51.8565445
50
13.1173136
51
13.1228948
0
ARC
8
DEFAULT_255_2_778
10
-42.0989287
20
-0.9068276
40
51.7512397
50
13.1090248
51
13.1146069
0
ARC
8
DEFAULT_255_2_778
10
-11.1262972
20
6.3056888
40
19.9499143
50
13.0950853
51
13.1095387
0
ARC
8
DEFAULT_255_2_778
10
-41.9266909
20
-0.8584876
40
51.5725276
50
13.0889478
51
13.0945284
0
ARC
8
DEFAULT_255_2_778
10
-71.3519477
20
-7.6951068
40
81.781551
50
13.0821123
51
13.0856249
0
ARC
8
DEFAULT_255_2_778
10
-41.7116469
20
-0.8042637
40
51.3507913
50
13.0731778
51
13.0787616
0
ARC
8
DEFAULT_255_2_778
10
-41.6121216
20
-0.7785234
40
51.2480232
50
13.06473
51
13.0703145
0
ARC
8
DEFAULT_255_2_778
10
-71.0004305
20
-7.5933512
40
81.4161282
50
13.0578086
51
13.0613172
0
ARC
8
DEFAULT_255_2_778
10
-41.3999419
20
-0.7249292
40
51.0292209
50
13.0487798
51
13.0543674
0
ARC
8
DEFAULT_255_2_778
10
-41.3018592
20
-0.6995032
40
50.9279302
50
13.0402392
51
13.0458275
0
ARC
8
DEFAULT_255_2_778
10
-41.2042592
20
-0.6741817
40
50.8271337
50
13.0316669
51
13.0372558
0
ARC
8
DEFAULT_255_2_778
10
-41.1071434
20
-0.6489646
40
50.726833
50
13.0230628
51
13.0286522
0
ARC
8
DEFAULT_255_2_778
10
-13.6656654
20
5.6967366
40
22.5612046
50
13.0137324
51
13.0262763
0
ARC
8
DEFAULT_255_2_778
10
-70.2529634
20
-7.384104
40
80.6407249
50
13.0118543
51
13.0153573
0
ARC
8
DEFAULT_255_2_778
10
-70.1532248
20
-7.3535692
40
80.5366726
50
13.003164
51
13.0066649
0
ARC
8
DEFAULT_255_2_778
10
-13.4548799
20
5.738934
40
22.3463302
50
12.9921668
51
13.0047606
0
ARC
8
DEFAULT_255_2_778
10
-40.5226867
20
-0.5090917
40
50.1258908
50
12.9897125
51
12.9953164
0
ARC
8
DEFAULT_255_2_778
10
-10.2207407
20
6.4796821
40
19.028449
50
12.9786489
51
12.9933834
0
ARC
8
DEFAULT_255_2_778
10
-69.5617535
20
-7.199941
40
79.9258044
50
12.9772158
51
12.9807171
0
ARC
8
DEFAULT_255_2_778
10
-69.3651988
20
-7.1535671
40
79.723856
50
12.9729572
51
12.9764608
0
ARC
8
DEFAULT_255_2_778
10
-69.2706863
20
-7.1241494
40
79.6251519
50
12.9640952
51
12.9675967
0
ARC
8
DEFAULT_255_2_778
10
-69.0754949
20
-7.0780831
40
79.4246014
50
12.959796
51
12.9632997
0
ARC
8
DEFAULT_255_2_778
10
-68.8809525
20
-7.0321647
40
79.2247165
50
12.9554805
51
12.9589865
0
ARC
8
DEFAULT_255_2_778
10
-12.8836627
20
5.8494286
40
21.7648877
50
12.944226
51
12.9569639
0
ARC
8
DEFAULT_255_2_778
10
-39.5651312
20
-0.2848735
40
49.1424409
50
12.9405844
51
12.9462154
0
ARC
8
DEFAULT_255_2_778
10
-39.428219
20
-0.2545207
40
49.0022089
50
12.9362086
51
12.9418452
0
ARC
8
DEFAULT_255_2_778
10
-68.241313
20
-6.8722745
40
78.5655147
50
12.9323497
51
12.9358587
0
ARC
8
DEFAULT_255_2_778
10
-68.0500693
20
-6.8271014
40
78.3690122
50
12.9279416
51
12.9314528
0
ARC
8
DEFAULT_255_2_778
10
-67.8594679
20
-6.782074
40
78.1731683
50
12.9235167
51
12.9270301
0
ARC
8
DEFAULT_255_2_778
10
-38.8990591
20
-0.1364044
40
48.4600366
50
12.9174688
51
12.9231257
0
ARC
8
DEFAULT_255_2_778
10
-67.5102272
20
-6.6978492
40
77.8139374
50
12.9135442
51
12.9170606
0
ARC
8
DEFAULT_255_2_778
10
-67.3215506
20
-6.6532569
40
77.6200673
50
12.9090668
51
12.9125853
0
ARC
8
DEFAULT_255_2_778
10
239.4976199
20
63.6599948
40
237.152798
50
192.9069896
51
192.9083308
0
ARC
8
DEFAULT_255_2_778
10
-38.3175247
20
-0.0098479
40
47.8649268
50
12.9016754
51
12.907358
0
ARC
8
DEFAULT_255_2_778
10
-66.6754679
20
-6.5049247
40
76.9571759
50
12.897689
51
12.9012168
0
ARC
8
DEFAULT_255_2_778
10
-66.489372
20
-6.4609181
40
76.7659523
50
12.8931458
51
12.8966757
0
ARC
8
DEFAULT_255_2_778
10
232.740342
20
62.0253427
40
230.20113
50
192.8910061
51
192.8923769
0
ARC
8
DEFAULT_255_2_778
10
-66.0354044
20
-6.3579625
40
76.3004573
50
12.8861755
51
12.8897124
0
ARC
8
DEFAULT_255_2_778
10
-65.8512357
20
-6.3143932
40
76.1112103
50
12.8815828
51
12.8851219
0
ARC
8
DEFAULT_255_2_778
10
-65.5947841
20
-6.2592822
40
75.8489268
50
12.8806432
51
12.8841878
0
ARC
8
DEFAULT_255_2_778
10
226.7686088
20
60.5860207
40
224.0588059
50
192.8779241
51
192.8793215
0
ARC
8
DEFAULT_255_2_778
10
-65.1161659
20
-6.1521602
40
75.3584723
50
12.8746593
51
12.8782124
0
ARC
8
DEFAULT_255_2_778
10
223.7333829
20
59.8548141
40
220.936959
50
192.871129
51
192.8725403
0
ARC
8
DEFAULT_255_2_778
10
-64.6702421
20
-6.0510332
40
74.9012258
50
12.8675294
51
12.8710896
0
ARC
8
DEFAULT_255_2_778
10
-64.4169576
20
-5.996636
40
74.6421879
50
12.8665542
51
12.8701199
0
ARC
8
DEFAULT_255_2_778
10
230.4501683
20
61.2012127
40
227.7849609
50
192.8286414
51
192.9058783
0
ARC
8
DEFAULT_255_2_778
10
47.7962924
20
19.3519646
40
40.3982007
50
192.9111273
51
193.4040391
0
ARC
8
DEFAULT_255_2_778
10
35.2190343
20
16.3619402
40
27.4704168
50
193.4187246
51
194.0291858
0
ARC
8
DEFAULT_255_2_778
10
31.4366703
20
15.4177117
40
23.5719756
50
194.0312315
51
194.8916434
0
ARC
8
DEFAULT_255_2_778
10
30.1655208
20
15.0815381
40
22.2571257
50
194.8962574
51
195.712546
0
ARC
8
DEFAULT_255_2_778
10
30.0891473
20
15.0608426
40
22.1780014
50
195.7145112
51
196.5906211
0
ARC
8
DEFAULT_255_2_778
10
11.241121
20
9.5545705
40
2.5445704
50
198.9479655
51
207.3887441
0
ARC
8
DEFAULT_255_2_778
10
11.180218
20
9.5246424
40
2.4767269
50
207.4221378
51
217.318292
0
ARC
8
DEFAULT_255_2_778
10
11.2909685
20
9.6136217
40
2.6187502
50
217.3975345
51
228.8530139
0
ARC
8
DEFAULT_255_2_778
10
11.5728194
20
9.9410603
40
3.050777
50
228.9133329
51
239.6085892
0
ARC
8
DEFAULT_255_2_778
10
11.8619471
20
10.4216545
40
3.6116089
50
239.5092194
51
245.458197
0
ARC
8
DEFAULT_255_2_778
10
12.0931702
20
10.9298636
40
4.1699458
50
245.4685591
51
251.4233858
0
ARC
8
DEFAULT_255_2_778
10
12.2595335
20
11.4153887
40
4.6831741
50
251.3864308
51
255.4550668
0
ARC
8
DEFAULT_255_2_778
10
12.3344095
20
11.6985047
40
4.976021
50
255.439237
51
258.5624775
0
ARC
8
DEFAULT_255_2_778
10
12.3452655
20
11.7482005
40
5.0268827
50
258.5535214
51
260.8040921
0
ARC
8
DEFAULT_255_2_778
10
12.3135657
20
11.5485286
40
4.8247111
50
260.7967612
51
262.8595675
0
ARC
8
DEFAULT_255_2_778
10
12.2555226
20
11.0840813
40
4.3566511
50
262.8577445
51
264.4195454
0
ARC
8
DEFAULT_255_2_778
10
12.1817936
20
10.3191064
40
3.5881321
50
264.4034302
51
266.0276913
0
ARC
8
DEFAULT_255_2_778
10
12.1027171
20
9.1683863
40
2.4346985
50
266.0081872
51
267.5409816
0
ARC
8
DEFAULT_255_2_778
10
12.0434546
20
7.7305914
40
0.9956879
50
267.398249
51
269.6246074
0
ARC
8
DEFAULT_255_2_778
10
12.9784109
20
7.3308258
40
1.1142182
50
212.3313888
51
218.66579
0
ARC
8
DEFAULT_255_2_778
10
13.0883573
20
7.4188887
40
1.2550844
50
218.6688904
51
224.9317413
0
ARC
8
DEFAULT_255_2_778
10
13.2008937
20
7.5303811
40
1.4134974
50
224.9094651
51
229.7642995
0
ARC
8
DEFAULT_255_2_778
10
13.3548534
20
7.7160461
40
1.6546823
50
229.8472441
51
237.4300441
0
ARC
8
DEFAULT_255_2_778
10
13.5660915
20
8.045787
40
2.046282
50
237.4158027
51
243.9723228
0
ARC
8
DEFAULT_255_2_778
10
13.7880737
20
8.4989773
40
2.5509179
50
243.958689
51
249.6392861
0
ARC
8
DEFAULT_255_2_778
10
14.0099089
20
9.0944444
40
3.1863638
50
249.6249972
51
254.5142384
0
ARC
8
DEFAULT_255_2_778
10
14.2057922
20
9.7935575
40
3.9123981
50
254.4833424
51
258.1866668
0
ARC
8
DEFAULT_255_2_778
10
14.1533395
20
9.6315807
40
3.28792
50
254.7247326
51
258.5124019
0
ARC
8
DEFAULT_255_2_778
10
13.9872821
20
9.0252847
40
2.6592947
50
250.4264618
51
254.7346017
0
ARC
8
DEFAULT_255_2_778
10
13.8136406
20
8.538003
40
2.1419993
50
245.5825192
51
250.4360847
0
ARC
8
DEFAULT_255_2_778
10
13.6363817
20
8.149004
40
1.7145176
50
239.8721982
51
245.6025421
0
ARC
8
DEFAULT_255_2_778
10
13.5030316
20
7.915252
40
1.4454125
50
236.6373303
51
239.7932488
0
ARC
8
DEFAULT_255_2_778
10
13.3794433
20
7.7310874
40
1.2236329
50
230.1111559
51
236.7283034
0
ARC
8
DEFAULT_255_2_778
10
13.2273337
20
7.5492537
40
0.9865658
50
223.0530673
51
230.1170893
0
ARC
8
DEFAULT_255_2_778
10
13.0878397
20
7.4191144
40
0.7957915
50
215.711524
51
223.0626797
0
ARC
8
DEFAULT_255_2_778
10
12.9800492
20
7.3404272
40
0.6623399
50
211.3206653
51
215.6273106
0
ARC
8
DEFAULT_255_2_778
10
6.4624001
20
8.1767846
40
3.784975
50
17.2854736
51
20.0199037
0
ARC
8
DEFAULT_255_2_778
10
5.3253678
20
7.7640493
40
4.9945994
50
20.003111
51
22.500418
0
ARC
8
DEFAULT_255_2_778
10
4.3720659
20
7.3704355
40
6.0259651
50
22.4893071
51
25.0286069
0
ARC
8
DEFAULT_255_2_778
10
3.826269
20
7.1171353
40
6.6276738
50
25.0165363
51
28.1099285
0
ARC
8
DEFAULT_255_2_778
10
3.8207197
20
7.1151664
40
6.6334963
50
28.1023454
51
29.1675762
0
ARC
8
DEFAULT_255_2_778
10
4.8820418
20
7.7492891
40
5.3978255
50
28.7805352
51
39.6637155
0
ARC
8
DEFAULT_255_2_778
10
6.5781781
20
9.1280359
40
3.2121762
50
40.0426816
51
47.2570645
0
ARC
8
DEFAULT_255_2_778
10
7.0591277
20
9.6322955
40
2.5154433
50
47.506851
51
48.9479496
0
ARC
8
DEFAULT_255_2_778
10
8.5981005
20
11.117207
40
0.4272406
50
72.3401358
51
74.6592261
0
ARC
8
DEFAULT_255_2_778
10
8.3991614
20
10.4851535
40
1.0898616
50
69.5748965
51
72.4547094
0
ARC
8
DEFAULT_255_2_778
10
8.1936202
20
9.9287774
40
1.6829889
50
66.7314931
51
69.6275609
0
ARC
8
DEFAULT_255_2_778
10
7.9886091
20
9.4510263
40
2.202869
50
63.531383
51
66.7417628
0
ARC
8
DEFAULT_255_2_778
10
7.7753614
20
9.0218104
40
2.6821403
50
60.1281459
51
63.5401411
0
ARC
8
DEFAULT_255_2_778
10
7.549699
20
8.628603
40
3.1355004
50
56.4502561
51
60.1310753
0
ARC
8
DEFAULT_255_2_778
10
7.3061935
20
8.2608658
40
3.5765509
50
52.7140163
51
56.4549807
0
ARC
8
DEFAULT_255_2_778
10
7.0333758
20
7.9026767
40
4.0268052
50
48.7536842
51
52.7130063
0
ARC
8
DEFAULT_255_2_778
10
6.7276261
20
7.5531979
40
4.4911521
50
45.0959822
51
48.7603534
0
ARC
8
DEFAULT_255_2_778
10
6.3775619
20
7.2022309
40
4.9868562
50
41.3000017
51
45.0937759
0
ARC
8
DEFAULT_255_2_778
10
5.9605558
20
6.8355489
40
5.5421488
50
37.6975565
51
41.3025892
0
ARC
8
DEFAULT_255_2_778
10
5.4676707
20
6.4547168
40
6.1650202
50
34.1363443
51
37.696974
0
ARC
8
DEFAULT_255_2_778
10
4.9828017
20
6.1233789
40
6.7522838
50
31.8637778
51
34.1546628
0
ARC
8
DEFAULT_255_2_778
10
4.5688248
20
5.8655943
40
7.2399615
50
29.8834576
51
31.8669343
0
ARC
8
DEFAULT_255_2_778
10
4.112195
20
5.6035418
40
7.7664425
50
27.7491928
51
29.8812447
0
ARC
8
DEFAULT_255_2_778
10
3.5854536
20
5.3262917
40
8.3616938
50
25.7226214
51
27.7499663
0
ARC
8
DEFAULT_255_2_778
10
3.0474488
20
5.0665139
40
8.9591329
50
24.0260089
51
25.7260317
0
ARC
8
DEFAULT_255_2_778
10
2.4741946
20
4.8112514
40
9.5866511
50
22.2221161
51
24.0244882
0
ARC
8
DEFAULT_255_2_778
10
1.8372014
20
4.5507605
40
10.2748486
50
20.572618
51
22.2234165
0
ARC
8
DEFAULT_255_2_778
10
1.1359046
20
4.2877929
40
11.0238274
50
18.8552647
51
20.5714011
0
ARC
8
DEFAULT_255_2_778
10
0.3684687
20
4.0253871
40
11.8348849
50
17.299188
51
18.8567447
0
ARC
8
DEFAULT_255_2_778
10
-0.1017532
20
3.8769618
40
12.3279725
50
17.0890206
51
17.3079509
0
ARC
8
DEFAULT_255_2_778
10
12.2627456
20
9.4202202
40
2.0064975
50
241.4219306
51
253.173959
0
ARC
8
DEFAULT_255_2_778
10
12.3176272
20
9.5129214
40
2.1141611
50
228.5285233
51
241.3175635
0
ARC
8
DEFAULT_255_2_778
10
12.5636992
20
9.7878161
40
2.4830973
50
217.2366749
51
228.4747623
0
ARC
8
DEFAULT_255_2_778
10
12.8859865
20
10.041571
40
2.8932418
50
212.5830699
51
217.3754214
0
ARC
8
DEFAULT_255_2_778
10
13.1606041
20
10.2163837
40
3.2187784
50
207.3693312
51
212.5725966
0
ARC
8
DEFAULT_255_2_778
10
13.4037793
20
10.3440317
40
3.4934162
50
203.8067643
51
207.3950106
0
ARC
8
DEFAULT_255_2_778
10
13.5172742
20
10.3948221
40
3.6177556
50
200.8132424
51
203.8171553
0
ARC
8
DEFAULT_255_2_778
10
13.4728369
20
10.3784576
40
3.5704035
50
198.464239
51
200.8211547
0
ARC
8
DEFAULT_255_2_778
10
13.3201636
20
10.3271336
40
3.4093347
50
197.4612734
51
198.45872
0
LINE
8
DEFAULT_255_2_778
10
13.4048311
20
5.9640248
11
13.4985311
21
6.4095248
0
ARC
8
DEFAULT_255_2_778
10
8.9690765
20
10.9794997
40
2.1288252
50
115.2560947
51
151.7994571
0
ARC
8
DEFAULT_255_2_778
10
9.8164059
20
10.4787621
40
3.1124724
50
151.0467812
51
161.25639
0
ARC
8
DEFAULT_255_2_778
10
10.9794129
20
10.0778453
40
4.3426327
50
161.1780061
51
168.2634598
0
ARC
8
DEFAULT_255_2_778
10
12.6453877
20
9.7274052
40
6.0450625
50
168.2233228
51
173.5837686
0
ARC
8
DEFAULT_255_2_778
10
14.8934632
20
9.4691544
40
8.3079183
50
173.5464599
51
177.5433341
0
ARC
8
DEFAULT_255_2_778
10
17.4720497
20
9.3493882
40
10.8892723
50
177.4953048
51
180.048714
0
ARC
8
DEFAULT_255_2_778
10
16.7529901
20
9.3245114
40
10.1702206
50
179.9120102
51
183.497737
0
ARC
8
DEFAULT_255_2_778
10
14.055375
20
9.1566263
40
7.4673887
50
183.4747701
51
188.0550119
0
ARC
8
DEFAULT_255_2_778
10
12.0261687
20
8.865905
40
5.4174668
50
188.0178594
51
194.0787351
0
ARC
8
DEFAULT_255_2_778
10
10.5668871
20
8.4968894
40
3.9122547
50
194.0354781
51
202.0996085
0
ARC
8
DEFAULT_255_2_778
10
9.5703612
20
8.0865537
40
2.8345716
50
201.9929239
51
214.3974863
0
ARC
8
DEFAULT_255_2_778
10
9.0444119
20
7.7225481
40
2.1949551
50
214.3131726
51
243.3760806
0
ARC
8
DEFAULT_255_2_778
10
9.2595009
20
9.1102535
40
4.0341797
50
241.7844172
51
250.9621573
0
ARC
8
DEFAULT_255_2_778
10
8.8313214
20
8.3235805
40
3.1385486
50
226.1452537
51
241.8824424
0
ARC
8
DEFAULT_255_2_778
10
8.7545094
20
8.2150842
40
3.0071591
50
206.0340165
51
225.768365
0
ARC
8
DEFAULT_255_2_778
10
9.4358358
20
8.5582006
40
3.7699607
50
196.7712064
51
206.1748154
0
ARC
8
DEFAULT_255_2_778
10
10.4862031
20
8.8780341
40
4.8679396
50
189.8656987
51
196.8082239
0
ARC
8
DEFAULT_255_2_778
10
11.989649
20
9.1422661
40
6.3944266
50
184.4334438
51
189.8901173
0
ARC
8
DEFAULT_255_2_778
10
13.9474752
20
9.2993474
40
8.3585386
50
180.4358035
51
184.4695639
0
ARC
8
DEFAULT_255_2_778
10
15.2728684
20
9.3234586
40
9.684087
50
179.9983944
51
180.5188081
0
ARC
8
DEFAULT_255_2_778
10
14.2541447
20
9.335918
40
8.6653718
50
176.152894
51
180.0805876
0
ARC
8
DEFAULT_255_2_778
10
12.3073726
20
9.4692594
40
6.7140404
50
171.2241743
51
176.1735777
0
ARC
8
DEFAULT_255_2_778
10
10.7541616
20
9.7131227
40
5.1418087
50
164.4658445
51
171.2691565
0
ARC
8
DEFAULT_255_2_778
10
9.5925589
20
10.0392841
40
3.9352891
50
155.1576545
51
164.5117796
0
ARC
8
DEFAULT_255_2_778
10
8.8387148
20
10.3938673
40
3.1022358
50
139.050622
51
155.2512097
0
ARC
8
DEFAULT_255_2_778
10
8.7708257
20
10.4255842
40
3.0302424
50
119.1855762
51
138.6622765
0
ARC
8
DEFAULT_255_2_778
10
9.1788435
20
9.7139777
40
3.8504837
50
109.5750849
51
119.322624
0
ARC
8
DEFAULT_255_2_778
10
9.4008965
20
9.1381279
40
4.4674779
50
109.0386147
51
109.7839454
0
ARC
8
DEFAULT_255_2_778
10
14.5886442
20
9.5853489
40
3.987341
50
61.9795338
51
71.2431945
0
ARC
8
DEFAULT_255_2_778
10
15.0080175
20
10.3618997
40
3.1048062
50
46.0553582
51
62.0792001
0
ARC
8
DEFAULT_255_2_778
10
15.0726698
20
10.4575193
40
2.9911584
50
26.3404871
51
45.6759696
0
ARC
8
DEFAULT_255_2_778
10
14.3928112
20
10.1115534
40
3.7539453
50
16.9261968
51
26.4685254
0
ARC
8
DEFAULT_255_2_778
10
13.3263505
20
9.7835789
40
4.8696951
50
9.9395419
51
16.964764
0
ARC
8
DEFAULT_255_2_778
10
11.8144622
20
9.5150549
40
6.4052413
50
4.5830995
51
9.9711019
0
ARC
8
DEFAULT_255_2_778
10
9.823619
20
9.3514698
40
8.4027911
50
0.4448604
51
4.6102642
0
ARC
8
DEFAULT_255_2_778
10
8.4343185
20
9.3255
40
9.792263
50
359.9984197
51
0.5336933
0
ARC
8
DEFAULT_255_2_778
10
9.4605107
20
9.3124419
40
8.7660801
50
356.1793435
51
0.0835836
0
ARC
8
DEFAULT_255_2_778
10
11.5016026
20
9.1735773
40
6.720272
50
351.2461647
51
356.2010895
0
ARC
8
DEFAULT_255_2_778
10
13.0855205
20
8.9262583
40
5.1171663
50
344.6395258
51
351.2840367
0
ARC
8
DEFAULT_255_2_778
10
14.2512522
20
8.6025666
40
3.9073348
50
335.4383228
51
344.6884591
0
ARC
8
DEFAULT_255_2_778
10
15.0021635
20
8.2543391
40
3.0796252
50
319.6740168
51
335.523621
0
ARC
8
DEFAULT_255_2_778
10
15.0595979
20
8.232946
40
3.0220665
50
299.8263081
51
319.2785584
0
ARC
8
DEFAULT_255_2_778
10
14.619683
20
8.9795551
40
3.8885928
50
290.4098818
51
299.9780689
0
ARC
8
DEFAULT_255_2_778
10
14.3575213
20
9.6360529
40
4.595332
50
289.2265225
51
290.6188595
0
ARC
8
DEFAULT_255_2_778
10
14.7417342
20
7.7471934
40
2.2323055
50
296.6951152
51
332.3580636
0
ARC
8
DEFAULT_255_2_778
10
13.8648529
20
8.2531346
40
3.2440958
50
331.6273679
51
341.7700515
0
ARC
8
DEFAULT_255_2_778
10
12.6654464
20
8.6541047
40
4.5087421
50
341.6984712
51
348.8319232
0
ARC
8
DEFAULT_255_2_778
10
11.0157483
20
8.9864842
40
6.1915815
50
348.7712283
51
353.8149779
0
ARC
8
DEFAULT_255_2_778
10
8.7880567
20
9.2294466
40
8.4324829
50
353.8045286
51
358.0058675
0
ARC
8
DEFAULT_255_2_778
10
6.3944873
20
9.3267059
40
10.8279959
50
357.9322579
51
0.0318758
0
ARC
8
DEFAULT_255_2_778
10
6.6807939
20
9.3482467
40
10.541699
50
359.9156642
51
3.323273
0
ARC
8
DEFAULT_255_2_778
10
9.4807008
20
9.513261
40
7.7369351
50
3.3052964
51
7.5697972
0
ARC
8
DEFAULT_255_2_778
10
11.5565028
20
9.7917586
40
5.6425365
50
7.5432222
51
12.9987094
0
ARC
8
DEFAULT_255_2_778
10
13.0904284
20
10.1500187
40
4.0673363
50
12.9415834
51
20.4971938
0
ARC
8
DEFAULT_255_2_778
10
14.1732312
20
10.5597101
40
2.909632
50
20.4066574
51
31.5566241
0
ARC
8
DEFAULT_255_2_778
10
14.8640191
20
11.0030334
40
2.0890496
50
31.1109759
51
65.0698302
0
ARC
8
DEFAULT_255_2_778
10
1.3664603
20
3.4214399
40
2.644775
50
269.9989036
51
290.9818673
0
ARC
8
DEFAULT_255_2_778
10
1.3664101
20
3.4225113
40
2.6458464
50
268.6219889
51
269.9999912
0
ARC
8
DEFAULT_255_2_778
10
1.2899791
20
3.0673403
40
2.2899461
50
262.2682832
51
270.3203245
0
ARC
8
DEFAULT_255_2_778
10
1.1618087
20
2.1550073
40
1.3686705
50
249.7834953
51
262.4468139
0
ARC
8
DEFAULT_255_2_778
10
0.9609361
20
1.6330543
40
0.8094987
50
222.088123
51
250.3587279
0
ARC
8
DEFAULT_255_2_778
10
0.9570914
20
1.6046392
40
0.7878172
50
195.0040071
51
220.7417989
0
ARC
8
DEFAULT_255_2_778
10
1.3829548
20
1.7264943
40
1.2307311
50
182.4537553
51
195.3508625
0
ARC
8
DEFAULT_255_2_778
10
1.8320894
20
1.7591577
40
1.6809059
50
179.9652058
51
182.9106735
0
ARC
8
DEFAULT_255_2_778
10
2.1130459
20
1.7587095
40
1.9618626
50
176.8944446
51
179.9570978
0
ARC
8
DEFAULT_255_2_778
10
2.4600231
20
1.7401451
40
2.3093359
50
174.2725904
51
176.9009108
0
ARC
8
DEFAULT_255_2_778
10
2.856281
20
1.7005196
40
2.7075701
50
171.9061904
51
174.2750698
0
ARC
8
DEFAULT_255_2_778
10
3.2461283
20
1.6740611
40
3.0973921
50
166.0465315
51
172.436969
0
ARC
8
DEFAULT_255_2_778
10
1.9080164
20
2.0120247
40
1.7172791
50
155.3308331
51
166.2242587
0
ARC
8
DEFAULT_255_2_778
10
1.193113
20
2.3630485
40
0.9213436
50
110.2164396
51
156.6121104
0
ARC
8
DEFAULT_255_2_778
10
1.3667005
20
1.8961669
40
1.4194494
50
97.4570366
51
110.2791815
0
ARC
8
DEFAULT_255_2_778
10
1.505651
20
0.9011741
40
2.4240757
50
90.0906751
51
97.6613109
0
ARC
8
DEFAULT_255_2_778
10
1.5250182
20
0.0897079
40
3.235622
50
89.9988805
51
90.4108872
0
ARC
8
DEFAULT_255_2_778
10
1.5719037
20
0.5003549
40
2.825363
50
90.0001626
51
90.9495564
0
ARC
8
DEFAULT_255_2_778
10
1.5714706
20
0.4928559
40
2.832862
50
69.7562752
51
89.9914027
0
ARC
8
DEFAULT_255_2_778
10
1.6208635
20
1.6923273
40
0.9293289
50
89.0555623
51
100.9067023
0
ARC
8
DEFAULT_255_2_778
10
1.4998406
20
2.264352
40
0.3449013
50
99.144895
51
161.9191956
0
ARC
8
DEFAULT_255_2_778
10
2.0567241
20
2.0412568
40
0.9443409
50
159.5373761
51
171.0864829
0
ARC
8
DEFAULT_255_2_778
10
3.1149158
20
1.8505051
40
2.0194574
50
170.3916916
51
173.876342
0
ARC
8
DEFAULT_255_2_778
10
4.1600661
20
1.6603988
40
3.0798995
50
172.4338788
51
174.0470053
0
ARC
8
DEFAULT_255_2_778
10
3.0664448
20
1.7733649
40
1.9804603
50
174.0161861
51
176.4603182
0
ARC
8
DEFAULT_255_2_778
10
2.3354614
20
1.8179458
40
1.2481191
50
176.4311702
51
179.8618524
0
ARC
8
DEFAULT_255_2_778
10
1.678568
20
1.8104082
40
0.5913162
50
178.9779962
51
192.0497614
0
ARC
8
DEFAULT_255_2_778
10
1.3074495
20
1.7228598
40
0.2102558
50
189.829842
51
260.1983179
0
ARC
8
DEFAULT_255_2_778
10
1.4281436
20
2.1996562
40
0.7016561
50
257.1131616
51
268.8727129
0
ARC
8
DEFAULT_255_2_778
10
1.4749243
20
3.1542236
40
1.6571954
50
267.9048759
51
270.0849526
0
ARC
8
DEFAULT_255_2_778
10
1.5129989
20
8.7544149
40
7.2574724
50
269.7188086
51
270.0003112
0
ARC
8
DEFAULT_255_2_778
10
1.5136442
20
8.728446
40
7.2315035
50
269.9951998
51
276.0130602
0
ARC
8
DEFAULT_255_2_778
10
2.4431207
20
2.4293912
40
3.0085889
50
345.8938112
51
351.9933352
0
ARC
8
DEFAULT_255_2_778
10
3.688027
20
2.1103474
40
1.7234752
50
335.4109489
51
346.0937737
0
ARC
8
DEFAULT_255_2_778
10
4.3420738
20
1.8026842
40
1.0007483
50
312.4691128
51
335.8466202
0
ARC
8
DEFAULT_255_2_778
10
4.371066
20
1.8037737
40
0.9822258
50
286.6383331
51
311.1785978
0
ARC
8
DEFAULT_255_2_778
10
4.1580783
20
2.4704097
40
1.681987
50
276.1416075
51
287.0877363
0
ARC
8
DEFAULT_255_2_778
10
4.0115179
20
3.7444864
40
2.964446
50
269.8785679
51
276.3234951
0
ARC
8
DEFAULT_255_2_778
10
3.9936636
20
4.7180281
40
3.9379981
50
269.9988047
51
270.1683593
0
ARC
8
DEFAULT_255_2_778
10
3.9807162
20
3.6316492
40
2.8516482
50
263.9007135
51
270.2584923
0
ARC
8
DEFAULT_255_2_778
10
3.8519821
20
2.4671467
40
1.6800649
50
254.0880662
51
264.0465046
0
ARC
8
DEFAULT_255_2_778
10
3.6530388
20
1.7881893
40
0.9725939
50
236.6676989
51
254.3931057
0
ARC
8
DEFAULT_255_2_778
10
3.5183184
20
1.5677519
40
0.7144423
50
194.5996632
51
235.9803611
0
ARC
8
DEFAULT_255_2_778
10
3.9622999
20
1.7008967
40
1.1777707
50
182.4009359
51
195.4234933
0
ARC
8
DEFAULT_255_2_778
10
4.4229141
20
1.7341453
40
1.6394326
50
179.9635952
51
182.8875423
0
ARC
8
DEFAULT_255_2_778
10
4.713676
20
1.733704
40
1.9301946
50
176.9776755
51
179.9559799
0
ARC
8
DEFAULT_255_2_778
10
5.0896304
20
1.713893
40
2.3066706
50
174.2515867
51
176.9786402
0
ARC
8
DEFAULT_255_2_778
10
5.5432278
20
1.6684319
40
2.7625402
50
171.8589597
51
174.2557356
0
ARC
8
DEFAULT_255_2_778
10
5.8228089
20
1.6303342
40
3.0446995
50
171.573048
51
171.8942965
0
ARC
8
DEFAULT_255_2_778
10
6.07502
20
1.6089296
40
3.2973623
50
166.1052732
51
171.8473786
0
ARC
8
DEFAULT_255_2_778
10
4.6603415
20
1.963934
40
1.8388355
50
156.6736601
51
166.2578689
0
ARC
8
DEFAULT_255_2_778
10
3.9371825
20
2.2828351
40
1.0485299
50
137.8192645
51
157.0281919
0
ARC
8
DEFAULT_255_2_778
10
3.8260385
20
2.3572479
40
0.91641
50
106.9202595
51
136.6007515
0
ARC
8
DEFAULT_255_2_778
10
4.0512998
20
1.6796716
40
1.6303174
50
96.4578755
51
107.5636792
0
ARC
8
DEFAULT_255_2_778
10
4.2141382
20
0.3357927
40
2.9840029
50
90.3890886
51
96.6624719
0
ARC
8
DEFAULT_255_2_778
10
4.2445772
20
-0.9220349
40
4.2420649
50
89.9945392
51
90.684837
0
ARC
8
DEFAULT_255_2_778
10
4.2576661
20
0.4926696
40
2.8273889
50
83.9744014
51
90.2570501
0
ARC
8
DEFAULT_255_2_778
10
4.3842075
20
1.6511684
40
1.6620127
50
74.243908
51
84.1202747
0
ARC
8
DEFAULT_255_2_778
10
4.5789419
20
2.3228482
40
0.9627047
50
56.9654253
51
74.5431314
0
ARC
8
DEFAULT_255_2_778
10
4.7067983
20
2.536359
40
0.7140687
50
14.9644755
51
56.2266509
0
ARC
8
DEFAULT_255_2_778
10
4.2365203
20
2.3914906
40
1.2059477
50
2.9077351
51
15.8444213
0
ARC
8
DEFAULT_255_2_778
10
3.7131417
20
2.3502189
40
1.7308082
50
359.9457341
51
3.3933262
0
ARC
8
DEFAULT_255_2_778
10
3.3578567
20
2.3501598
40
2.0860929
50
357.120561
51
359.9566006
0
ARC
8
DEFAULT_255_2_778
10
2.9351641
20
2.371368
40
2.5093172
50
354.5415315
51
357.1217566
0
ARC
8
DEFAULT_255_2_778
10
2.4233894
20
2.4200442
40
3.0234014
50
352.2920087
51
354.5458263
0
ARC
8
DEFAULT_255_2_778
10
2.0986788
20
2.4620031
40
3.3508063
50
352.0253643
51
352.3257258
0
ARC
8
DEFAULT_255_2_778
10
8.7288977
20
1.3017835
40
5.0479371
50
172.0824099
51
173.1373063
0
ARC
8
DEFAULT_255_2_778
10
6.7065285
20
1.5436391
40
3.0111585
50
173.1081755
51
174.8819594
0
ARC
8
DEFAULT_255_2_778
10
5.4660364
20
1.6536424
40
1.7657992
50
174.8463648
51
177.6056638
0
ARC
8
DEFAULT_255_2_778
10
4.8527743
20
1.6807203
40
1.1519421
50
177.6769938
51
179.9383873
0
ARC
8
DEFAULT_255_2_778
10
4.2793041
20
1.6719334
40
0.5785582
50
179.0070837
51
191.4470981
0
ARC
8
DEFAULT_255_2_778
10
3.9002277
20
1.5850258
40
0.1900349
50
188.4469542
51
259.649543
0
ARC
8
DEFAULT_255_2_778
10
3.9962014
20
1.9708719
40
0.5873817
50
257.201648
51
269.8717081
0
ARC
8
DEFAULT_255_2_778
10
4.019678
20
2.5578058
40
1.1745758
50
268.7905667
51
270.0196789
0
ARC
8
DEFAULT_255_2_778
10
4.0357394
20
1.9360166
40
0.5530084
50
268.3775032
51
287.3542941
0
ARC
8
DEFAULT_255_2_778
10
4.0945939
20
1.7069972
40
0.3170915
50
289.5477867
51
337.41524
0
ARC
8
DEFAULT_255_2_778
10
3.5708454
20
1.9647959
40
0.9004384
50
335.0676637
51
346.3882964
0
ARC
8
DEFAULT_255_2_778
10
2.1149249
20
2.3364933
40
2.4030141
50
345.9443254
51
350.838671
0
ARC
8
DEFAULT_255_2_778
10
-0.4279999
20
2.7739529
40
4.9832245
50
350.5281404
51
351.8003379
0
ARC
8
DEFAULT_255_2_778
10
0.1952537
20
2.7473989
40
4.3630044
50
350.9781316
51
352.2637528
0
ARC
8
DEFAULT_255_2_778
10
1.8265334
20
2.5273001
40
2.7169444
50
352.2322035
51
354.2915921
0
ARC
8
DEFAULT_255_2_778
10
2.9035263
20
2.4207578
40
1.6346954
50
354.2526891
51
357.3546114
0
ARC
8
DEFAULT_255_2_778
10
3.4598666
20
2.3935971
40
1.0776953
50
357.4319264
51
359.9328042
0
ARC
8
DEFAULT_255_2_778
10
3.982203
20
2.4019299
40
0.5554411
50
359.0100091
51
11.8667993
0
ARC
8
DEFAULT_255_2_778
10
4.3326882
20
2.4825484
40
0.1959871
50
9.8717904
51
51.735748
0
ARC
8
DEFAULT_255_2_778
10
4.3102191
20
2.424316
40
0.2562869
50
55.8574693
51
84.7895983
0
ARC
8
DEFAULT_255_2_778
10
4.2456332
20
1.9819588
40
0.7030962
50
82.82145
51
90.4850137
0
ARC
8
DEFAULT_255_2_778
10
4.2196826
20
2.172337
40
0.5130829
50
87.7661687
51
111.0648273
0
ARC
8
DEFAULT_255_2_778
10
4.1713116
20
2.3475295
40
0.33269
50
114.1369469
51
152.4550686
0
ARC
8
DEFAULT_255_2_778
10
4.5656732
20
2.1206252
40
0.7875053
50
151.0860944
51
163.4714318
0
ARC
8
DEFAULT_255_2_778
10
5.573474
20
1.8092527
40
1.8422828
50
163.1046529
51
169.4606358
0
ARC
8
DEFAULT_255_2_778
10
7.2647455
20
1.4754421
40
3.5661291
50
169.1581499
51
171.5880325
0
ARC
8
DEFAULT_255_2_778
10
6.4682015
20
2.2224307
40
1.4529657
50
274.8791071
51
317.4790671
0
ARC
8
DEFAULT_255_2_778
10
6.5798426
20
1.671029
40
0.8963786
50
253.9587015
51
270.7631476
0
ARC
8
DEFAULT_255_2_778
10
6.4931592
20
1.3658781
40
0.5791571
50
201.7698419
51
253.8583565
0
ARC
8
DEFAULT_255_2_778
10
6.8841418
20
1.5450808
40
1.0089451
50
189.2442389
51
202.9860387
0
ARC
8
DEFAULT_255_2_778
10
7.5493381
20
1.6594915
40
1.6838923
50
180.7300244
51
189.450624
0
ARC
8
DEFAULT_255_2_778
10
8.0953134
20
1.6795934
40
2.2301182
50
179.9932647
51
181.0677181
0
ARC
8
DEFAULT_255_2_778
10
8.4185332
20
1.6778277
40
2.5533389
50
177.2295215
51
179.9544953
0
ARC
8
DEFAULT_255_2_778
10
8.9542797
20
1.6523026
40
3.0896929
50
174.9195835
51
177.2369426
0
ARC
8
DEFAULT_255_2_778
10
9.5577169
20
1.5990301
40
3.6954769
50
172.936154
51
174.9253734
0
ARC
8
DEFAULT_255_2_778
10
10.002978
20
1.5456672
40
4.1439211
50
172.3455574
51
172.961017
0
ARC
8
DEFAULT_255_2_778
10
9.2936019
20
1.663746
40
3.4252124
50
167.567064
51
172.7225854
0
ARC
8
DEFAULT_255_2_778
10
8.0762578
20
1.9354141
40
2.1779297
50
160.2907029
51
167.6514317
0
ARC
8
DEFAULT_255_2_778
10
7.2912663
20
2.2206629
40
1.3427321
50
149.017983
51
160.452891
0
ARC
8
DEFAULT_255_2_778
10
6.8715347
20
2.4759646
40
0.8514674
50
129.9339526
51
149.2072513
0
ARC
8
DEFAULT_255_2_778
10
6.8714181
20
2.4134947
40
0.9001911
50
89.0022444
51
127.3751277
0
ARC
8
DEFAULT_255_2_778
10
6.9532876
20
1.4591706
40
1.8555597
50
89.9693115
51
92.0443736
0
ARC
8
DEFAULT_255_2_778
10
6.9641456
20
-0.9526047
40
4.2673461
50
89.9988508
51
90.1324422
0
ARC
8
DEFAULT_255_2_778
10
6.9644818
20
-1.0021017
40
4.3168431
50
79.7561333
51
90.0033255
0
ARC
8
DEFAULT_255_2_778
10
10.6911272
20
3.3688468
40
2.9614977
50
180.7709992
51
182.3787415
0
ARC
8
DEFAULT_255_2_778
10
10.6904389
20
3.3688478
40
2.9608094
50
179.9997377
51
180.7711976
0
ARC
8
DEFAULT_255_2_778
10
10.6939511
20
3.3688263
40
2.9643217
50
172.7420241
51
179.999323
0
ARC
8
DEFAULT_255_2_778
10
7.2973994
20
1.582706
40
1.1659851
50
89.0475355
51
97.9304342
0
ARC
8
DEFAULT_255_2_778
10
7.16059
20
2.4428107
40
0.2957101
50
94.6673978
51
158.0496607
0
ARC
8
DEFAULT_255_2_778
10
7.6509785
20
2.2180056
40
0.8349625
50
156.3201596
51
167.8003096
0
ARC
8
DEFAULT_255_2_778
10
9.151015
20
1.87209
40
2.3743163
50
167.2907207
51
171.9786603
0
ARC
8
DEFAULT_255_2_778
10
11.6941191
20
1.4852822
40
4.9465953
50
171.6525577
51
172.7033796
0
ARC
8
DEFAULT_255_2_778
10
18.5881929
20
0.5395796
40
11.9051145
50
172.4028018
51
172.9488439
0
ARC
8
DEFAULT_255_2_778
10
11.2917127
20
1.4387306
40
4.5534433
50
172.9069141
51
174.3192346
0
ARC
8
DEFAULT_255_2_778
10
8.775173
20
1.6867852
40
2.0247102
50
174.2551373
51
177.0853936
0
ARC
8
DEFAULT_255_2_778
10
7.8516174
20
1.7357021
40
1.0998635
50
177.1840126
51
179.893027
0
ARC
8
DEFAULT_255_2_778
10
7.255534
20
1.729182
40
0.5038509
50
179.025004
51
190.744239
0
ARC
8
DEFAULT_255_2_778
10
6.9149683
20
1.6588391
40
0.156243
50
188.6830086
51
225.3115891
0
ARC
8
DEFAULT_255_2_778
10
6.8966511
20
1.6590558
40
0.1441189
50
230.5567026
51
270.2989301
0
ARC
8
DEFAULT_255_2_778
10
6.9122873
20
1.8009157
40
0.286364
50
267.0205919
51
270.0444996
0
ARC
8
DEFAULT_255_2_778
10
6.9119389
20
1.8738594
40
0.359308
50
270.0910275
51
273.9660275
0
ARC
8
DEFAULT_255_2_778
10
6.9071335
20
1.9518468
40
0.4374415
50
273.887429
51
274.1094587
0
ARC
8
DEFAULT_255_2_778
10
6.8371853
20
2.4177428
40
0.9078815
50
276.4060717
51
315.3874999
0
ARC
8
DEFAULT_255_2_778
10
10.2407373
20
3.6252397
40
2.8514832
50
270.0025524
51
291.2663477
0
ARC
8
DEFAULT_255_2_778
10
10.2408629
20
3.6237826
40
2.8500261
50
268.5024841
51
270.0000275
0
ARC
8
DEFAULT_255_2_778
10
10.1561183
20
3.6357344
40
2.8610228
50
264.3087818
51
270.2055348
0
ARC
8
DEFAULT_255_2_778
10
10.0481714
20
2.5901008
40
1.8098425
50
255.5888968
51
264.4266168
0
ARC
8
DEFAULT_255_2_778
10
9.871787
20
1.9184855
40
1.1154677
50
241.7109146
51
255.7781499
0
ARC
8
DEFAULT_255_2_778
10
9.698425
20
1.5975532
40
0.7507055
50
191.4748511
51
241.7537026
0
ARC
8
DEFAULT_255_2_778
10
10.2940918
20
1.7498928
40
1.3651196
50
180.1064846
51
192.7674221
0
ARC
8
DEFAULT_255_2_778
10
10.7848064
20
1.7691017
40
1.8559593
50
179.997696
51
180.6713402
0
ARC
8
DEFAULT_255_2_778
10
11.0115987
20
1.7674055
40
2.0827524
50
176.9577135
51
179.9512857
0
ARC
8
DEFAULT_255_2_778
10
11.4650318
20
1.743357
40
2.5368228
50
174.2618127
51
176.9588531
0
ARC
8
DEFAULT_255_2_778
10
11.9082569
20
1.7003877
40
2.9821234
50
172.856485
51
174.2918037
0
ARC
8
DEFAULT_255_2_778
10
11.7403419
20
1.7752165
40
2.8067138
50
167.469927
51
173.9459727
0
ARC
8
DEFAULT_255_2_778
10
10.6682362
20
2.017862
40
1.7075061
50
157.448144
51
167.613233
0
ARC
8
DEFAULT_255_2_778
10
10.0662277
20
2.2725466
40
1.0538639
50
139.7323703
51
157.6834282
0
ARC
8
DEFAULT_255_2_778
10
9.9732236
20
2.3212193
40
0.9517158
50
103.3922874
51
138.3490681
0
ARC
8
DEFAULT_255_2_778
10
10.2326025
20
1.4078457
40
1.900766
50
94.392502
51
104.6214191
0
ARC
8
DEFAULT_255_2_778
10
10.374565
20
-0.215653
40
3.5304109
50
89.7725239
51
94.6717128
0
ARC
8
DEFAULT_255_2_778
10
10.3989795
20
-0.1022634
40
3.4170092
50
85.4167959
51
90.1743529
0
ARC
8
DEFAULT_255_2_778
10
10.5046488
20
1.1847904
40
2.1256288
50
78.8913685
51
85.4838348
0
ARC
8
DEFAULT_255_2_778
10
10.6755894
20
2.0339563
40
1.2594449
50
68.5154925
51
79.0792204
0
ARC
8
DEFAULT_255_2_778
10
10.8771411
20
2.5346509
40
0.7197341
50
50.2499426
51
68.8472899
0
ARC
8
DEFAULT_255_2_778
10
10.9651689
20
2.6651883
40
0.5633044
50
359.4860299
51
48.6435343
0
ARC
8
DEFAULT_255_2_778
10
10.5753026
20
2.6198806
40
0.9539978
50
359.9782341
51
2.4183599
0
ARC
8
DEFAULT_255_2_778
10
10.3918121
20
2.6215171
40
1.1374901
50
355.1074508
51
359.899311
0
ARC
8
DEFAULT_255_2_778
10
10.0972344
20
2.6458012
40
1.4330658
50
351.8091063
51
355.1445607
0
ARC
8
DEFAULT_255_2_778
10
10.7426319
20
2.5462434
40
0.7800959
50
334.0462197
51
352.2932311
0
ARC
8
DEFAULT_255_2_778
10
10.9299931
20
2.472529
40
0.579583
50
290.1930603
51
332.4922137
0
ARC
8
DEFAULT_255_2_778
10
10.6381503
20
3.1526463
40
1.3192171
50
280.851572
51
291.8931676
0
ARC
8
DEFAULT_255_2_778
10
10.3284607
20
4.6921787
40
2.889559
50
275.5854615
51
281.1353417
0
ARC
8
DEFAULT_255_2_778
10
10.0953111
20
6.7949459
40
5.0051099
50
274.6949358
51
275.8988888
0
ARC
8
DEFAULT_255_2_778
10
10.3077615
20
1.7469758
40
0.4590383
50
178.4952632
51
196.6562603
0
ARC
8
DEFAULT_255_2_778
10
10.0811501
20
1.6886634
40
0.2254044
50
198.9669024
51
267.8497237
0
ARC
8
DEFAULT_255_2_778
10
10.2351136
20
2.59934
40
1.1474756
50
261.8626733
51
270.9745588
0
LINE
8
DEFAULT_255_2_778
10
10.2546303
20
1.4520305
11
10.2562815
21
1.45203
0
ARC
8
DEFAULT_255_2_778
10
10.1070891
20
11.9187228
40
10.4677561
50
270.8166393
51
276.0997026
0
ARC
8
DEFAULT_255_2_778
10
10.2467902
20
3.2521154
40
0.9817079
50
273.4917828
51
283.6652744
0
ARC
8
DEFAULT_255_2_778
10
10.4381359
20
2.5121338
40
0.2177517
50
280.7409262
51
353.7816381
0
ARC
8
DEFAULT_255_2_778
10
10.166333
20
2.5786055
40
0.4965092
50
349.5497035
51
355.173518
0
ARC
8
DEFAULT_255_2_778
10
10.2217465
20
2.5823171
40
0.4416835
50
354.0888682
51
358.7171776
0
ARC
8
DEFAULT_255_2_778
10
10.3402685
20
2.5785402
40
0.3231087
50
358.9162374
51
359.9948891
0
ARC
8
DEFAULT_255_2_778
10
10.5391961
20
2.5917438
40
0.1248841
50
353.9176463
51
45.8231737
0
ARC
8
DEFAULT_255_2_778
10
10.5210492
20
2.5396149
40
0.1764633
50
53.4146943
51
84.5392183
0
ARC
8
DEFAULT_255_2_778
10
10.4306799
20
1.9377421
40
0.7848854
50
82.1527576
51
90.7304718
0
ARC
8
DEFAULT_255_2_778
10
10.4160709
20
1.0145184
40
1.7080516
50
89.8456056
51
89.9979039
0
ARC
8
DEFAULT_255_2_778
10
10.4171348
20
0.7198242
40
2.002746
50
90.028649
51
91.0042919
0
ARC
8
DEFAULT_255_2_778
10
10.4258406
20
0.1643336
40
2.5583041
50
90.9811848
51
91.248881
0
ARC
8
DEFAULT_255_2_778
10
10.3532457
20
1.9936773
40
0.7285473
50
88.6758508
51
102.7003989
0
ARC
8
DEFAULT_255_2_778
10
10.263038
20
2.4075436
40
0.3049892
50
103.2619564
51
159.9688621
0
ARC
8
DEFAULT_255_2_778
10
10.8596027
20
2.1336124
40
0.9607595
50
156.8054541
51
167.1856858
0
ARC
8
DEFAULT_255_2_778
10
12.0513061
20
1.8360826
40
2.1889242
50
166.5101093
51
169.4934087
0
LINE
8
DEFAULT_255_2_778
10
8.0607815
20
5.76033
11
7.9435815
21
5.29673
0
LINE
8
DEFAULT_255_2_778
10
7.9435815
20
13.36123
11
8.0607815
21
12.90483
0
LINE
8
DEFAULT_255_2_778
10
15.8707815
20
5.29703
11
15.7445815
21
5.75283
0
LINE
8
DEFAULT_255_2_778
10
15.7445815
20
12.89743
11
15.8707815
21
13.36093
0
LINE
8
DEFAULT_255_2_778
10
2.5516815
20
3.15073
11
2.4299815
21
2.62153
0
LINE
8
DEFAULT_255_2_778
10
2.4299815
20
2.62153
11
1.6361815
21
2.62153
0
LINE
8
DEFAULT_255_2_778
10
2.2711815
20
1.53673
11
2.3134815
21
0.95203
0
LINE
8
DEFAULT_255_2_778
10
8.2348815
20
0.83293
11
7.5390815
21
0.83293
0
LINE
8
DEFAULT_255_2_778
10
7.5390815
20
0.83293
11
7.5390815
21
1.24043
0
LINE
8
DEFAULT_255_2_778
10
7.7533815
20
3.74333
11
7.8326815
21
4.23553
0
LINE
8
DEFAULT_255_2_778
10
7.8326815
20
4.23553
11
8.7190815
21
4.23553
0
LINE
8
DEFAULT_255_2_778
10
8.7190815
20
4.23553
11
8.2348815
21
0.83293
0
LINE
8
DEFAULT_255_2_778
10
7.4834815
20
1.78013
11
7.6157815
21
2.75913
0
LINE
8
DEFAULT_255_2_778
10
7.6157815
20
2.75913
11
7.3167815
21
2.74853
0
LINE
8
DEFAULT_255_2_778
10
10.5049815
20
1.80663
11
9.8488815
21
1.75903
0
LINE
8
DEFAULT_255_2_778
10
11.2193815
20
1.51023
11
11.2749815
21
0.96793
0
LINE
8
DEFAULT_255_2_778
10
9.8990815
20
2.23523
11
10.3065815
21
2.27223
0
ARC
8
DEFAULT_255_2_778
10
13.3956402
20
2.9626992
40
0.9763724
50
88.9716838
51
99.7843084
0
ARC
8
DEFAULT_255_2_778
10
13.2655791
20
3.6369272
40
0.2901674
50
97.0996254
51
163.2934242
0
ARC
8
DEFAULT_255_2_778
10
13.7502903
20
3.4570443
40
0.8068029
50
160.9528128
51
172.6245265
0
ARC
8
DEFAULT_255_2_778
10
11.8095995
20
0.5875999
40
0.7202019
50
312.0272024
51
358.242713
0
ARC
8
DEFAULT_255_2_778
10
11.8100178
20
0.5874788
40
0.7198319
50
270.003431
51
312.0089259
0
ARC
8
DEFAULT_255_2_778
10
11.810064
20
0.5878768
40
0.72023
50
265.7638661
51
269.9997512
0
ARC
8
DEFAULT_255_2_778
10
11.7993329
20
4.8634277
40
4.9939939
50
262.7542415
51
269.5127369
0
ARC
8
DEFAULT_255_2_778
10
11.6262338
20
1.1959374
40
0.9374876
50
268.9260564
51
280.1642069
0
ARC
8
DEFAULT_255_2_778
10
11.7516693
20
0.5600389
40
0.2896519
50
277.938297
51
344.3018605
0
ARC
8
DEFAULT_255_2_778
10
11.2501033
20
0.7436221
40
0.8232046
50
341.4451387
51
352.5520928
0
ARC
8
DEFAULT_255_2_778
10
13.195595
20
3.6135975
40
0.7168248
50
131.5907615
51
178.1039602
0
ARC
8
DEFAULT_255_2_778
10
13.1957538
20
3.6136393
40
0.7168989
50
90.0000575
51
131.6024699
0
ARC
8
DEFAULT_255_2_778
10
13.1957434
20
3.612695
40
0.7178432
50
85.0997307
51
89.999227
0
ARC
8
DEFAULT_255_2_778
10
13.3217707
20
-1.4552356
40
5.783512
50
90.0003461
51
90.641059
0
ARC
8
DEFAULT_255_2_778
10
13.3218024
20
-1.441151
40
5.7694274
50
89.8286501
51
90.0006614
0
ARC
8
DEFAULT_255_2_778
10
13.3226897
20
-1.4014932
40
5.7297671
50
83.6857043
51
89.8363371
0
ARC
8
DEFAULT_255_2_778
10
15.5135869
20
2.0882212
40
0.7396562
50
91.2026355
51
115.1375701
0
ARC
8
DEFAULT_255_2_778
10
15.9085417
20
1.1806168
40
1.7293024
50
114.2099812
51
122.237591
0
ARC
8
DEFAULT_255_2_778
10
17.1846062
20
-0.8796175
40
4.1526772
50
121.9665717
51
125.2803165
0
ARC
8
DEFAULT_255_2_778
10
22.0404378
20
-7.7705209
40
12.582598
50
125.2072847
51
126.4844753
0
ARC
8
DEFAULT_255_2_778
10
16.896531
20
0.3987228
40
3.2681526
50
129.2898444
51
136.0014134
0
ARC
8
DEFAULT_255_2_778
10
16.1781115
20
1.2836807
40
2.1283071
50
120.1580309
51
129.4075272
0
ARC
8
DEFAULT_255_2_778
10
15.7494193
20
2.0314342
40
1.2664078
50
106.3874637
51
120.3840526
0
ARC
8
DEFAULT_255_2_778
10
15.6107403
20
2.4948232
40
0.7827213
50
90.5034518
51
106.2184718
0
ARC
8
DEFAULT_255_2_778
10
17.0317545
20
3.9029047
40
3.1262213
50
270.0048626
51
287.0956494
0
ARC
8
DEFAULT_255_2_778
10
17.0320069
20
3.8961406
40
3.1194571
50
268.9430126
51
270.0002365
0
ARC
8
DEFAULT_255_2_778
10
16.9638102
20
2.6474222
40
1.8702381
50
261.9172802
51
270.3263461
0
ARC
8
DEFAULT_255_2_778
10
16.8566793
20
1.9208261
40
1.1358038
50
248.6468557
51
262.1142893
0
ARC
8
DEFAULT_255_2_778
10
16.6885548
20
1.5145705
40
0.6962732
50
197.5823892
51
249.3594623
0
ARC
8
DEFAULT_255_2_778
10
17.1256914
20
1.6695736
40
1.1599175
50
184.7643459
51
198.3585816
0
ARC
8
DEFAULT_255_2_778
10
17.7221052
20
1.7327912
40
1.7595728
50
179.8709286
51
185.2027157
0
ARC
8
DEFAULT_255_2_778
10
18.2230739
20
1.7346995
40
2.260538
50
176.9197377
51
179.9479011
0
ARC
8
DEFAULT_255_2_778
10
18.6973908
20
1.7098671
40
2.7355043
50
174.5711769
51
176.9342063
0
ARC
8
DEFAULT_255_2_778
10
19.2282717
20
1.6596082
40
3.2687588
50
172.4885505
51
174.5745544
0
ARC
8
DEFAULT_255_2_778
10
19.0516477
20
1.6986566
40
3.0885856
50
167.0171173
51
172.7783948
0
ARC
8
DEFAULT_255_2_778
10
17.725603
20
2.0102458
40
1.7264462
50
157.1582976
51
167.2067839
0
ARC
8
DEFAULT_255_2_778
10
17.032938
20
2.3096901
40
0.9718848
50
136.5558741
51
157.5756264
0
ARC
8
DEFAULT_255_2_778
10
16.9496061
20
2.3602957
40
0.8768242
50
106.5269616
51
135.2121993
0
ARC
8
DEFAULT_255_2_778
10
17.1570026
20
1.7209349
40
1.5488606
50
95.9765532
51
107.1540446
0
ARC
8
DEFAULT_255_2_778
10
17.2957745
20
0.4868399
40
2.7907131
50
89.698436
51
96.1720444
0
ARC
8
DEFAULT_255_2_778
10
17.3203508
20
0.8399782
40
2.4375563
50
84.3844177
51
90.2324249
0
ARC
8
DEFAULT_255_2_778
10
17.4224238
20
1.8402864
40
1.4320653
50
75.5389739
51
84.5324272
0
ARC
8
DEFAULT_255_2_778
10
17.5845626
20
2.4531113
40
0.7981765
50
60.7315533
51
75.8236932
0
ARC
8
DEFAULT_255_2_778
10
17.7429032
20
2.7322576
40
0.4772562
50
2.5116498
51
60.9298191
0
ARC
8
DEFAULT_255_2_778
10
17.4020336
20
2.6788522
40
0.8210382
50
359.9012928
51
5.1934949
0
ARC
8
DEFAULT_255_2_778
10
17.1681105
20
2.6795887
40
1.0549622
50
354.8839773
51
359.8831782
0
ARC
8
DEFAULT_255_2_778
10
16.872765
20
2.7047951
40
1.3513795
50
351.7213938
51
354.9361601
0
ARC
8
DEFAULT_255_2_778
10
17.2806716
20
2.6312843
40
0.9372437
50
336.7415204
51
352.5779928
0
ARC
8
DEFAULT_255_2_778
10
17.5569154
20
2.5246616
40
0.6414428
50
286.7563036
51
335.7477187
0
ARC
8
DEFAULT_255_2_778
10
17.2580992
20
3.3186226
40
1.4889413
50
278.1915796
51
288.9590332
0
ARC
8
DEFAULT_255_2_778
10
17.0537697
20
4.5829426
40
2.7695635
50
274.6036739
51
278.6487843
0
ARC
8
DEFAULT_255_2_778
10
17.5337301
20
1.7365458
40
1.0779306
50
179.379757
51
190.2241372
0
ARC
8
DEFAULT_255_2_778
10
16.976243
20
1.6305174
40
0.5105043
50
189.6190596
51
211.4397662
0
ARC
8
DEFAULT_255_2_778
10
16.8758207
20
1.594621
40
0.4066837
50
214.5060531
51
264.088151
0
ARC
8
DEFAULT_255_2_778
10
17.0365378
20
2.4487502
40
1.2748522
50
260.8555445
51
270.7741626
0
ARC
8
DEFAULT_255_2_778
10
17.0431754
20
6.4311271
40
5.2571233
50
270.115388
51
272.4949598
0
ARC
8
DEFAULT_255_2_778
10
16.9342441
20
9.073571
40
7.9018066
50
272.449993
51
274.1438327
0
ARC
8
DEFAULT_255_2_778
10
16.8139373
20
10.7825821
40
9.6150443
50
274.1229658
51
276.0466175
0
ARC
8
DEFAULT_255_2_778
10
16.8880976
20
10.085495
40
8.9140235
50
276.0445724
51
276.6926184
0
ARC
8
DEFAULT_255_2_778
10
17.2313426
20
3.1292938
40
0.96142
50
272.6660523
51
284.0509819
0
ARC
8
DEFAULT_255_2_778
10
17.4000403
20
2.5099876
40
0.3199623
50
281.670119
51
345.9684381
0
ARC
8
DEFAULT_255_2_778
10
17.0196121
20
2.6390212
40
0.7210774
50
343.349659
51
352.0519767
0
ARC
8
DEFAULT_255_2_778
10
16.9243196
20
2.6526521
40
0.8173393
50
352.0293071
51
355.5010409
0
ARC
8
DEFAULT_255_2_778
10
17.1635474
20
2.6340282
40
0.5773879
50
355.4813118
51
359.8692132
0
ARC
8
DEFAULT_255_2_778
10
17.4709499
20
2.6436984
40
0.2702073
50
357.6693781
51
24.6138622
0
ARC
8
DEFAULT_255_2_778
10
17.5453074
20
2.6587114
40
0.1971159
50
29.655106
51
81.6500943
0
ARC
8
DEFAULT_255_2_778
10
17.3993378
20
2.0492532
40
0.8232126
50
77.7551968
51
88.1523068
0
ARC
8
DEFAULT_255_2_778
10
17.2612171
20
-1.1250945
40
4.0005225
50
87.641013
51
90.4318777
0
ARC
8
DEFAULT_255_2_778
10
17.2125036
20
1.3894852
40
1.4859451
50
89.2843705
51
98.0204203
0
ARC
8
DEFAULT_255_2_778
10
17.0444628
20
2.3971709
40
0.4653858
50
94.8425973
51
149.3866074
0
ARC
8
DEFAULT_255_2_778
10
17.4014846
20
2.1927756
40
0.8767536
50
149.7723963
51
163.2128409
0
ARC
8
DEFAULT_255_2_778
10
18.443156
20
1.8627261
40
1.9694154
50
162.7726176
51
169.1053822
0
ARC
8
DEFAULT_255_2_778
10
20.1512713
20
1.5152351
40
3.7124669
50
168.8215827
51
171.2246049
0
ARC
8
DEFAULT_255_2_778
10
19.8192241
20
3.2797177
40
1.3855256
50
235.8464858
51
245.8542775
0
ARC
8
DEFAULT_255_2_778
10
19.3813615
20
2.6494292
40
0.618176
50
211.7184297
51
236.6339315
0
ARC
8
DEFAULT_255_2_778
10
19.3063409
20
2.5819754
40
0.5192068
50
178.6170285
51
209.7386064
0
ARC
8
DEFAULT_255_2_778
10
19.5843209
20
2.5931555
40
0.7970368
50
174.6042183
51
179.9025397
0
ARC
8
DEFAULT_255_2_778
10
19.7283323
20
2.5808351
40
0.9415696
50
172.5257901
51
174.6818861
0
ARC
8
DEFAULT_255_2_778
10
19.5023733
20
2.6327069
40
0.7111246
50
154.8996874
51
174.3017164
0
ARC
8
DEFAULT_255_2_778
10
19.3291889
20
2.6980885
40
0.5267526
50
107.1298286
51
153.3486052
0
ARC
8
DEFAULT_255_2_778
10
19.5479412
20
2.1120509
40
1.1518007
50
96.5727704
51
108.9427288
0
ARC
8
DEFAULT_255_2_778
10
19.692119
20
0.9717712
40
2.3011241
50
90.3620284
51
96.8891892
0
ARC
8
DEFAULT_255_2_778
10
19.7184133
20
-0.0912216
40
3.3643187
50
89.9940189
51
90.6954386
0
ARC
8
DEFAULT_255_2_778
10
19.7180708
20
-0.5086054
40
3.7817026
50
89.0695291
51
89.9894896
0
ARC
8
DEFAULT_255_2_778
10
19.7127599
20
-0.8778522
40
4.150987
50
88.7934964
51
89.0789986
0
ARC
8
DEFAULT_255_2_778
10
19.6748675
20
-4.6154675
40
7.888677
50
81.6815341
51
89.0899377
0
ARC
8
DEFAULT_255_2_778
10
20.7630925
20
11.3749396
40
8.5155267
50
268.7313609
51
269.9654847
0
ARC
8
DEFAULT_255_2_778
10
21.1661253
20
26.6927984
40
23.8386391
50
267.6663587
51
268.5780311
0
ARC
8
DEFAULT_255_2_778
10
16.7487324
20
-89.1639525
40
92.1023973
50
87.8553366
51
87.8632638
0
ARC
8
DEFAULT_255_2_778
10
18.8655463
20
-31.9466841
40
34.845993
50
87.8337139
51
88.1271647
0
ARC
8
DEFAULT_255_2_778
10
19.4108278
20
-15.3415212
40
18.2318799
50
88.134429
51
88.7348849
0
ARC
8
DEFAULT_255_2_778
10
19.5942876
20
-6.9186511
40
9.8070128
50
88.7199851
51
89.1406593
0
ARC
8
DEFAULT_255_2_778
10
19.6712242
20
-1.7457913
40
4.633581
50
89.1325796
51
89.95552
0
ARC
8
DEFAULT_255_2_778
10
19.6579675
20
1.2539589
40
1.6339163
50
89.4089842
51
95.2082644
0
ARC
8
DEFAULT_255_2_778
10
19.5416511
20
2.4420279
40
0.4402662
50
94.1686975
51
112.4632218
0
ARC
8
DEFAULT_255_2_778
10
19.4522673
20
2.6724331
40
0.1932668
50
114.074323
51
175.7587655
0
ARC
8
DEFAULT_255_2_778
10
19.6481808
20
2.6254515
40
0.3934517
50
171.0404795
51
172.8806621
0
ARC
8
DEFAULT_255_2_778
10
19.7459885
20
2.6121023
40
0.4921609
50
172.7497676
51
177.3667082
0
ARC
8
DEFAULT_255_2_778
10
19.6317765
20
2.6180913
40
0.3777949
50
177.4782484
51
179.9670711
0
ARC
8
DEFAULT_255_2_778
10
19.4646342
20
2.6108857
40
0.2107832
50
177.9819094
51
205.4278839
0
ARC
8
DEFAULT_255_2_778
10
19.4667848
20
2.6338029
40
0.2234421
50
210.5049475
51
247.446128
0
ARC
8
DEFAULT_255_2_778
10
19.7273823
20
3.1111151
40
0.7663691
50
243.1362727
51
245.0976085
0
ARC
8
DEFAULT_255_2_778
10
20.2891489
20
4.3437545
40
2.1209718
50
245.3541038
51
247.2262988
0
ARC
8
DEFAULT_255_2_778
10
17.6871746
20
-1.8344059
40
4.5827557
50
66.1407014
51
67.1311831
0
ARC
8
DEFAULT_255_2_778
10
18.9479862
20
-0.6607148
40
2.996731
50
64.0660792
51
65.4778848
0
ARC
8
DEFAULT_255_2_778
10
19.2313226
20
-0.0746977
40
2.3458142
50
63.3543595
51
64.0299018
0
ARC
8
DEFAULT_255_2_778
10
19.7021614
20
0.8306176
40
1.3255711
50
55.2007062
51
63.9952296
0
ARC
8
DEFAULT_255_2_778
10
20.162115
20
1.4774568
40
0.5319864
50
31.2388036
51
56.120557
0
ARC
8
DEFAULT_255_2_778
10
20.2215019
20
1.5331311
40
0.4526487
50
0.5338477
51
29.1112962
0
ARC
8
DEFAULT_255_2_778
10
20.0132417
20
1.5157814
40
0.6612411
50
359.9876843
51
1.8691017
0
ARC
8
DEFAULT_255_2_778
10
19.8816141
20
1.5174626
40
0.7928708
50
354.456685
51
359.8682426
0
ARC
8
DEFAULT_255_2_778
10
19.6387394
20
1.5400014
40
1.0367875
50
351.0001296
51
354.5134861
0
ARC
8
DEFAULT_255_2_778
10
19.8541878
20
1.474843
40
0.8143758
50
336.9090298
51
353.1572583
0
ARC
8
DEFAULT_255_2_778
10
20.1045422
20
1.3815505
40
0.5476301
50
281.9169421
51
335.6148344
0
ARC
8
DEFAULT_255_2_778
10
19.8319698
20
2.2921976
40
1.4970031
50
274.7732317
51
284.9287481
0
ARC
8
DEFAULT_255_2_778
10
19.6234178
20
4.5788259
40
3.7930957
50
270.4229837
51
275.0383783
0
ARC
8
DEFAULT_255_2_778
10
19.5424408
20
9.0300419
40
8.2449286
50
269.9709654
51
270.7573412
0
ARC
8
DEFAULT_255_2_778
10
19.4613819
20
6.7916292
40
6.0070068
50
270.0000497
51
270.7333211
0
ARC
8
DEFAULT_255_2_778
10
19.4616871
20
6.8028774
40
6.018255
50
261.8091659
51
269.9971446
0
ARC
8
DEFAULT_255_2_778
10
19.4135335
20
8.3353234
40
7.1665257
50
269.876312
51
271.6908734
0
ARC
8
DEFAULT_255_2_778
10
19.5463747
20
4.0673689
40
2.896518
50
271.5554001
51
275.4258729
0
ARC
8
DEFAULT_255_2_778
10
19.7249376
20
2.2567867
40
1.0771838
50
275.0770446
51
283.6347628
0
ARC
8
DEFAULT_255_2_778
10
19.9014112
20
1.5598246
40
0.3583354
50
282.4827977
51
305.1178115
0
ARC
8
DEFAULT_255_2_778
10
19.9680804
20
1.4445627
40
0.2260092
50
308.1035013
51
351.7711152
0
ARC
8
DEFAULT_255_2_778
10
19.8213576
20
1.4888248
40
0.3782447
50
348.3143602
51
354.4417292
0
ARC
8
DEFAULT_255_2_778
10
19.9375838
20
1.4770021
40
0.2614205
50
354.5534505
51
359.8711175
0
ARC
8
DEFAULT_255_2_778
10
20.0519756
20
1.4813375
40
0.1471104
50
358.0820576
51
65.2540133
0
ARC
8
DEFAULT_255_2_778
10
19.8502108
20
1.1599461
40
0.5257082
50
59.9382461
51
65.3052797
0
ARC
8
DEFAULT_255_2_778
10
19.7051889
20
0.8577334
40
0.8608878
50
64.939246
51
65.1037198
0
ARC
8
DEFAULT_255_2_778
10
19.7099088
20
0.868295
40
0.849321
50
65.0925966
51
65.2577122
0
ARC
8
DEFAULT_255_2_778
10
19.697102
20
0.8410696
40
0.8794073
50
65.2423185
51
65.4002387
0
ARC
8
DEFAULT_255_2_778
10
19.6831018
20
0.8110247
40
0.9125533
50
65.3862656
51
65.5369571
0
ARC
8
DEFAULT_255_2_778
10
19.6130622
20
0.6572354
40
1.0815405
50
65.5334114
51
65.6592969
0
ARC
8
DEFAULT_255_2_778
10
19.6194683
20
0.6715779
40
1.0658327
50
65.6552755
51
65.7817359
0
ARC
8
DEFAULT_255_2_778
10
19.5967462
20
0.6214958
40
1.1208281
50
65.7726431
51
65.8916805
0
ARC
8
DEFAULT_255_2_778
10
19.5231553
20
0.457092
40
1.3009511
50
65.8908416
51
65.9923484
0
ARC
8
DEFAULT_255_2_778
10
19.4858833
20
0.3735132
40
1.3924641
50
65.9905825
51
66.0844383
0
ARC
8
DEFAULT_255_2_778
10
19.4416062
20
0.2731543
40
1.502156
50
66.0924029
51
66.1784974
0
ARC
8
DEFAULT_255_2_778
10
19.4512228
20
0.2947926
40
1.478477
50
66.1807411
51
66.2672933
0
ARC
8
DEFAULT_255_2_778
10
19.4607974
20
0.3169377
40
1.4543513
50
66.26147
51
66.348523
0
ARC
8
DEFAULT_255_2_778
10
19.4095454
20
0.2000837
40
1.5819506
50
66.3460444
51
66.4252177
0
ARC
8
DEFAULT_255_2_778
10
19.4200672
20
0.2245088
40
1.5553559
50
66.4206125
51
66.5002689
0
ARC
8
DEFAULT_255_2_778
10
19.3008958
20
-0.0489957
40
1.8536956
50
66.4931888
51
66.5924677
0
ARC
8
DEFAULT_255_2_778
10
19.2767289
20
-0.1039556
40
1.9137334
50
66.582162
51
66.6767325
0
ARC
8
DEFAULT_255_2_778
10
19.1946461
20
-0.2938724
40
2.1206292
50
66.6717643
51
66.7556774
0
ARC
8
DEFAULT_255_2_778
10
18.9721556
20
-0.811153
40
2.683729
50
66.7495972
51
66.8147795
0
ARC
8
DEFAULT_255_2_778
10
18.8983516
20
-0.9835767
40
2.8712841
50
66.8155916
51
66.8754722
0
ARC
8
DEFAULT_255_2_778
10
23.3158567
20
9.4951476
40
8.5005652
50
246.5962198
51
247.230984
0
ARC
8
DEFAULT_255_2_778
10
20.7299077
20
3.498251
40
1.9699017
50
244.93809
51
246.339712
0
ARC
8
DEFAULT_255_2_778
10
16.9482411
20
4.0330468
40
5.1962045
50
345.4441095
51
352.0227089
0
ARC
8
DEFAULT_255_2_778
10
24.526844
20
-0.1312667
40
3.8299697
50
126.3315402
51
131.727439
0
ARC
8
DEFAULT_255_2_778
10
23.5916468
20
1.147868
40
2.2454365
50
117.9601276
51
126.4447052
0
ARC
8
DEFAULT_255_2_778
10
23.1648841
20
1.9634811
40
1.3249472
50
103.2233808
51
118.1961308
0
ARC
8
DEFAULT_255_2_778
10
23.0777371
20
2.3027766
40
0.9747399
50
90.1219352
51
102.7987994
0
ARC
8
DEFAULT_255_2_778
10
23.1322082
20
2.7506028
40
0.529937
50
90.001655
51
96.1252518
0
ARC
8
DEFAULT_255_2_778
10
23.1320964
20
2.7512021
40
0.5293378
50
39.7687467
51
89.9895593
0
ARC
8
DEFAULT_255_2_778
10
23.1317403
20
2.7512509
40
0.5295804
50
0.0016874
51
39.7400416
0
ARC
8
DEFAULT_255_2_778
10
23.1325593
20
2.7512628
40
0.5287614
50
356.2694608
51
0.0003934
0
ARC
8
DEFAULT_255_2_778
10
23.1320981
20
2.7513217
40
0.5292255
50
343.3984506
51
356.2663484
0
ARC
8
DEFAULT_255_2_778
10
21.5642835
20
2.6945437
40
1.5866991
50
352.269627
51
354.8934072
0
ARC
8
DEFAULT_255_2_778
10
22.1811959
20
2.6404197
40
0.9674182
50
354.8340916
51
358.8852157
0
ARC
8
DEFAULT_255_2_778
10
22.4380766
20
2.6332287
40
0.7104496
50
359.0619887
51
359.9931252
0
ARC
8
DEFAULT_255_2_778
10
22.7726755
20
2.6434685
40
0.3759926
50
358.4264129
51
16.2746194
0
ARC
8
DEFAULT_255_2_778
10
22.9788247
20
2.699062
40
0.162584
50
17.8274152
51
90.7286141
0
ARC
8
DEFAULT_255_2_778
10
22.9197987
20
2.338083
40
0.5266391
50
83.7910419
51
90.3085418
0
ARC
8
DEFAULT_255_2_778
10
22.9170671
20
2.2179054
40
0.6468091
50
90.009243
51
94.71968
0
ARC
8
DEFAULT_255_2_778
10
22.9489204
20
2.0217936
40
0.8450209
50
95.7780959
51
117.0430007
0
ARC
8
DEFAULT_255_2_778
10
23.3881205
20
1.114995
40
1.8524818
50
116.3902621
51
124.790151
0
ARC
8
DEFAULT_255_2_778
10
24.823402
20
-0.9802182
40
4.392134
50
124.5716482
51
128.4134721
0
ARC
8
DEFAULT_255_2_778
10
28.5503683
20
-5.7406904
40
10.4379407
50
128.2071931
51
129.3086092
0
LINE
8
DEFAULT_255_2_778
10
12.9501627
20
3.5606144
11
12.8971627
21
3.2113144
0
LINE
8
DEFAULT_255_2_778
10
12.8971627
20
3.2113144
11
13.6327627
21
3.2113144
0
LINE
8
DEFAULT_255_2_778
10
13.6327627
20
3.2113144
11
13.5718627
21
2.8462144
0
LINE
8
DEFAULT_255_2_778
10
13.5718627
20
2.8462144
11
12.8469627
21
2.8462144
0
LINE
8
DEFAULT_255_2_778
10
12.8469627
20
2.8462144
11
12.5294627
21
0.5655144
0
LINE
8
DEFAULT_255_2_778
10
11.1694627
20
-0.0906856
11
11.2435627
21
0.2586144
0
LINE
8
DEFAULT_255_2_778
10
11.2435627
20
0.2586144
11
11.6086627
21
0.2586144
0
LINE
8
DEFAULT_255_2_778
10
12.0663627
20
0.6369144
11
12.3785627
21
2.8436144
0
LINE
8
DEFAULT_255_2_778
10
12.3785627
20
2.8436144
11
11.9552627
21
2.8436144
0
LINE
8
DEFAULT_255_2_778
10
11.9552627
20
2.8436144
11
11.9870627
21
3.1875144
0
LINE
8
DEFAULT_255_2_778
10
11.9870627
20
3.1875144
11
12.4209627
21
3.2140144
0
LINE
8
DEFAULT_255_2_778
10
12.4209627
20
3.2140144
11
12.4791627
21
3.6373144
0
LINE
8
DEFAULT_255_2_778
10
13.9528627
20
4.2935144
11
13.8734627
21
3.9442144
0
LINE
8
DEFAULT_255_2_778
10
13.8734627
20
3.9442144
11
13.4131627
21
3.9389144
0
LINE
8
DEFAULT_255_2_778
10
15.6303627
20
2.8277144
11
15.4980627
21
2.8277144
0
LINE
8
DEFAULT_255_2_778
10
14.5587627
20
2.3461144
11
14.3470627
21
0.8327144
0
LINE
8
DEFAULT_255_2_778
10
14.3470627
20
0.8327144
11
13.8761627
21
0.8327144
0
LINE
8
DEFAULT_255_2_778
10
13.8761627
20
0.8327144
11
14.2121627
21
3.2140144
0
LINE
8
DEFAULT_255_2_778
10
14.2121627
20
3.2140144
11
14.5720627
21
3.2140144
0
LINE
8
DEFAULT_255_2_778
10
14.5720627
20
3.2140144
11
14.5455627
21
2.6689144
0
LINE
8
DEFAULT_255_2_778
10
15.6038627
20
3.2775144
11
15.7308627
21
3.2775144
0
LINE
8
DEFAULT_255_2_778
10
15.7308627
20
3.2775144
11
15.6303627
21
2.8277144
0
LINE
8
DEFAULT_255_2_778
10
17.2760627
20
1.8223144
11
16.4558627
21
1.7482144
0
LINE
8
DEFAULT_255_2_778
10
17.9269627
20
1.2322144
11
17.9507627
21
0.9148144
0
LINE
8
DEFAULT_255_2_778
10
16.4822627
20
2.0816144
11
17.2760627
21
2.1689144
0
LINE
8
DEFAULT_255_2_778
10
20.8161627
20
3.1902144
11
20.7579627
21
2.8594144
0
LINE
8
DEFAULT_255_2_778
10
19.5408627
20
2.3567144
11
20.1917627
21
2.0657144
0
LINE
8
DEFAULT_255_2_778
10
18.6042627
20
0.8460144
11
18.6571627
21
1.1952144
0
LINE
8
DEFAULT_255_2_778
10
18.6571627
20
1.1952144
11
19.3980627
21
1.1688144
0
LINE
8
DEFAULT_255_2_778
10
19.8954627
20
1.7138144
11
19.2524627
21
2.0154144
0
LINE
8
DEFAULT_255_2_778
10
23.6392627
20
2.6001144
11
23.3746627
21
0.8274144
0
LINE
8
DEFAULT_255_2_778
10
23.3746627
20
0.8274144
11
22.9090627
21
0.8274144
0
LINE
8
DEFAULT_255_2_778
10
22.9090627
20
0.8274144
11
23.1365627
21
2.4811144
0
LINE
8
DEFAULT_255_2_778
10
21.9379627
20
2.3356144
11
21.7263627
21
0.8195144
0
LINE
8
DEFAULT_255_2_778
10
21.7263627
20
0.8195144
11
21.2553627
21
0.8195144
0
LINE
8
DEFAULT_255_2_778
10
21.2553627
20
0.8195144
11
21.7369627
21
4.2247144
0
LINE
8
DEFAULT_255_2_778
10
21.7369627
20
4.2247144
11
22.2025627
21
4.2247144
0
LINE
8
DEFAULT_255_2_778
10
22.2025627
20
4.2247144
11
22.0941627
21
3.3119144
0
ENDSEC
0
EOF