0
SECTION
2
HEADER
9
$MEASUREMENT
70
1
0
ENDSEC
0
SECTION
2
TABLES
0
TABLE
2
LTYPE
0
LTYPE
72
65
70
64
2
CONTINUOUS
3
______
73
0
40
0
0
ENDTAB
0
TABLE
2
LAYER
0
LAYER
2
DEFAULT_255_2_778
70
0
62
255
6
CONTINUOUS
0
ENDTAB
0
ENDSEC
0
SECTION
2
ENTITIES
0
ARC
8
DEFAULT_255_2_778
10
8.7418212
20
7.154296
40
0.4510941
50
43.8095323
51
44.4999447
0
ARC
8
DEFAULT_255_2_778
10
8.1357858
20
6.5728758
40
1.2909325
50
42.6789467
51
43.8114392
0
ARC
8
DEFAULT_255_2_778
10
7.4768615
20
5.9642513
40
2.1879302
50
41.4250212
51
42.6988706
0
ARC
8
DEFAULT_255_2_778
10
6.8894919
20
5.4452709
40
2.9717308
50
40.063073
51
41.4349718
0
ARC
8
DEFAULT_255_2_778
10
6.4204055
20
5.0498959
40
3.5852151
50
38.8080726
51
40.0738852
0
ARC
8
DEFAULT_255_2_778
10
6.0068879
20
4.7176684
40
4.11566
50
37.1226046
51
38.8043291
0
ARC
8
DEFAULT_255_2_778
10
5.6357943
20
4.4364023
40
4.5813005
50
35.3408406
51
37.1263939
0
ARC
8
DEFAULT_255_2_778
10
5.3613339
20
4.2413028
40
4.9180381
50
33.6561648
51
35.3453719
0
ARC
8
DEFAULT_255_2_778
10
5.1515727
20
4.1016718
40
5.1700232
50
31.6429006
51
33.6558834
0
ARC
8
DEFAULT_255_2_778
10
4.9877885
20
4.000617
40
5.3624742
50
29.4136016
51
31.6440367
0
ARC
8
DEFAULT_255_2_778
10
4.8930469
20
3.9467816
40
5.4714425
50
28.011187
51
29.4174477
0
ARC
8
DEFAULT_255_2_778
10
4.824419
20
3.9105251
40
5.5490586
50
25.1687898
51
28.0089012
0
ARC
8
DEFAULT_255_2_778
10
4.7724299
20
3.8859675
40
5.6065557
50
22.0091178
51
25.1699732
0
ARC
8
DEFAULT_255_2_778
10
4.7503711
20
3.8769617
40
5.6303819
50
18.6812326
51
22.0099613
0
ARC
8
DEFAULT_255_2_778
10
4.7400187
20
3.8734599
40
5.6413104
50
14.9480336
51
18.6812469
0
ARC
8
DEFAULT_255_2_778
10
4.7219017
20
3.8687123
40
5.6600389
50
10.9762422
51
14.9471604
0
ARC
8
DEFAULT_255_2_778
10
4.6775046
20
3.8602535
40
5.7052343
50
6.9808207
51
10.9747437
0
ARC
8
DEFAULT_255_2_778
10
4.5891602
20
3.8497022
40
5.7942063
50
2.7619538
51
6.9782094
0
ARC
8
DEFAULT_255_2_778
10
4.4717208
20
3.8436876
40
5.911799
50
359.9954812
51
2.7653326
0
ARC
8
DEFAULT_255_2_778
10
4.3608813
20
3.8435524
40
6.0226385
50
357.862389
51
359.9968504
0
ARC
8
DEFAULT_255_2_778
10
4.250774
20
3.8476279
40
6.1328212
50
355.9423217
51
357.8627102
0
ARC
8
DEFAULT_255_2_778
10
4.11919
20
3.857101
40
6.2647456
50
353.7698442
51
355.9410558
0
ARC
8
DEFAULT_255_2_778
10
3.9713649
20
3.8731161
40
6.4134358
50
351.957149
51
353.7709326
0
ARC
8
DEFAULT_255_2_778
10
3.8176614
20
3.8948724
40
6.5686714
50
350.1428983
51
351.9568258
0
ARC
8
DEFAULT_255_2_778
10
8.1629713
20
8.1122563
40
5.749546
50
291.7055484
51
297.4968326
0
ARC
8
DEFAULT_255_2_778
10
8.6017296
20
7.271314
40
4.801025
50
297.4857123
51
304.4012227
0
ARC
8
DEFAULT_255_2_778
10
8.9994747
20
6.6910864
40
4.0975584
50
304.3961832
51
312.7124215
0
ARC
8
DEFAULT_255_2_778
10
9.3039216
20
6.3603361
40
3.6480216
50
312.7227312
51
323.065029
0
ARC
8
DEFAULT_255_2_778
10
9.3928356
20
6.2876058
40
3.53325
50
323.1413354
51
336.1601097
0
ARC
8
DEFAULT_255_2_778
10
8.9692105
20
6.4608201
40
3.9907615
50
336.3436846
51
350.3896031
0
ARC
8
DEFAULT_255_2_778
10
14.8642378
20
5.2617834
40
2.0313873
50
164.4992949
51
164.794722
0
ARC
8
DEFAULT_255_2_778
10
17.7030369
20
4.4762236
40
4.9768726
50
164.195171
51
164.5186701
0
ARC
8
DEFAULT_255_2_778
10
20.4791782
20
3.6899659
40
7.8622082
50
163.7009344
51
164.1921126
0
ARC
8
DEFAULT_255_2_778
10
22.9683214
20
2.9628974
40
10.4553649
50
163.1361292
51
163.7049516
0
ARC
8
DEFAULT_255_2_778
10
24.6956814
20
2.4399278
40
12.2601557
50
162.5009903
51
163.1390496
0
ARC
8
DEFAULT_255_2_778
10
25.6482486
20
2.1403339
40
13.2587249
50
161.8894331
51
162.5040043
0
ARC
8
DEFAULT_255_2_778
10
26.0521875
20
2.0084498
40
13.6836485
50
160.9913284
51
161.8903323
0
ARC
8
DEFAULT_255_2_778
10
25.8777199
20
2.0693974
40
13.4988435
50
159.8793839
51
160.9947157
0
ARC
8
DEFAULT_255_2_778
10
25.067156
20
2.3678489
40
12.6350813
50
158.4123882
51
159.8857554
0
ARC
8
DEFAULT_255_2_778
10
23.3892699
20
3.0384848
40
10.8281477
50
155.7443634
51
158.4455181
0
ARC
8
DEFAULT_255_2_778
10
22.1066417
20
3.60683
40
9.4252708
50
155.2350428
51
155.6912215
0
ARC
8
DEFAULT_255_2_778
10
19.9956329
20
4.6193172
40
7.0843624
50
148.7703746
51
155.5187407
0
ARC
8
DEFAULT_255_2_778
10
17.7087878
20
5.9843196
40
4.4212165
50
143.8612863
51
148.5312715
0
ARC
8
DEFAULT_255_2_778
10
16.6709627
20
6.7428517
40
3.1357393
50
138.3717795
51
143.8710597
0
ARC
8
DEFAULT_255_2_778
10
16.1345986
20
7.2125366
40
2.4228193
50
135.1688723
51
138.2481492
0
ARC
8
DEFAULT_255_2_778
10
13.3717872
20
15.5438537
40
6.7050489
50
277.3716482
51
278.9625972
0
ARC
8
DEFAULT_255_2_778
10
13.4055209
20
15.285599
40
6.4446005
50
275.6741812
51
277.3688076
0
ARC
8
DEFAULT_255_2_778
10
13.4038171
20
15.3089224
40
6.4679781
50
274.0654041
51
275.6687729
0
ARC
8
DEFAULT_255_2_778
10
13.3704452
20
15.7933416
40
6.9535444
50
272.5352201
51
274.0567108
0
ARC
8
DEFAULT_255_2_778
10
13.2945017
20
17.6078851
40
8.7696724
50
271.0162765
51
272.506509
0
ARC
8
DEFAULT_255_2_778
10
13.1001325
20
29.8754447
40
21.0387626
50
270.1987915
51
270.9529746
0
ARC
8
DEFAULT_255_2_778
10
13.2646394
20
-13.9589287
40
22.7959209
50
90.2300081
51
90.7851784
0
ARC
8
DEFAULT_255_2_778
10
13.1233934
20
-2.3375043
40
11.1736667
50
90.8775894
51
90.952716
0
ARC
8
DEFAULT_255_2_778
10
12.9965004
20
3.1235222
40
5.7113992
50
90.5908298
51
95.5936671
0
ARC
8
DEFAULT_255_2_778
10
12.8736954
20
4.5804604
40
4.2494746
50
95.8605203
51
100.3677774
0
ARC
8
DEFAULT_255_2_778
10
12.9324957
20
4.2734719
40
4.5620337
50
100.4003411
51
104.1710787
0
ARC
8
DEFAULT_255_2_778
10
13.1389459
20
3.4581285
40
5.4031082
50
104.1769849
51
107.4080699
0
ARC
8
DEFAULT_255_2_778
10
13.5166496
20
2.2508337
40
6.6681063
50
107.4012956
51
110.0268
0
ARC
8
DEFAULT_255_2_778
10
14.08846
20
0.6791487
40
8.3405775
50
110.0199011
51
112.1899293
0
ARC
8
DEFAULT_255_2_778
10
14.8719048
20
-1.2459555
40
10.4189928
50
112.1808611
51
113.9173052
0
ARC
8
DEFAULT_255_2_778
10
15.9248323
20
-3.620731
40
13.0167254
50
113.9161528
51
115.4724208
0
ARC
8
DEFAULT_255_2_778
10
17.2171733
20
-6.3407949
40
16.0281845
50
115.4612674
51
116.5893163
0
ARC
8
DEFAULT_255_2_778
10
18.813837
20
-9.5285788
40
19.5934755
50
116.5921504
51
117.7214679
0
ARC
8
DEFAULT_255_2_778
10
20.7722111
20
-13.2617588
40
23.8091433
50
117.7142808
51
118.5536033
0
ARC
8
DEFAULT_255_2_778
10
22.9661944
20
-17.294613
40
28.4001644
50
118.5526009
51
119.3087628
0
ARC
8
DEFAULT_255_2_778
10
9.7876168
20
2.0477157
40
0.3823071
50
169.1099946
51
169.4563825
0
ARC
8
DEFAULT_255_2_778
10
9.8545739
20
2.0347824
40
0.4505019
50
168.8414549
51
169.1035577
0
ARC
8
DEFAULT_255_2_778
10
9.9267569
20
2.0204847
40
0.5240872
50
168.6019537
51
168.8350921
0
ARC
8
DEFAULT_255_2_778
10
10.0562139
20
1.9943072
40
0.6561643
50
168.4030237
51
168.5951973
0
ARC
8
DEFAULT_255_2_778
10
10.0787313
20
1.9896835
40
0.6791515
50
168.2116373
51
168.4027901
0
ARC
8
DEFAULT_255_2_778
10
10.1898815
20
1.9665913
40
0.7926751
50
168.0508008
51
168.2190454
0
ARC
8
DEFAULT_255_2_778
10
10.2958134
20
1.9443305
40
0.9009205
50
167.9088429
51
168.0606078
0
ARC
8
DEFAULT_255_2_778
10
10.399667
20
1.9221795
40
1.00711
50
167.8221143
51
167.9142119
0
ARC
8
DEFAULT_255_2_778
10
10.7786137
20
1.8403029
40
1.3948011
50
167.7506833
51
167.8181603
0
ARC
8
DEFAULT_255_2_778
10
10.7312994
20
1.8505568
40
1.3463885
50
167.6790318
51
167.749913
0
ARC
8
DEFAULT_255_2_778
10
10.6882587
20
1.8599948
40
1.302325
50
167.6063758
51
167.6806301
0
ARC
8
DEFAULT_255_2_778
10
11.2747862
20
1.7308224
40
1.9029079
50
167.5465498
51
167.5980114
0
ARC
8
DEFAULT_255_2_778
10
10.6072404
20
1.8783965
40
1.2192447
50
167.4722258
51
167.5535102
0
ARC
8
DEFAULT_255_2_778
10
11.2360325
20
1.7391835
40
1.863263
50
167.4336355
51
167.4874337
0
ARC
8
DEFAULT_255_2_778
10
13.0930438
20
1.3243178
40
3.7660514
50
167.3930825
51
167.4199893
0
ARC
8
DEFAULT_255_2_778
10
11.0282806
20
1.7860655
40
1.6502872
50
167.329576
51
167.3916148
0
ARC
8
DEFAULT_255_2_778
10
12.238404
20
1.5139219
40
2.8906341
50
167.2921297
51
167.3278972
0
ARC
8
DEFAULT_255_2_778
10
11.940341
20
1.5812616
40
2.585059
50
167.2544691
51
167.2948392
0
ARC
8
DEFAULT_255_2_778
10
12.0277561
20
1.5615379
40
2.6746717
50
167.2161301
51
167.2554951
0
ARC
8
DEFAULT_255_2_778
10
14.650334
20
0.9658396
40
5.3640528
50
167.1896735
51
167.2094682
0
ARC
8
DEFAULT_255_2_778
10
13.6741788
20
1.1867909
40
4.3632045
50
167.1522005
51
167.1767314
0
ARC
8
DEFAULT_255_2_778
10
13.8131766
20
1.1548865
40
4.5058168
50
167.1257486
51
167.1496843
0
ARC
8
DEFAULT_255_2_778
10
13.9618523
20
1.1204535
40
4.6584272
50
167.0970103
51
167.1203295
0
ARC
8
DEFAULT_255_2_778
10
13.2008052
20
1.2951323
40
3.877591
50
167.0736123
51
167.1018198
0
ARC
8
DEFAULT_255_2_778
10
12.6742456
20
1.4162601
40
3.3372791
50
167.0452144
51
167.078202
0
ARC
8
DEFAULT_255_2_778
10
16.7764239
20
0.4727787
40
7.5465575
50
167.0318092
51
167.046487
0
ARC
8
DEFAULT_255_2_778
10
12.328227
20
1.4977259
40
2.9818045
50
167.0056954
51
167.0430596
0
ARC
8
DEFAULT_255_2_778
10
17.1753532
20
0.3803954
40
7.956044
50
167.0001002
51
167.014181
0
ARC
8
DEFAULT_255_2_778
10
15.182471
20
0.8406185
40
5.9107116
50
166.9823104
51
167.0013622
0
ARC
8
DEFAULT_255_2_778
10
87.105785
20
-15.7902538
40
79.7317723
50
166.9790176
51
166.9804369
0
ARC
8
DEFAULT_255_2_778
10
26.5203425
20
-1.7820272
40
17.5479623
50
166.9649152
51
166.9713937
0
ARC
8
DEFAULT_255_2_778
10
27.0883478
20
-1.9156
40
18.1314584
50
166.952239
51
166.9585363
0
ARC
8
DEFAULT_255_2_778
10
19.2387687
20
-0.0958641
40
10.0737087
50
166.944318
51
166.9556985
0
ARC
8
DEFAULT_255_2_778
10
2.5083157
20
3.7858159
40
7.1011423
50
346.9284338
51
346.9446399
0
ARC
8
DEFAULT_255_2_778
10
-400.0375993
20
97.3610802
40
420.3801557
50
346.9140428
51
346.9188064
0
ARC
8
DEFAULT_255_2_778
10
-2.3273082
20
4.9485899
40
12.0744565
50
346.9188403
51
347.1769201
0
ARC
8
DEFAULT_255_2_778
10
1.3881023
20
4.1022071
40
8.2638607
50
347.1815731
51
347.6623771
0
ARC
8
DEFAULT_255_2_778
10
2.3355565
20
3.8946449
40
7.2939372
50
347.664924
51
348.3742107
0
ARC
8
DEFAULT_255_2_778
10
2.6407288
20
3.8315761
40
6.9823161
50
348.376484
51
349.0709411
0
ARC
8
DEFAULT_255_2_778
10
2.7511136
20
3.8102245
40
6.8698852
50
349.0712423
51
349.844222
0
ARC
8
DEFAULT_255_2_778
10
2.810044
20
3.7996838
40
6.8100196
50
349.8440928
51
350.8117916
0
ARC
8
DEFAULT_255_2_778
10
2.8592806
20
3.7916916
40
6.7601385
50
350.812026
51
351.7296559
0
ARC
8
DEFAULT_255_2_778
10
2.9217708
20
3.7826888
40
6.6970032
50
351.7289743
51
353.0309324
0
ARC
8
DEFAULT_255_2_778
10
3.0203309
20
3.7707281
40
6.5977201
50
353.0301829
51
354.5655381
0
ARC
8
DEFAULT_255_2_778
10
3.1684928
20
3.7568095
40
6.4489059
50
354.5639747
51
356.4510898
0
ARC
8
DEFAULT_255_2_778
10
3.3684673
20
3.7445974
40
6.2485591
50
356.4493486
51
358.6035233
0
ARC
8
DEFAULT_255_2_778
10
3.5565822
20
3.7396177
40
6.0603786
50
358.6072463
51
359.9972204
0
ARC
8
DEFAULT_255_2_778
10
3.7902474
20
3.74071
40
5.8267136
50
359.986368
51
3.0349044
0
ARC
8
DEFAULT_255_2_778
10
4.1317754
20
3.7593172
40
5.4846793
50
3.0296896
51
6.7130816
0
ARC
8
DEFAULT_255_2_778
10
4.4954323
20
3.802654
40
5.1184496
50
6.7071596
51
11.1532021
0
ARC
8
DEFAULT_255_2_778
10
4.836547
20
3.8699972
40
4.770751
50
11.1521392
51
16.1274812
0
ARC
8
DEFAULT_255_2_778
10
5.0866296
20
3.9413216
40
4.5106981
50
16.1395399
51
20.3678384
0
ARC
8
DEFAULT_255_2_778
10
5.2466038
20
4.0003964
40
4.3401652
50
20.3717601
51
24.5947581
0
ARC
8
DEFAULT_255_2_778
10
5.3471009
20
4.0461111
40
4.2297594
50
24.5982716
51
28.8841057
0
ARC
8
DEFAULT_255_2_778
10
5.391744
20
4.0704063
40
4.1789343
50
28.8881033
51
32.9637633
0
ARC
8
DEFAULT_255_2_778
10
5.3925131
20
4.0707499
40
4.1781023
50
32.9655492
51
35.4694422
0
ARC
8
DEFAULT_255_2_778
10
3.2677725
20
1.5104199
40
7.4431794
50
42.0444809
51
46.0625828
0
ARC
8
DEFAULT_255_2_778
10
3.0816255
20
1.3172838
40
7.7114186
50
46.0623425
51
49.6019833
0
ARC
8
DEFAULT_255_2_778
10
2.8687325
20
1.0666209
40
8.0402884
50
49.6042787
51
53.1758363
0
ARC
8
DEFAULT_255_2_778
10
2.6480462
20
0.7725946
40
8.407921
50
53.1729282
51
56.1417232
0
ARC
8
DEFAULT_255_2_778
10
2.4402754
20
0.4630502
40
8.7807299
50
56.1412213
51
58.9123623
0
ARC
8
DEFAULT_255_2_778
10
2.1738164
20
0.0160353
40
9.3011299
50
58.9285375
51
63.242516
0
ARC
8
DEFAULT_255_2_778
10
1.9032989
20
-0.5170585
40
9.8989312
50
63.2335813
51
66.645435
0
ARC
8
DEFAULT_255_2_778
10
1.7206706
20
-0.9377405
40
10.357544
50
66.6404633
51
69.5563872
0
ARC
8
DEFAULT_255_2_778
10
1.6205253
20
-1.204142
40
10.6421459
50
69.552147
51
72.0268152
0
ARC
8
DEFAULT_255_2_778
10
1.5982887
20
-1.2707908
40
10.7124038
50
72.023683
51
73.9959455
0
ARC
8
DEFAULT_255_2_778
10
1.6355062
20
-1.13997
40
10.5763924
50
73.9943588
51
75.58661
0
ARC
8
DEFAULT_255_2_778
10
1.724405
20
-0.791914
40
10.2171631
50
75.583604
51
77.1955363
0
ARC
8
DEFAULT_255_2_778
10
1.842291
20
-0.2753726
40
9.6873406
50
77.1983524
51
78.2164917
0
ARC
8
DEFAULT_255_2_778
10
1.9866937
20
0.4211428
40
8.9760143
50
78.2108823
51
79.4680207
0
ARC
8
DEFAULT_255_2_778
10
2.1877027
20
1.5052515
40
7.8734283
50
79.4641246
51
80.6559715
0
ARC
8
DEFAULT_255_2_778
10
2.4030862
20
2.8127147
40
6.5483435
50
80.6580986
51
81.5738621
0
ARC
8
DEFAULT_255_2_778
10
2.6313178
20
4.3605076
40
4.9838145
50
81.5619429
51
82.5315861
0
ARC
8
DEFAULT_255_2_778
10
2.871497
20
6.193645
40
3.1350098
50
82.529232
51
83.2906702
0
ARC
8
DEFAULT_255_2_778
10
3.0910391
20
8.0665348
40
1.2492966
50
83.2550932
51
83.9059907
0
ARC
8
DEFAULT_255_2_778
10
-1.9707513
20
6.6389904
40
5.8403501
50
25.4547824
51
27.2018697
0
ARC
8
DEFAULT_255_2_778
10
-1.9708371
20
6.6390624
40
5.8403966
50
24.4199403
51
25.4537824
0
ARC
8
DEFAULT_255_2_778
10
-3.0052644
20
6.2120863
40
6.9589135
50
15.4362094
51
24.0998588
0
ARC
8
DEFAULT_255_2_778
10
-8.7923738
20
4.5285729
40
12.9856215
50
13.9837605
51
15.8000311
0
ARC
8
DEFAULT_255_2_778
10
-17.167742
20
2.4229172
40
21.6216134
50
13.3520539
51
14.0350938
0
ARC
8
DEFAULT_255_2_778
10
-25.0426231
20
0.5398638
40
29.718496
50
13.3691879
51
13.3782302
0
ARC
8
DEFAULT_255_2_778
10
-19.2172235
20
1.9236555
40
23.7309957
50
13.3595322
51
13.3708418
0
ARC
8
DEFAULT_255_2_778
10
-24.9360851
20
0.5646281
40
29.6091189
50
13.3521174
51
13.3611704
0
ARC
8
DEFAULT_255_2_778
10
-24.8906325
20
0.5773866
40
29.5619484
50
13.3393457
51
13.3484019
0
ARC
8
DEFAULT_255_2_778
10
-24.8352069
20
0.589981
40
29.5051126
50
13.3313185
51
13.3403808
0
ARC
8
DEFAULT_255_2_778
10
-19.0508178
20
1.9600208
40
23.5606895
50
13.3215712
51
13.3329058
0
ARC
8
DEFAULT_255_2_778
10
-24.7296422
20
0.6145175
40
29.3967349
50
13.3140695
51
13.3231425
0
ARC
8
DEFAULT_255_2_778
10
-24.6745815
20
0.6270266
40
29.3402734
50
13.3059802
51
13.3150593
0
ARC
8
DEFAULT_255_2_778
10
-24.6196425
20
0.6395074
40
29.2839366
50
13.2978704
51
13.3069556
0
ARC
8
DEFAULT_255_2_778
10
-24.5697336
20
0.6513958
40
29.2326313
50
13.2886043
51
13.2976941
0
ARC
8
DEFAULT_255_2_778
10
-24.5150335
20
0.663821
40
29.1765398
50
13.2804522
51
13.2895482
0
ARC
8
DEFAULT_255_2_778
10
-24.4604538
20
0.6762182
40
29.1205717
50
13.2722794
51
13.2813815
0
ARC
8
DEFAULT_255_2_778
10
-24.4108942
20
0.6880254
40
29.069625
50
13.262948
51
13.2720547
0
ARC
8
DEFAULT_255_2_778
10
-24.3565507
20
0.7003678
40
29.0138993
50
13.2547325
51
13.2638453
0
ARC
8
DEFAULT_255_2_778
10
-24.3023261
20
0.7126825
40
28.9582957
50
13.2464959
51
13.2556149
0
ARC
8
DEFAULT_255_2_778
10
-24.2531119
20
0.7244097
40
28.9077037
50
13.2370985
51
13.246222
0
ARC
8
DEFAULT_255_2_778
10
-24.199121
20
0.7366704
40
28.8523399
50
13.2288188
51
13.2379484
0
ARC
8
DEFAULT_255_2_778
10
444.1223538
20
110.8068392
40
452.230237
50
193.2260824
51
193.2266641
0
ARC
8
DEFAULT_255_2_778
10
-24.0862598
20
0.7604212
40
28.7370385
50
13.2159172
51
13.2250606
0
ARC
8
DEFAULT_255_2_778
10
-18.4500019
20
2.0834766
40
22.9475757
50
13.2058641
51
13.2173001
0
ARC
8
DEFAULT_255_2_778
10
-23.9839664
20
0.7841984
40
28.6320181
50
13.1980758
51
13.2072299
0
ARC
8
DEFAULT_255_2_778
10
424.3845233
20
105.9193159
40
431.8977804
50
193.1964128
51
193.1970189
0
ARC
8
DEFAULT_255_2_778
10
-23.8720105
20
0.8077413
40
28.5176441
50
13.1850335
51
13.1942014
0
ARC
8
DEFAULT_255_2_778
10
-23.8188236
20
0.8198167
40
28.4631049
50
13.1766136
51
13.1857877
0
ARC
8
DEFAULT_255_2_778
10
-23.760504
20
0.831182
40
28.4037301
50
13.1719262
51
13.181108
0
ARC
8
DEFAULT_255_2_778
10
-18.1886851
20
2.1346303
40
22.6814802
50
13.1617462
51
13.1732302
0
ARC
8
DEFAULT_255_2_778
10
402.2646
20
100.4463624
40
409.1126393
50
193.160576
51
193.1612119
0
ARC
8
DEFAULT_255_2_778
10
-23.6015579
20
0.8659419
40
28.2410444
50
13.149108
51
13.1583083
0
ARC
8
DEFAULT_255_2_778
10
394.3999299
20
98.5029176
40
401.0120545
50
193.1473324
51
193.1479796
0
ARC
8
DEFAULT_255_2_778
10
-23.491155
20
0.8891313
40
28.1282607
50
13.1358291
51
13.1450433
0
ARC
8
DEFAULT_255_2_778
10
386.7451504
20
96.6118476
40
393.1277953
50
193.1340224
51
193.1346809
0
ARC
8
DEFAULT_255_2_778
10
-23.38119
20
0.9122216
40
28.0159255
50
13.1224836
51
13.1317117
0
ARC
8
DEFAULT_255_2_778
10
378.8539102
20
94.6610161
40
384.9997066
50
193.1194906
51
193.1201613
0
ARC
8
DEFAULT_255_2_778
10
-23.2716597
20
0.9352136
40
27.9040354
50
13.1090708
51
13.1183128
0
ARC
8
DEFAULT_255_2_778
10
-23.2144239
20
0.9463356
40
27.8457687
50
13.1042432
51
13.1134931
0
ARC
8
DEFAULT_255_2_778
10
369.238136
20
92.2908961
40
375.0969574
50
193.1023613
51
193.1030471
0
ARC
8
DEFAULT_255_2_778
10
-23.1055382
20
0.9691825
40
27.7345384
50
13.0907342
51
13.0999981
0
ARC
8
DEFAULT_255_2_778
10
-23.0486212
20
0.9802338
40
27.6765977
50
13.0858663
51
13.095138
0
ARC
8
DEFAULT_255_2_778
10
359.533427
20
89.8977837
40
365.102417
50
193.0839401
51
193.0846421
0
ARC
8
DEFAULT_255_2_778
10
356.8551806
20
89.2389735
40
362.3445603
50
193.0790482
51
193.0797546
0
ARC
8
DEFAULT_255_2_778
10
-22.8837718
20
1.0139188
40
27.5084021
50
13.0673514
51
13.076645
0
ARC
8
DEFAULT_255_2_778
10
-22.8272749
20
1.0248774
40
27.4508906
50
13.0624308
51
13.0717323
0
ARC
8
DEFAULT_255_2_778
10
-22.7660847
20
1.0363552
40
27.3886897
50
13.0586612
51
13.0679722
0
ARC
8
DEFAULT_255_2_778
10
345.0052482
20
86.3199391
40
350.1414987
50
193.0555022
51
193.0562296
0
ARC
8
DEFAULT_255_2_778
10
342.4617154
20
85.6946942
40
347.5224735
50
193.0505451
51
193.051277
0
ARC
8
DEFAULT_255_2_778
10
-22.6075973
20
1.0691505
40
27.2268904
50
13.0387609
51
13.0480923
0
ARC
8
DEFAULT_255_2_778
10
-22.5468348
20
1.0805348
40
27.1651263
50
13.0349413
51
13.0442823
0
ARC
8
DEFAULT_255_2_778
10
-22.4909613
20
1.0913569
40
27.1082518
50
13.0299438
51
13.0392928
0
ARC
8
DEFAULT_255_2_778
10
-22.4351898
20
1.1021567
40
27.0514814
50
13.0249341
51
13.034291
0
ARC
8
DEFAULT_255_2_778
10
-22.37952
20
1.1129345
40
26.994815
50
13.019912
51
13.0292768
0
ARC
8
DEFAULT_255_2_778
10
-22.3239516
20
1.1236903
40
26.9382521
50
13.0148775
51
13.0242503
0
ARC
8
DEFAULT_255_2_778
10
-30.9957369
20
-0.8831271
40
35.8392168
50
13.0115892
51
13.0186254
0
ARC
8
DEFAULT_255_2_778
10
-22.2083598
20
1.1456715
40
26.8206794
50
13.0059442
51
13.0153347
0
ARC
8
DEFAULT_255_2_778
10
-22.1530975
20
1.156361
40
26.7644291
50
13.0008734
51
13.0102718
0
ARC
8
DEFAULT_255_2_778
10
-22.0979352
20
1.1670289
40
26.7082811
50
12.99579
51
13.0051965
0
ARC
8
DEFAULT_255_2_778
10
-22.0428727
20
1.1776751
40
26.6522349
50
12.990694
51
13.0001086
0
ARC
8
DEFAULT_255_2_778
10
314.2872936
20
78.778129
40
318.514118
50
192.9924561
51
192.9932429
0
ARC
8
DEFAULT_255_2_778
10
312.0132327
20
78.2199714
40
316.1727885
50
192.9873396
51
192.9881313
0
ARC
8
DEFAULT_255_2_778
10
309.7589121
20
77.666728
40
313.8518016
50
192.9822104
51
192.9830069
0
ARC
8
DEFAULT_255_2_778
10
-30.3918998
20
-0.7577526
40
35.2226518
50
12.977078
51
12.9841663
0
ARC
8
DEFAULT_255_2_778
10
-30.3194757
20
-0.7422857
40
35.1486041
50
12.9719264
51
12.9790208
0
ARC
8
DEFAULT_255_2_778
10
-30.2471816
20
-0.7268488
40
35.0746898
50
12.9667619
51
12.9738624
0
ARC
8
DEFAULT_255_2_778
10
302.6663145
20
75.9351242
40
306.5515006
50
192.9678968
51
192.9687082
0
ARC
8
DEFAULT_255_2_778
10
300.4884272
20
75.4008849
40
304.3092735
50
192.9627108
51
192.9635271
0
ARC
8
DEFAULT_255_2_778
10
-21.527101
20
1.2728165
40
26.1282712
50
12.9557533
51
12.9652493
0
ARC
8
DEFAULT_255_2_778
10
-21.4730308
20
1.2832507
40
26.0732381
50
12.9505429
51
12.9600471
0
ARC
8
DEFAULT_255_2_778
10
295.4504417
20
74.1718418
40
299.1239854
50
192.9522474
51
192.9530748
0
ARC
8
DEFAULT_255_2_778
10
293.3312014
20
73.6521825
40
296.9421899
50
192.9470157
51
192.9478481
0
ARC
8
DEFAULT_255_2_778
10
-21.3014578
20
1.3143079
40
25.899069
50
12.9400154
51
12.9495477
0
ARC
8
DEFAULT_255_2_778
10
290.4995984
20
72.9644022
40
294.028477
50
192.9417053
51
192.9425439
0
ARC
8
DEFAULT_255_2_778
10
-21.1842648
20
1.3348702
40
25.7802477
50
12.9346848
51
12.9442371
0
ARC
8
DEFAULT_255_2_778
10
-29.4915896
20
-0.5745851
40
34.304194
50
12.9300063
51
12.9371761
0
ARC
8
DEFAULT_255_2_778
10
77.7737948
20
24.050624
40
75.7515355
50
192.929289
51
192.9325317
0
ARC
8
DEFAULT_255_2_778
10
-29.3367613
20
-0.5445441
40
34.1465697
50
12.9246301
51
12.931815
0
ARC
8
DEFAULT_255_2_778
10
77.3362435
20
23.9341189
40
75.2990099
50
192.9239011
51
192.9271553
0
ARC
8
DEFAULT_255_2_778
10
-20.9026402
20
1.3854619
40
25.4944432
50
12.9174274
51
12.9270265
0
ARC
8
DEFAULT_255_2_778
10
314.148857
20
78.2319613
40
318.2567609
50
192.9178131
51
192.9189653
0
ARC
8
DEFAULT_255_2_778
10
311.6937922
20
77.6356304
40
315.7305189
50
192.9130947
51
192.9142539
0
ARC
8
DEFAULT_255_2_778
10
309.2574876
20
77.0439384
40
313.2236019
50
192.9083584
51
192.9095247
0
ARC
8
DEFAULT_255_2_778
10
273.3643313
20
68.7940632
40
276.394557
50
192.9048844
51
192.9057638
0
ARC
8
DEFAULT_255_2_778
10
305.4846855
20
76.1294401
40
309.3418543
50
192.9013284
51
192.9025057
0
ARC
8
DEFAULT_255_2_778
10
-20.446305
20
1.4656096
40
25.0317365
50
12.8943149
51
12.9039939
0
ARC
8
DEFAULT_255_2_778
10
268.9256347
20
67.7183411
40
271.8277318
50
192.8959438
51
192.896834
0
ARC
8
DEFAULT_255_2_778
10
-20.3320607
20
1.4855786
40
24.9159171
50
12.8887667
51
12.8984662
0
ARC
8
DEFAULT_255_2_778
10
299.2794326
20
74.6296391
40
302.9583884
50
192.8904633
51
192.8916586
0
ARC
8
DEFAULT_255_2_778
10
264.5520432
20
66.6586643
40
267.3279595
50
192.886924
51
192.8878252
0
ARC
8
DEFAULT_255_2_778
10
263.8645335
20
66.4964016
40
266.6215774
50
192.8867871
51
192.8876896
0
ARC
8
DEFAULT_255_2_778
10
-28.0848328
20
-0.3027937
40
32.8722705
50
12.8801738
51
12.8874842
0
ARC
8
DEFAULT_255_2_778
10
261.052698
20
65.8122228
40
263.7279776
50
192.8799562
51
192.8808663
0
ARC
8
DEFAULT_255_2_778
10
260.3710103
20
65.6513604
40
263.0275838
50
192.8798099
51
192.8807212
0
ARC
8
DEFAULT_255_2_778
10
-19.901736
20
1.5588694
40
24.4800852
50
12.8725562
51
12.8823358
0
ARC
8
DEFAULT_255_2_778
10
-27.778392
20
-0.245702
40
32.5608137
50
12.8730125
51
12.8803558
0
ARC
8
DEFAULT_255_2_778
10
288.880439
20
72.1253534
40
292.2628075
50
192.873674
51
192.8748998
0
ARC
8
DEFAULT_255_2_778
10
72.7371469
20
22.7136599
40
70.5435303
50
192.8686319
51
192.8720107
0
ARC
8
DEFAULT_255_2_778
10
254.5341599
20
64.2438108
40
257.0238438
50
192.8690842
51
192.8700104
0
ARC
8
DEFAULT_255_2_778
10
284.7397649
20
71.1285994
40
288.0041384
50
192.8667946
51
192.8680331
0
LINE
8
DEFAULT_255_2_778
10
3.9686777
20
6.9882822
11
4.0289662
21
6.723976
0
ARC
8
DEFAULT_255_2_778
10
79.5107077
20
23.9317204
40
77.4183426
50
192.8423729
51
193.120742
0
ARC
8
DEFAULT_255_2_778
10
46.4810824
20
16.2380719
40
43.5045058
50
193.1274012
51
193.6287452
0
ARC
8
DEFAULT_255_2_778
10
37.8086333
20
14.1389505
40
34.5816326
50
193.6344952
51
194.2345132
0
ARC
8
DEFAULT_255_2_778
10
34.7209302
20
13.3580891
40
31.3967229
50
194.2388062
51
194.7620396
0
ARC
8
DEFAULT_255_2_778
10
33.3794338
20
13.0046493
40
30.0094478
50
194.7621286
51
195.521317
0
ARC
8
DEFAULT_255_2_778
10
33.0502309
20
12.9141014
40
29.6680203
50
195.5229546
51
196.3111512
0
ARC
8
DEFAULT_255_2_778
10
33.2920817
20
12.9846383
40
29.9199474
50
196.3107169
51
196.5821875
0
ARC
8
DEFAULT_255_2_778
10
7.855394
20
5.5589186
40
3.4248736
50
198.9666873
51
206.0745016
0
ARC
8
DEFAULT_255_2_778
10
7.7589211
20
5.5128375
40
3.317965
50
206.0919871
51
214.3806218
0
ARC
8
DEFAULT_255_2_778
10
7.8242654
20
5.5604886
40
3.3988027
50
214.4215434
51
223.8683055
0
ARC
8
DEFAULT_255_2_778
10
8.0775553
20
5.8095412
40
3.7540047
50
223.9296606
51
233.9591064
0
ARC
8
DEFAULT_255_2_778
10
8.4548543
20
6.3278725
40
4.3951146
50
233.9575906
51
242.1813014
0
ARC
8
DEFAULT_255_2_778
10
8.7357201
20
6.8431464
40
4.9819172
50
242.0899835
51
245.4065033
0
ARC
8
DEFAULT_255_2_778
10
8.9613623
20
7.344733
40
5.5319099
50
245.4435453
51
250.6622542
0
ARC
8
DEFAULT_255_2_778
10
9.1709199
20
7.9340846
40
6.1574047
50
250.6382522
51
254.4827352
0
ARC
8
DEFAULT_255_2_778
10
9.2827676
20
8.3310116
40
6.5697864
50
254.4689435
51
257.3641242
0
ARC
8
DEFAULT_255_2_778
10
9.3212039
20
8.4984792
40
6.7416061
50
257.3567208
51
259.5301857
0
ARC
8
DEFAULT_255_2_778
10
9.3094591
20
8.4318968
40
6.673998
50
259.5254647
51
261.5169008
0
ARC
8
DEFAULT_255_2_778
10
9.2630631
20
8.1196834
40
6.3583562
50
261.5153815
51
263.007298
0
ARC
8
DEFAULT_255_2_778
10
9.1925807
20
7.5391716
40
5.7735818
50
263.0002011
51
264.5207563
0
ARC
8
DEFAULT_255_2_778
10
9.1023413
20
6.5925849
40
4.8227037
50
264.5141284
51
265.8954836
0
ARC
8
DEFAULT_255_2_778
10
9.0085035
20
5.2707421
40
3.4975348
50
265.878853
51
267.2614699
0
ARC
8
DEFAULT_255_2_778
10
8.9299072
20
3.5865248
40
1.8114866
50
267.1994047
51
268.8941695
0
ARC
8
DEFAULT_255_2_778
10
8.9070812
20
2.482085
40
0.7068136
50
269.0163337
51
269.9419135
0
ARC
8
DEFAULT_255_2_778
10
10.1562779
20
2.5661315
40
1.4791018
50
212.3228322
51
217.7044047
0
ARC
8
DEFAULT_255_2_778
10
10.2783613
20
2.6605284
40
1.6334234
50
217.705103
51
222.9878177
0
ARC
8
DEFAULT_255_2_778
10
10.4136849
20
2.7867067
40
1.8184462
50
222.9887566
51
228.0919368
0
ARC
8
DEFAULT_255_2_778
10
10.5124509
20
2.8945676
40
1.9646883
50
228.0493846
51
229.7372026
0
ARC
8
DEFAULT_255_2_778
10
10.6531252
20
3.0660066
40
2.1864311
50
229.8276937
51
236.4180484
0
ARC
8
DEFAULT_255_2_778
10
10.8934689
20
3.4271274
40
2.6202203
50
236.4074919
51
242.1751408
0
ARC
8
DEFAULT_255_2_778
10
11.1415758
20
3.8957099
40
3.1504338
50
242.1624102
51
247.1354551
0
ARC
8
DEFAULT_255_2_778
10
11.3913986
20
4.4869334
40
3.7922722
50
247.1283378
51
251.5613774
0
ARC
8
DEFAULT_255_2_778
10
11.6345502
20
5.2136582
40
4.5585954
50
251.5511447
51
255.3970258
0
ARC
8
DEFAULT_255_2_778
10
11.8395684
20
5.9916262
40
5.3631214
50
255.3729427
51
258.1567052
0
ARC
8
DEFAULT_255_2_778
10
11.7609838
20
5.735303
40
4.4862633
50
255.2960261
51
258.4699944
0
ARC
8
DEFAULT_255_2_778
10
11.5723995
20
5.018691
40
3.7452528
50
251.6979732
51
255.3038919
0
ARC
8
DEFAULT_255_2_778
10
11.3703898
20
4.4095736
40
3.1035116
50
247.5915781
51
251.7074285
0
ARC
8
DEFAULT_255_2_778
10
11.1636937
20
3.9090886
40
2.5620242
50
243.0284856
51
247.5982978
0
ARC
8
DEFAULT_255_2_778
10
10.9608505
20
3.5111054
40
2.1153299
50
237.9644212
51
243.0359635
0
ARC
8
DEFAULT_255_2_778
10
10.8399307
20
3.3131196
40
1.8833539
50
236.6807035
51
237.887917
0
ARC
8
DEFAULT_255_2_778
10
10.7233766
20
3.1404687
40
1.6750612
50
230.9849318
51
236.7681772
0
ARC
8
DEFAULT_255_2_778
10
10.544547
20
2.9197851
40
1.3910168
50
224.9311973
51
230.9858075
0
ARC
8
DEFAULT_255_2_778
10
10.3804758
20
2.7563555
40
1.1594385
50
218.4908356
51
224.9398789
0
ARC
8
DEFAULT_255_2_778
10
10.2281774
20
2.635212
40
0.964835
50
212.2620292
51
218.4889933
0
ARC
8
DEFAULT_255_2_778
10
10.1452542
20
2.5811627
40
0.865864
50
211.7625491
51
212.1666635
0
ARC
8
DEFAULT_255_2_778
10
1.5053537
20
3.7299708
40
4.999851
50
17.2672467
51
19.7968657
0
ARC
8
DEFAULT_255_2_778
10
0.1030529
20
3.2270222
40
6.4896169
50
19.7817131
51
22.0487055
0
ARC
8
DEFAULT_255_2_778
10
-1.1249755
20
2.7308224
40
7.8141043
50
22.04075
51
24.3203629
0
ARC
8
DEFAULT_255_2_778
10
-1.9538799
20
2.3578512
40
8.7230531
50
24.3104974
51
26.7083902
0
ARC
8
DEFAULT_255_2_778
10
-2.1759067
20
2.2482745
40
8.9706403
50
26.6962268
51
29.135813
0
ARC
8
DEFAULT_255_2_778
10
-0.8405563
20
3.0387886
40
7.4194773
50
28.8243581
51
38.7060731
0
ARC
8
DEFAULT_255_2_778
10
1.2922611
20
4.7137471
40
4.7077843
50
39.0301401
51
45.0027146
0
ARC
8
DEFAULT_255_2_778
10
2.091456
20
5.5020033
40
3.5852958
50
45.1271731
51
48.7742521
0
ARC
8
DEFAULT_255_2_778
10
4.3326043
20
7.7519668
40
0.4628793
50
72.9205685
51
74.7617284
0
ARC
8
DEFAULT_255_2_778
10
4.1100059
20
7.0221294
40
1.2259074
50
70.5480674
51
72.9939333
0
ARC
8
DEFAULT_255_2_778
10
3.8718462
20
6.3427599
40
1.9458109
50
68.1564481
51
70.5973894
0
ARC
8
DEFAULT_255_2_778
10
3.6291342
20
5.7366934
40
2.5986704
50
65.3403788
51
68.1611938
0
ARC
8
DEFAULT_255_2_778
10
3.3870722
20
5.2070006
40
3.1810514
50
62.6985569
51
65.3586681
0
ARC
8
DEFAULT_255_2_778
10
3.1397519
20
4.7283769
40
3.719798
50
59.5725689
51
62.6948769
0
ARC
8
DEFAULT_255_2_778
10
2.8768706
20
4.2796385
40
4.2398676
50
56.5458219
51
59.5805017
0
ARC
8
DEFAULT_255_2_778
10
2.5980788
20
3.8579435
40
4.7453886
50
53.2230757
51
56.544183
0
ARC
8
DEFAULT_255_2_778
10
2.2841856
20
3.437819
40
5.2698251
50
49.835179
51
53.224262
0
ARC
8
DEFAULT_255_2_778
10
1.9311531
20
3.0194616
40
5.8172324
50
46.4048098
51
49.8356818
0
ARC
8
DEFAULT_255_2_778
10
1.5471712
20
2.6152733
40
6.3747357
50
43.3276354
51
46.4103868
0
ARC
8
DEFAULT_255_2_778
10
1.1087902
20
2.2024111
40
6.9769258
50
40.0007198
51
43.323773
0
ARC
8
DEFAULT_255_2_778
10
0.6039606
20
1.7779159
40
7.6365079
50
37.0621856
51
40.0057899
0
ARC
8
DEFAULT_255_2_778
10
0.0454233
20
1.3561236
40
8.336417
50
34.1512058
51
37.0619279
0
ARC
8
DEFAULT_255_2_778
10
-0.4692604
20
1.0043794
40
8.95981
50
32.4359051
51
34.1649959
0
ARC
8
DEFAULT_255_2_778
10
-0.9156924
20
0.7208674
40
9.4886585
50
30.6286403
51
32.4349116
0
ARC
8
DEFAULT_255_2_778
10
-1.4254588
20
0.4191223
40
10.0810367
50
28.8156764
51
30.628279
0
ARC
8
DEFAULT_255_2_778
10
-1.9576863
20
0.1258656
40
10.6887087
50
27.2558182
51
28.8178952
0
ARC
8
DEFAULT_255_2_778
10
-2.5295343
20
-0.1684009
40
11.3318283
50
25.5737939
51
27.2543437
0
ARC
8
DEFAULT_255_2_778
10
-3.1874876
20
-0.4831992
40
12.0612121
50
23.9035136
51
25.5734934
0
ARC
8
DEFAULT_255_2_778
10
-3.8946192
20
-0.79683
40
12.8347748
50
22.3524139
51
23.9044166
0
ARC
8
DEFAULT_255_2_778
10
-4.6059164
20
-1.0897427
40
13.6040223
50
20.995099
51
22.3540814
0
ARC
8
DEFAULT_255_2_778
10
-5.3799826
20
-1.3863635
40
14.4329747
50
19.4957819
51
20.9934706
0
ARC
8
DEFAULT_255_2_778
10
-6.1926411
20
-1.6747621
40
15.2952898
50
18.2759576
51
19.4982126
0
ARC
8
DEFAULT_255_2_778
10
-6.9893065
20
-1.9378761
40
16.1342802
50
17.077779
51
18.2760015
0
ARC
8
DEFAULT_255_2_778
10
9.2117894
20
5.3782326
40
2.6928639
50
243.3541506
51
253.2021879
0
ARC
8
DEFAULT_255_2_778
10
9.246638
20
5.4408741
40
2.7644829
50
232.2330832
51
243.290846
0
ARC
8
DEFAULT_255_2_778
10
9.4586683
20
5.708996
40
3.1062956
50
221.4508932
51
232.1703634
0
ARC
8
DEFAULT_255_2_778
10
9.8687192
20
6.0737399
40
3.6550913
50
213.4768685
51
221.4812959
0
ARC
8
DEFAULT_255_2_778
10
10.1544527
20
6.2711507
40
4.0023222
50
212.5355914
51
213.5778121
0
ARC
8
DEFAULT_255_2_778
10
10.3644138
20
6.4018682
40
4.2496352
50
207.8710491
51
212.4989246
0
ARC
8
DEFAULT_255_2_778
10
10.6599919
20
6.5596772
40
4.5847001
50
204.3790248
51
207.8876164
0
ARC
8
DEFAULT_255_2_778
10
10.8213668
20
6.6336995
40
4.7622403
50
201.6695914
51
204.3887845
0
ARC
8
DEFAULT_255_2_778
10
10.823743
20
6.6351983
40
4.7650021
50
199.3419972
51
201.6757895
0
ARC
8
DEFAULT_255_2_778
10
10.6458622
20
6.5730875
40
4.5765897
50
197.4724381
51
199.3458791
0
ARC
8
DEFAULT_255_2_778
10
10.4595504
20
6.5135819
40
4.3810078
50
197.2042552
51
197.4617063
0
LINE
8
DEFAULT_255_2_778
10
10.7388646
20
0.7426718
11
10.8642646
21
1.3395718
0
ARC
8
DEFAULT_255_2_778
10
4.7843514
20
7.479891
40
2.8270689
50
115.2203929
51
149.2091499
0
ARC
8
DEFAULT_255_2_778
10
5.6596924
20
6.9162621
40
3.8677166
50
148.67453
51
158.5047801
0
ARC
8
DEFAULT_255_2_778
10
6.8620268
20
6.4371112
40
5.1620012
50
158.4463815
51
165.4631078
0
ARC
8
DEFAULT_255_2_778
10
8.5252558
20
6.0007532
40
6.881513
50
165.4222059
51
170.675003
0
ARC
8
DEFAULT_255_2_778
10
10.7031001
20
5.6392149
40
9.0891597
50
170.6505759
51
174.775788
0
ARC
8
DEFAULT_255_2_778
10
13.5185135
20
5.378721
40
11.9165971
50
174.7610809
51
178.1195361
0
ARC
8
DEFAULT_255_2_778
10
16.5097979
20
5.2692679
40
14.9098664
50
178.0763546
51
180.0288096
0
ARC
8
DEFAULT_255_2_778
10
15.6985318
20
5.2490718
40
14.0986039
50
179.9483917
51
182.6555591
0
ARC
8
DEFAULT_255_2_778
10
12.5645249
20
5.0986607
40
10.9609951
50
182.6291833
51
186.3125211
0
ARC
8
DEFAULT_255_2_778
10
9.9576615
20
4.807421
40
8.3379155
50
186.2929693
51
190.9145154
0
ARC
8
DEFAULT_255_2_778
10
7.9644018
20
4.4203531
40
6.3074238
50
190.8904072
51
196.7389407
0
ARC
8
DEFAULT_255_2_778
10
6.4761439
20
3.9686365
40
4.7521302
50
196.6914277
51
204.6555134
0
ARC
8
DEFAULT_255_2_778
10
5.4329919
20
3.4849474
40
3.6023062
50
204.5850624
51
216.2787628
0
ARC
8
DEFAULT_255_2_778
10
4.8914791
20
3.0854281
40
2.929366
50
216.2464785
51
243.3979153
0
ARC
8
DEFAULT_255_2_778
10
5.2299463
20
5.0683882
40
5.5267752
50
243.3614577
51
250.9125834
0
ARC
8
DEFAULT_255_2_778
10
4.7414949
20
4.1032252
40
4.445061
50
232.2378454
51
243.4112483
0
ARC
8
DEFAULT_255_2_778
10
4.4592392
20
3.721052
40
3.9700961
50
207.4901476
51
232.0805779
0
ARC
8
DEFAULT_255_2_778
10
5.2305096
20
4.1389338
40
4.8471974
50
198.7320771
51
207.6637125
0
ARC
8
DEFAULT_255_2_778
10
6.3453323
20
4.5209865
40
6.0256634
50
192.266906
51
198.7681892
0
ARC
8
DEFAULT_255_2_778
10
7.8845549
20
4.8576237
40
7.6012674
50
186.9908943
51
192.2813697
0
ARC
8
DEFAULT_255_2_778
10
9.80077
20
5.0986243
40
9.532571
50
183.2199439
51
187.0268569
0
ARC
8
DEFAULT_255_2_778
10
12.0795174
20
5.2280383
40
11.81499
50
179.9416493
51
183.2258341
0
ARC
8
DEFAULT_255_2_778
10
11.997366
20
5.2538881
40
11.7328405
50
176.4939081
51
180.0674746
0
ARC
8
DEFAULT_255_2_778
10
9.6087512
20
5.401364
40
9.3396778
50
172.3313205
51
176.5008094
0
ARC
8
DEFAULT_255_2_778
10
7.7405185
20
5.655042
40
7.4543024
50
167.202242
51
172.3474919
0
ARC
8
DEFAULT_255_2_778
10
6.2565421
20
5.9957298
40
5.9317261
50
160.3493563
51
167.2361288
0
ARC
8
DEFAULT_255_2_778
10
5.1471931
20
6.3952799
40
4.7526237
50
150.8296945
51
160.3882247
0
ARC
8
DEFAULT_255_2_778
10
4.4687093
20
6.7798278
40
3.9727606
50
121.0536395
51
150.9029548
0
ARC
8
DEFAULT_255_2_778
10
4.9533531
20
6.0059667
40
4.8857407
50
112.0414827
51
121.2412528
0
ARC
8
DEFAULT_255_2_778
10
5.2954129
20
5.1987317
40
5.7623617
50
108.9688527
51
112.1819003
0
ARC
8
DEFAULT_255_2_778
10
12.2878643
20
5.4850076
40
5.4509937
50
63.5953667
51
71.2288553
0
ARC
8
DEFAULT_255_2_778
10
12.7700692
20
6.4462766
40
4.3755703
50
52.0573242
51
63.6531872
0
ARC
8
DEFAULT_255_2_778
10
13.0301332
20
6.8008024
40
3.9360967
50
27.7205118
51
51.869619
0
ARC
8
DEFAULT_255_2_778
10
12.2498822
20
6.3743216
40
4.8251996
50
18.8447039
51
27.8937763
0
ARC
8
DEFAULT_255_2_778
10
11.111982
20
5.9817418
40
6.0289119
50
12.31752
51
18.8826238
0
ARC
8
DEFAULT_255_2_778
10
9.550343
20
5.6382009
40
7.6278902
50
7.0875566
51
12.33622
0
ARC
8
DEFAULT_255_2_778
10
7.5975661
20
5.3899077
40
9.596383
50
3.2549887
51
7.1201
0
ARC
8
DEFAULT_255_2_778
10
5.236807
20
5.2543032
40
11.9610333
50
359.9394885
51
3.2614197
0
ARC
8
DEFAULT_255_2_778
10
5.1913482
20
5.2296276
40
12.0064914
50
356.8533188
51
0.0574711
0
ARC
8
DEFAULT_255_2_778
10
7.636506
20
5.0917114
40
9.5574505
50
352.7274483
51
356.8742278
0
ARC
8
DEFAULT_255_2_778
10
9.6354436
20
4.8343179
40
7.5420108
50
347.58962
51
352.7447577
0
ARC
8
DEFAULT_255_2_778
10
11.1826897
20
4.4908277
40
5.9570991
50
340.8799444
51
347.6179147
0
ARC
8
DEFAULT_255_2_778
10
12.3146694
20
4.0951928
40
4.7579772
50
331.6296829
51
340.9164438
0
ARC
8
DEFAULT_255_2_778
10
13.0217592
20
3.7058199
40
3.9508003
50
302.4291675
51
331.7256951
0
ARC
8
DEFAULT_255_2_778
10
12.52644
20
4.4610065
40
4.8538551
50
293.3140114
51
302.5838375
0
ARC
8
DEFAULT_255_2_778
10
12.1138306
20
5.3864544
40
5.8670519
50
289.1857852
51
293.4375967
0
ARC
8
DEFAULT_255_2_778
10
12.5322547
20
3.112704
40
2.9776738
50
296.7528561
51
330.0053476
0
ARC
8
DEFAULT_255_2_778
10
11.6153991
20
3.6852959
40
4.0581602
50
329.4751534
51
339.1685118
0
ARC
8
DEFAULT_255_2_778
10
10.3845596
20
4.1595087
40
5.3771827
50
339.1098896
51
346.0025715
0
ARC
8
DEFAULT_255_2_778
10
8.6949379
20
4.5852957
40
7.1196239
50
345.9666709
51
351.2037654
0
ARC
8
DEFAULT_255_2_778
10
6.4769311
20
4.9322989
40
9.3646082
50
351.1808685
51
355.3183651
0
ARC
8
DEFAULT_255_2_778
10
3.7363351
20
5.162102
40
12.114818
50
355.2930557
51
358.4294629
0
ARC
8
DEFAULT_255_2_778
10
1.1330437
20
5.2443826
40
14.7193907
50
358.3870352
51
0.0194169
0
ARC
8
DEFAULT_255_2_778
10
1.2924999
20
5.2628251
40
14.5599399
50
359.9470554
51
2.6131849
0
ARC
8
DEFAULT_255_2_778
10
4.5499097
20
5.4147822
40
11.2989898
50
2.5965297
51
5.9841669
0
ARC
8
DEFAULT_255_2_778
10
7.1761861
20
5.6924174
40
8.6580806
50
5.9687914
51
10.1440814
0
ARC
8
DEFAULT_255_2_778
10
9.2582339
20
6.0690989
40
6.542238
50
10.1082242
51
15.6866461
0
ARC
8
DEFAULT_255_2_778
10
10.8524766
20
6.5202921
40
4.8853826
50
15.6474351
51
23.0336315
0
ARC
8
DEFAULT_255_2_778
10
11.9651113
20
6.9969516
40
3.6749506
50
22.9819343
51
33.2079514
0
ARC
8
DEFAULT_255_2_778
10
12.7010756
20
7.4997056
40
2.7838854
50
32.8462138
51
65.1126488
0
LINE
8
DEFAULT_255_2_778
10
3.5797336
20
0.4661709
11
3.4226336
21
-0.1545291
0
LINE
8
DEFAULT_255_2_778
10
3.4223336
20
10.6481709
11
3.5797336
21
10.0374709
0
LINE
8
DEFAULT_255_2_778
10
14.0419336
20
-0.1547291
11
13.8726336
21
0.4537709
0
LINE
8
DEFAULT_255_2_778
10
13.8726336
20
10.0250709
11
14.0419336
21
10.6460709
0
ENDSEC
0
EOF