0
SECTION
2
HEADER
9
$MEASUREMENT
70
1
0
ENDSEC
0
SECTION
2
TABLES
0
TABLE
2
LTYPE
0
LTYPE
72
65
70
64
2
CONTINUOUS
3
______
73
0
40
0
0
ENDTAB
0
TABLE
2
LAYER
0
LAYER
2
DEFAULT_255_2_778
70
0
62
255
6
CONTINUOUS
0
ENDTAB
0
ENDSEC
0
SECTION
2
ENTITIES
0
ARC
8
DEFAULT_255_2_778
10
15.7657747
20
6.4678218
40
3.1292495
50
84.4024206
51
90.034085
0
ARC
8
DEFAULT_255_2_778
10
15.7836903
20
6.6530289
40
2.943178
50
78.6011238
51
84.3978432
0
ARC
8
DEFAULT_255_2_778
10
15.8087694
20
6.7789403
40
2.8147936
50
73.0226162
51
78.5950078
0
ARC
8
DEFAULT_255_2_778
10
15.8351764
20
6.8658633
40
2.7239479
50
67.5871846
51
73.0199902
0
ARC
8
DEFAULT_255_2_778
10
15.8641457
20
6.9364002
40
2.6476941
50
62.9826107
51
67.5847372
0
ARC
8
DEFAULT_255_2_778
10
15.894302
20
6.996183
40
2.5807368
50
60.3887723
51
62.9761344
0
ARC
8
DEFAULT_255_2_778
10
15.9392714
20
7.0742446
40
2.4906503
50
56.3969555
51
60.4008513
0
ARC
8
DEFAULT_255_2_778
10
16.0311834
20
7.2121239
40
2.3249445
50
52.8271225
51
56.4030044
0
ARC
8
DEFAULT_255_2_778
10
16.1793665
20
7.4071398
40
2.080017
50
49.735313
51
52.8337821
0
ARC
8
DEFAULT_255_2_778
10
16.4021507
20
7.6696323
40
1.7357279
50
47.0136142
51
49.7467089
0
ARC
8
DEFAULT_255_2_778
10
16.6960645
20
7.9849089
40
1.3047006
50
44.901894
51
47.0153366
0
ARC
8
DEFAULT_255_2_778
10
17.0664713
20
8.3530393
40
0.7824742
50
42.9408573
51
44.9542825
0
ARC
8
DEFAULT_255_2_778
10
17.4518482
20
8.7118209
40
0.2559388
50
41.8776294
51
42.9154927
0
ARC
8
DEFAULT_255_2_778
10
17.0547012
20
8.1858037
40
0.4219221
50
45.3125601
51
46.648237
0
ARC
8
DEFAULT_255_2_778
10
16.6027309
20
7.7083119
40
1.0793986
50
46.6023213
51
48.5381892
0
ARC
8
DEFAULT_255_2_778
10
16.2280637
20
7.285502
40
1.6443263
50
48.5094988
51
50.7731739
0
ARC
8
DEFAULT_255_2_778
10
15.9693977
20
6.9694074
40
2.0527667
50
50.7597915
51
53.4269827
0
ARC
8
DEFAULT_255_2_778
10
15.8128199
20
6.7590899
40
2.3149688
50
53.4163316
51
56.5031793
0
ARC
8
DEFAULT_255_2_778
10
15.7355578
20
6.6428929
40
2.4545078
50
56.4961271
51
60.3729159
0
ARC
8
DEFAULT_255_2_778
10
15.7176271
20
6.612174
40
2.4900746
50
60.3637004
51
61.0013447
0
ARC
8
DEFAULT_255_2_778
10
15.7175933
20
6.6122355
40
2.4900373
50
60.9999781
51
65.8830124
0
ARC
8
DEFAULT_255_2_778
10
15.735151
20
6.6522784
40
2.4463156
50
65.8751324
51
71.7326519
0
ARC
8
DEFAULT_255_2_778
10
15.7561217
20
6.7161116
40
2.3791261
50
71.7303704
51
78.6148543
0
ARC
8
DEFAULT_255_2_778
10
15.7645976
20
6.7564171
40
2.3379406
50
78.6234988
51
86.3033757
0
ARC
8
DEFAULT_255_2_778
10
15.7640536
20
6.7457696
40
2.3486011
50
86.3068786
51
90.0034261
0
ARC
8
DEFAULT_255_2_778
10
15.756985
20
7.0225388
40
2.0718435
50
89.8084046
51
109.4697311
0
ARC
8
DEFAULT_255_2_778
10
15.7809662
20
7.0185199
40
2.0837343
50
110.0546043
51
154.4536124
0
ARC
8
DEFAULT_255_2_778
10
16.1081952
20
6.8366606
40
2.4575049
50
153.9181787
51
171.7891432
0
ARC
8
DEFAULT_255_2_778
10
16.3533478
20
6.7947644
40
2.7061356
50
171.6524765
51
180.0485624
0
ARC
8
DEFAULT_255_2_778
10
16.4038572
20
6.7859859
40
2.7566516
50
179.8652144
51
196.973796
0
ARC
8
DEFAULT_255_2_778
10
16.0896377
20
6.6844517
40
2.4264847
50
196.8467653
51
218.2675291
0
ARC
8
DEFAULT_255_2_778
10
15.7608899
20
6.4078607
40
1.9971194
50
217.8786609
51
261.4995649
0
ARC
8
DEFAULT_255_2_778
10
15.7622257
20
6.4756401
40
2.06437
50
261.7409691
51
270.0468348
0
ARC
8
DEFAULT_255_2_778
10
15.7645476
20
6.6483161
40
2.2370455
50
269.983752
51
278.2200975
0
ARC
8
DEFAULT_255_2_778
10
15.7625904
20
6.6562283
40
2.2451563
50
278.2406623
51
286.2121913
0
ARC
8
DEFAULT_255_2_778
10
15.7392766
20
6.7350059
40
2.3273102
50
286.2218488
51
293.4899683
0
ARC
8
DEFAULT_255_2_778
10
15.6971595
20
6.8326571
40
2.4336566
50
293.4830062
51
299.3524001
0
ARC
8
DEFAULT_255_2_778
10
15.6655663
20
6.8901124
40
2.4992223
50
299.3380442
51
302.4735854
0
ARC
8
DEFAULT_255_2_778
10
15.6573558
20
6.9033301
40
2.5147817
50
302.4697128
51
306.6078486
0
ARC
8
DEFAULT_255_2_778
10
15.6952584
20
6.8527039
40
2.4515394
50
306.6023422
51
309.5801437
0
ARC
8
DEFAULT_255_2_778
10
15.8063113
20
6.7191465
40
2.2778441
50
309.5676868
51
312.4480359
0
ARC
8
DEFAULT_255_2_778
10
16.0278135
20
6.4775069
40
1.950044
50
312.4375606
51
314.8494514
0
ARC
8
DEFAULT_255_2_778
10
16.3487435
20
6.1549549
40
1.4950321
50
314.8475898
51
316.6511531
0
ARC
8
DEFAULT_255_2_778
10
16.772656
20
5.7557718
40
0.9127537
50
316.6066548
51
318.3040363
0
ARC
8
DEFAULT_255_2_778
10
17.2257804
20
5.3519138
40
0.3057749
50
318.3314851
51
319.1892725
0
ARC
8
DEFAULT_255_2_778
10
17.3770682
20
5.0723905
40
0.4883146
50
318.0029694
51
319.4869239
0
ARC
8
DEFAULT_255_2_778
10
16.8974475
20
5.5015308
40
1.131895
50
316.5440288
51
318.1033012
0
ARC
8
DEFAULT_255_2_778
10
16.4918383
20
5.8858724
40
1.6906771
50
314.4140172
51
316.5434189
0
ARC
8
DEFAULT_255_2_778
10
16.1733809
20
6.2100339
40
2.1450948
50
312.0996595
51
314.4304187
0
ARC
8
DEFAULT_255_2_778
10
15.9546093
20
6.4518769
40
2.4712069
50
309.240586
51
312.1040002
0
ARC
8
DEFAULT_255_2_778
10
15.8186107
20
6.6179003
40
2.6858211
50
305.8608745
51
309.2471499
0
ARC
8
DEFAULT_255_2_778
10
15.7536311
20
6.707277
40
2.7963222
50
301.8453692
51
305.8670957
0
ARC
8
DEFAULT_255_2_778
10
15.7369515
20
6.7335847
40
2.8274706
50
297.1032653
51
301.851209
0
ARC
8
DEFAULT_255_2_778
10
15.7440804
20
6.7192601
40
2.811471
50
291.5855263
51
297.1069374
0
ARC
8
DEFAULT_255_2_778
10
15.7531577
20
6.6964488
40
2.7869201
50
285.3563878
51
291.5845252
0
ARC
8
DEFAULT_255_2_778
10
15.7518406
20
6.7025082
40
2.7931119
50
278.8542602
51
285.349524
0
ARC
8
DEFAULT_255_2_778
10
15.7420242
20
6.7688566
40
2.8601808
50
272.2304229
51
278.8439838
0
ARC
8
DEFAULT_255_2_778
10
15.7376064
20
6.8572703
40
2.9486995
50
269.9962458
51
272.2493396
0
ARC
8
DEFAULT_255_2_778
10
15.7297489
20
6.5922464
40
2.6836866
50
255.2613088
51
270.1636296
0
ARC
8
DEFAULT_255_2_778
10
15.7076168
20
6.4503701
40
2.5408903
50
208.628981
51
254.9300324
0
ARC
8
DEFAULT_255_2_778
10
16.0911256
20
6.6884627
40
2.9916965
50
191.4151955
51
209.1121968
0
ARC
8
DEFAULT_255_2_778
10
16.4219512
20
6.7610133
40
3.3303418
50
179.9129915
51
191.5122161
0
ARC
8
DEFAULT_255_2_778
10
16.5399936
20
6.6626318
40
3.4499314
50
165.9658982
51
178.2818493
0
ARC
8
DEFAULT_255_2_778
10
16.1543846
20
6.7607954
40
3.0520281
50
150.6388595
51
165.9982547
0
ARC
8
DEFAULT_255_2_778
10
15.8404534
20
6.9435843
40
2.6888042
50
126.4313026
51
150.7535999
0
ARC
8
DEFAULT_255_2_778
10
15.736105
20
7.0691229
40
2.5258492
50
98.0284126
51
126.2179987
0
ARC
8
DEFAULT_255_2_778
10
15.762065
20
6.9131068
40
2.6839648
50
89.9605465
51
98.1120029
0
ARC
8
DEFAULT_255_2_778
10
20.2123409
20
6.070716
40
1.9653578
50
62.9080718
51
90.0999293
0
ARC
8
DEFAULT_255_2_778
10
20.1994541
20
6.0557617
40
1.9845457
50
22.0228643
51
62.7734649
0
ARC
8
DEFAULT_255_2_778
10
20.0913685
20
6.0110548
40
2.1015091
50
2.7658679
51
22.0478192
0
ARC
8
DEFAULT_255_2_778
10
19.9590421
20
5.9989847
40
2.2342711
50
359.994513
51
2.9112853
0
ARC
8
DEFAULT_255_2_778
10
19.974065
20
5.9923646
40
2.2192574
50
343.6103442
51
0.1653916
0
ARC
8
DEFAULT_255_2_778
10
20.1529078
20
5.9394535
40
2.032752
50
318.8868646
51
343.6187233
0
ARC
8
DEFAULT_255_2_778
10
20.2151548
20
5.8858786
40
1.9506263
50
273.7949496
51
318.8702296
0
ARC
8
DEFAULT_255_2_778
10
20.2090773
20
5.9415945
40
2.0066237
50
269.9953132
51
273.8628071
0
ARC
8
DEFAULT_255_2_778
10
20.2047941
20
5.8919092
40
1.9569427
50
242.4530159
51
270.1205979
0
ARC
8
DEFAULT_255_2_778
10
20.2209114
20
5.9096135
40
1.9801034
50
204.9707799
51
242.2764422
0
ARC
8
DEFAULT_255_2_778
10
20.3542037
20
5.9740897
40
2.1281561
50
186.041491
51
205.0294438
0
ARC
8
DEFAULT_255_2_778
10
20.5260403
20
5.9976802
40
2.3015275
50
179.9728506
51
186.1752735
0
ARC
8
DEFAULT_255_2_778
10
20.4090645
20
6.0053691
40
2.1845613
50
163.0230835
51
180.1730596
0
ARC
8
DEFAULT_255_2_778
10
20.2211249
20
6.0642969
40
1.9876059
50
134.8262777
51
163.0658623
0
ARC
8
DEFAULT_255_2_778
10
20.1821632
20
6.0954047
40
1.9380847
50
100.292773
51
134.6576595
0
ARC
8
DEFAULT_255_2_778
10
20.2070549
20
5.9792747
40
2.0567968
50
89.9482341
51
100.3969911
0
ARC
8
DEFAULT_255_2_778
10
20.1900735
20
5.8420621
40
1.4309154
50
270.7543866
51
331.4087736
0
ARC
8
DEFAULT_255_2_778
10
19.9979055
20
5.9773652
40
1.6646164
50
330.4848944
51
352.8202545
0
ARC
8
DEFAULT_255_2_778
10
19.8735613
20
5.9978489
40
1.7905522
50
352.6672293
51
0.029498
0
ARC
8
DEFAULT_255_2_778
10
20.0109955
20
6.0031755
40
1.6531236
50
359.8473338
51
22.2270461
0
ARC
8
DEFAULT_255_2_778
10
20.1203472
20
6.0527807
40
1.5331398
50
22.0568665
51
57.7222442
0
ARC
8
DEFAULT_255_2_778
10
20.207089
20
6.1832966
40
1.3764753
50
57.8737119
51
89.9240707
0
ARC
8
DEFAULT_255_2_778
10
20.2174372
20
6.1265617
40
1.4332344
50
90.3407647
51
153.4271753
0
ARC
8
DEFAULT_255_2_778
10
20.3898004
20
6.02107
40
1.6346712
50
152.8227516
51
174.1250997
0
ARC
8
DEFAULT_255_2_778
10
20.5404873
20
5.9995991
40
1.7867743
50
173.9348062
51
180.026563
0
ARC
8
DEFAULT_255_2_778
10
20.5224057
20
5.9465955
40
1.769462
50
178.3103012
51
179.9983252
0
ARC
8
DEFAULT_255_2_778
10
20.3987548
20
5.9405892
40
1.6458221
50
179.7891052
51
200.1748189
0
ARC
8
DEFAULT_255_2_778
10
20.2527772
20
5.8840019
40
1.4892875
50
200.0682602
51
235.1860342
0
ARC
8
DEFAULT_255_2_778
10
20.2054219
20
5.8255017
40
1.4142329
50
235.4080726
51
270.1060447
0
LINE
8
DEFAULT_255_2_778
10
20.2080394
20
4.411271
11
20.2089132
21
4.4112708
0
ARC
8
DEFAULT_255_2_778
10
24.8331029
20
6.54995
40
1.460649
50
130.7487558
51
159.6845445
0
ARC
8
DEFAULT_255_2_778
10
24.8574874
20
6.5894957
40
1.4472846
50
91.7942069
51
132.5022575
0
LINE
8
DEFAULT_255_2_778
10
24.8121733
20
8.0360707
11
24.8126132
21
8.0360708
0
ARC
8
DEFAULT_255_2_778
10
24.8248096
20
6.3888463
40
1.6472696
50
78.6265571
51
90.4242227
0
ARC
8
DEFAULT_255_2_778
10
24.9431734
20
6.9534983
40
1.0703745
50
58.324969
51
78.8775268
0
ARC
8
DEFAULT_255_2_778
10
24.985149
20
7.0574311
40
0.9600671
50
21.5097424
51
57.199809
0
ARC
8
DEFAULT_255_2_778
10
24.420486
20
6.8121496
40
1.5754811
50
8.9433604
51
22.2792917
0
ARC
8
DEFAULT_255_2_778
10
27.4716242
20
6.4529866
40
1.6122585
50
116.8315365
51
157.9953454
0
ARC
8
DEFAULT_255_2_778
10
27.355912
20
6.6670105
40
1.3690643
50
90.1380586
51
116.5532056
0
ARC
8
DEFAULT_255_2_778
10
27.3640809
20
6.1845644
40
1.8515418
50
80.4288447
51
90.3548697
0
ARC
8
DEFAULT_255_2_778
10
27.4779563
20
6.8340637
40
1.1921572
50
64.311611
51
80.6353383
0
ARC
8
DEFAULT_255_2_778
10
27.5635469
20
7.0489645
40
0.9615283
50
18.2505479
51
63.3567714
0
ARC
8
DEFAULT_255_2_778
10
26.7894032
20
6.7425668
40
1.7933422
50
7.8644983
51
19.8016755
0
ARC
8
DEFAULT_255_2_778
10
25.5386682
20
6.5606246
40
3.0572223
50
0.5575409
51
8.0348905
0
ARC
8
DEFAULT_255_2_778
10
24.4711429
20
6.5282765
40
4.1250703
50
359.994364
51
0.8625406
0
ARC
8
DEFAULT_255_2_778
10
25.301914
20
6.42714
40
2.7917777
50
359.3520897
51
8.4804038
0
ARC
8
DEFAULT_255_2_778
10
26.8851433
20
6.6694667
40
1.1901385
50
8.1820858
51
25.6426889
0
ARC
8
DEFAULT_255_2_778
10
27.3860305
20
6.9125574
40
0.6333888
50
25.4268461
51
73.7070867
0
ARC
8
DEFAULT_255_2_778
10
27.2942662
20
6.6049744
40
0.9543652
50
73.5997881
51
88.8086473
0
ARC
8
DEFAULT_255_2_778
10
27.2735833
20
6.2712101
40
1.2885606
50
88.1977372
51
90.0120136
0
ARC
8
DEFAULT_255_2_778
10
27.3038078
20
6.4923609
40
1.0678454
50
91.6364277
51
131.9125745
0
ARC
8
DEFAULT_255_2_778
10
27.6230524
20
6.0885081
40
1.5819602
50
130.7462178
51
166.8438692
0
ARC
8
DEFAULT_255_2_778
10
28.2883125
20
6.1173999
40
2.2304223
50
171.4612077
51
179.4768159
0
ARC
8
DEFAULT_255_2_778
10
36.9540392
20
5.9365601
40
10.8979136
50
178.9420988
51
180.2296974
0
ARC
8
DEFAULT_255_2_778
10
22.8674109
20
6.4537159
40
2.6867315
50
358.7599315
51
10.5684343
0
ARC
8
DEFAULT_255_2_778
10
24.6401172
20
6.789972
40
0.8824404
50
10.2164948
51
37.2420204
0
ARC
8
DEFAULT_255_2_778
10
24.8785033
20
6.945456
40
0.5989186
50
39.2024515
51
72.600115
0
ARC
8
DEFAULT_255_2_778
10
24.7847496
20
6.6541497
40
0.9049338
50
72.4512183
51
88.1668804
0
ARC
8
DEFAULT_255_2_778
10
24.7602066
20
6.315499
40
1.2442719
50
87.5361271
51
90.0227195
0
ARC
8
DEFAULT_255_2_778
10
24.7906058
20
6.4513945
40
1.1088067
50
91.5965333
51
142.4418605
0
ARC
8
DEFAULT_255_2_778
10
25.3745581
20
5.9306249
40
1.8900256
50
140.71745
51
165.7590769
0
ARC
8
DEFAULT_255_2_778
10
31.807988
20
5.0212415
40
8.3788545
50
170.5594862
51
170.5719012
0
ARC
8
DEFAULT_255_2_778
10
27.3484163
20
5.7261046
40
3.8642197
50
170.0502755
51
175.8694844
0
ARC
8
DEFAULT_255_2_778
10
25.6891493
20
5.8634666
40
2.1994381
50
176.3251189
51
179.9217412
0
ARC
8
DEFAULT_255_2_778
10
30.0268919
20
6.5646658
40
1.7708511
50
359.6669018
51
8.7079758
0
ARC
8
DEFAULT_255_2_778
10
30.6805685
20
6.6684592
40
1.1090013
50
8.520366
51
22.536969
0
ARC
8
DEFAULT_255_2_778
10
31.0319347
20
6.8174465
40
0.7273704
50
22.3055364
51
48.2231243
0
ARC
8
DEFAULT_255_2_778
10
30.9870307
20
6.7231675
40
0.8281145
50
50.2524706
51
84.1675999
0
ARC
8
DEFAULT_255_2_778
10
30.8773115
20
6.0836439
40
1.476138
50
82.4531509
51
90.2211786
0
ARC
8
DEFAULT_255_2_778
10
30.8720559
20
5.9144287
40
1.6453421
50
90.0154165
51
99.3930619
0
ARC
8
DEFAULT_255_2_778
10
30.8830501
20
5.8493829
40
1.7113099
50
99.4007936
51
107.2397295
0
ARC
8
DEFAULT_255_2_778
10
30.9050811
20
5.7772799
40
1.786703
50
107.2292105
51
113.6307489
0
ARC
8
DEFAULT_255_2_778
10
30.9157948
20
5.7516323
40
1.8144946
50
113.6160578
51
116.5646956
0
ARC
8
DEFAULT_255_2_778
10
30.9022069
20
5.7779316
40
1.7848952
50
116.5521071
51
120.8270407
0
ARC
8
DEFAULT_255_2_778
10
30.8304745
20
5.8973626
40
1.6455786
50
120.813263
51
124.2201257
0
ARC
8
DEFAULT_255_2_778
10
30.6719587
20
6.1296209
40
1.3643833
50
124.2008909
51
127.0321153
0
ARC
8
DEFAULT_255_2_778
10
30.4178043
20
6.4661364
40
0.9426759
50
127.0187257
51
129.1469401
0
ARC
8
DEFAULT_255_2_778
10
30.0769857
20
6.883723
40
0.403663
50
129.049332
51
130.7832899
0
ARC
8
DEFAULT_255_2_778
10
29.8364148
20
7.2899121
40
0.3951038
50
129.6606782
51
131.4028597
0
ARC
8
DEFAULT_255_2_778
10
30.1901201
20
6.8657247
40
0.9474093
50
127.6213602
51
129.7551749
0
ARC
8
DEFAULT_255_2_778
10
30.4673631
20
6.5069079
40
1.400855
50
125.1009656
51
127.6441549
0
ARC
8
DEFAULT_255_2_778
10
30.6691963
20
6.2202304
40
1.7514553
50
121.9790737
51
125.1102168
0
ARC
8
DEFAULT_255_2_778
10
30.798542
20
6.0137627
40
1.9950927
50
118.2958944
51
121.9896748
0
ARC
8
DEFAULT_255_2_778
10
30.8572225
20
5.9063787
40
2.1174616
50
115.8991975
51
118.3166266
0
ARC
8
DEFAULT_255_2_778
10
30.8891789
20
5.8399153
40
2.191208
50
111.1305819
51
115.8917799
0
ARC
8
DEFAULT_255_2_778
10
30.9066158
20
5.7952329
40
2.2391717
50
105.504957
51
111.1345901
0
ARC
8
DEFAULT_255_2_778
10
30.9142848
20
5.7675157
40
2.2679302
50
99.1767409
51
105.5044653
0
ARC
8
DEFAULT_255_2_778
10
30.9214363
20
5.7214898
40
2.3145076
50
92.3472165
51
99.1698026
0
ARC
8
DEFAULT_255_2_778
10
30.9243836
20
5.6651183
40
2.3709525
50
89.9968678
51
92.3625877
0
ARC
8
DEFAULT_255_2_778
10
30.9365773
20
6.139822
40
1.8962872
50
78.4355168
51
90.3645176
0
ARC
8
DEFAULT_255_2_778
10
31.059398
20
6.7156748
40
1.3075114
50
58.7396337
51
78.6496156
0
ARC
8
DEFAULT_255_2_778
10
31.1348768
20
6.8685631
40
1.1377483
50
22.5947626
51
57.9934231
0
ARC
8
DEFAULT_255_2_778
10
30.6776637
20
6.6632139
40
1.6388246
50
9.2121013
51
23.0814827
0
ARC
8
DEFAULT_255_2_778
10
29.947912
20
6.539775
40
2.3789309
50
359.7132888
51
9.3330344
0
ARC
8
DEFAULT_255_2_778
10
31.5121586
20
4.9111249
40
0.3623671
50
337.4501654
51
339.0688406
0
ARC
8
DEFAULT_255_2_778
10
31.0292876
20
5.1106562
40
0.8848389
50
335.0874423
51
337.5083332
0
ARC
8
DEFAULT_255_2_778
10
30.6788108
20
5.2725165
40
1.2708859
50
332.18038
51
335.1250201
0
ARC
8
DEFAULT_255_2_778
10
30.4873464
20
5.3730162
40
1.4871234
50
328.3640704
51
332.1985016
0
ARC
8
DEFAULT_255_2_778
10
30.4303652
20
5.4074345
40
1.5536904
50
323.3655156
51
328.3856082
0
ARC
8
DEFAULT_255_2_778
10
30.4679435
20
5.3787971
40
1.5064474
50
317.358744
51
323.3867031
0
ARC
8
DEFAULT_255_2_778
10
30.5528727
20
5.2991086
40
1.3899918
50
307.9391588
51
317.4035978
0
ARC
8
DEFAULT_255_2_778
10
30.6260983
20
5.2054331
40
1.2710925
50
296.1307506
51
307.9321064
0
ARC
8
DEFAULT_255_2_778
10
30.6400746
20
5.1804703
40
1.2425266
50
284.2078997
51
296.0591062
0
ARC
8
DEFAULT_255_2_778
10
30.6187273
20
5.2692247
40
1.3338061
50
273.8566698
51
284.1610914
0
ARC
8
DEFAULT_255_2_778
10
30.607587
20
5.4029464
40
1.4679758
50
269.9776019
51
273.9394479
0
ARC
8
DEFAULT_255_2_778
10
30.5795105
20
5.2835308
40
1.3488405
50
225.7905686
51
271.1683321
0
ARC
8
DEFAULT_255_2_778
10
30.3942091
20
5.0484882
40
1.0516144
50
194.6136657
51
224.0976283
0
ARC
8
DEFAULT_255_2_778
10
30.5685611
20
5.093026
40
1.2315632
50
179.714126
51
194.5721628
0
ARC
8
DEFAULT_255_2_778
10
30.9147213
20
5.1307092
40
1.5780234
50
180.1470294
51
181.1451932
0
ARC
8
DEFAULT_255_2_778
10
30.9194832
20
5.1305579
40
1.5827849
50
180.0000663
51
180.141109
0
ARC
8
DEFAULT_255_2_778
10
30.6838997
20
5.1361977
40
1.3472133
50
169.3685375
51
180.2399325
0
ARC
8
DEFAULT_255_2_778
10
30.4187278
20
5.18633
40
1.0773445
50
153.9025722
51
169.3871485
0
ARC
8
DEFAULT_255_2_778
10
30.490425
20
5.1144404
40
1.1738206
50
113.7143439
51
152.2905687
0
ARC
8
DEFAULT_255_2_778
10
31.0130081
20
4.0475834
40
2.3612818
50
100.4526042
51
114.9129105
0
ARC
8
DEFAULT_255_2_778
10
31.3122937
20
2.6237943
40
3.8159106
50
95.6337688
51
100.9933348
0
ARC
8
DEFAULT_255_2_778
10
31.434694
20
1.4620416
40
4.9840737
50
93.0802112
51
95.7229811
0
ARC
8
DEFAULT_255_2_778
10
31.4976434
20
0.326623
40
6.1212347
50
91.4692932
51
93.0975087
0
ARC
8
DEFAULT_255_2_778
10
31.5401327
20
-1.2967831
40
7.7451965
50
90.5092793
51
91.4755758
0
ARC
8
DEFAULT_255_2_778
10
31.578031
20
-5.7765306
40
12.2251039
50
89.9625899
51
90.5002743
0
ARC
8
DEFAULT_255_2_778
10
30.6632699
20
5.3171118
40
0.9323471
50
269.7937161
51
302.124118
0
ARC
8
DEFAULT_255_2_778
10
30.4682868
20
5.5837784
40
1.2620855
50
303.1832834
51
333.4572722
0
ARC
8
DEFAULT_255_2_778
10
30.0091226
20
5.8419324
40
1.7884
50
332.6319431
51
353.6795513
0
ARC
8
DEFAULT_255_2_778
10
30.0526061
20
5.841222
40
1.7451075
50
353.5455639
51
359.9589181
0
ARC
8
DEFAULT_255_2_778
10
31.5770033
20
-5.0202533
40
11.0454277
50
89.9532634
51
90.671547
0
ARC
8
DEFAULT_255_2_778
10
31.5265406
20
-0.7283918
40
6.7532695
50
90.6702165
51
92.136562
0
ARC
8
DEFAULT_255_2_778
10
31.4496334
20
1.2356523
40
4.7877249
50
92.0931042
51
95.1493157
0
ARC
8
DEFAULT_255_2_778
10
31.3480921
20
2.3960241
40
3.6229239
50
95.1969772
51
97.804045
0
ARC
8
DEFAULT_255_2_778
10
31.1194925
20
3.8369754
40
2.1644972
50
96.9881346
51
111.1188121
0
ARC
8
DEFAULT_255_2_778
10
30.7035941
20
4.9146314
40
1.009372
50
111.136871
51
132.2428832
0
ARC
8
DEFAULT_255_2_778
10
30.4685208
20
5.1834648
40
0.6523547
50
132.8317665
51
167.8059671
0
ARC
8
DEFAULT_255_2_778
10
30.6009469
20
5.1557742
40
0.7876423
50
167.8718419
51
180.2694006
0
ARC
8
DEFAULT_255_2_778
10
30.5511571
20
5.1409551
40
0.7379276
50
179.1369038
51
239.9666746
0
ARC
8
DEFAULT_255_2_778
10
30.612212
20
5.2614563
40
0.8728396
50
240.4559803
51
261.6889175
0
ARC
8
DEFAULT_255_2_778
10
30.6570208
20
5.5141827
40
1.1294157
50
261.2928505
51
270.1467329
0
ARC
8
DEFAULT_255_2_778
10
35.0684008
20
5.0625556
40
1.3128266
50
179.5585376
51
188.3821791
0
ARC
8
DEFAULT_255_2_778
10
34.4348943
20
4.9650933
40
0.6718921
50
188.0349784
51
202.9939811
0
ARC
8
DEFAULT_255_2_778
10
34.1380789
20
4.8354072
40
0.348017
50
202.4283355
51
232.551703
0
ARC
8
DEFAULT_255_2_778
10
34.1554041
20
4.9031265
40
0.4132249
50
236.356684
51
273.2614143
0
ARC
8
DEFAULT_255_2_778
10
34.1244577
20
5.3256274
40
1.3112576
50
265.0341104
51
270.0679661
0
ARC
8
DEFAULT_255_2_778
10
34.1020237
20
5.0861552
40
1.0707436
50
256.4981316
51
265.1208233
0
ARC
8
DEFAULT_255_2_778
10
34.0679285
20
4.9335164
40
0.9143663
50
252.7919821
51
256.3424304
0
ARC
8
DEFAULT_255_2_778
10
34.0064899
20
4.7625011
40
0.7328748
50
228.1184888
51
253.4248537
0
ARC
8
DEFAULT_255_2_778
10
33.9911427
20
4.7329551
40
0.7006805
50
208.0320631
51
227.4399115
0
ARC
8
DEFAULT_255_2_778
10
34.1637513
20
4.8248038
40
0.8962051
50
194.9451494
51
208.0290745
0
ARC
8
DEFAULT_255_2_778
10
34.5034916
20
4.9168615
40
1.2481949
50
185.3443815
51
195.0060455
0
ARC
8
DEFAULT_255_2_778
10
34.9505089
20
4.9632888
40
1.6975995
50
179.8791057
51
185.4992824
0
ARC
8
DEFAULT_255_2_778
10
35.4507587
20
6.5646646
40
1.7708844
50
359.6669462
51
8.7078494
0
ARC
8
DEFAULT_255_2_778
10
36.1044153
20
6.6684538
40
1.109055
50
8.5202328
51
22.5361245
0
ARC
8
DEFAULT_255_2_778
10
36.4558072
20
6.8174465
40
0.7273982
50
22.3046411
51
48.2206966
0
ARC
8
DEFAULT_255_2_778
10
36.4109821
20
6.7232806
40
0.8280035
50
50.24947
51
84.1658166
0
ARC
8
DEFAULT_255_2_778
10
36.3013088
20
6.0841231
40
1.4756588
50
82.4519227
51
90.2211476
0
ARC
8
DEFAULT_255_2_778
10
36.2960589
20
5.9143191
40
1.6454517
50
90.0155213
51
99.3927477
0
ARC
8
DEFAULT_255_2_778
10
36.3070858
20
5.8490698
40
1.7116256
50
99.4004555
51
107.2384186
0
ARC
8
DEFAULT_255_2_778
10
36.329162
20
5.7768143
40
1.7871777
50
107.2278943
51
113.6282962
0
ARC
8
DEFAULT_255_2_778
10
36.3398954
20
5.7511123
40
1.8150271
50
113.6135279
51
116.5616062
0
ARC
8
DEFAULT_255_2_778
10
36.3263165
20
5.7773938
40
1.7854477
50
116.5489739
51
120.8230703
0
ARC
8
DEFAULT_255_2_778
10
36.2546853
20
5.8966731
40
1.6463133
50
120.8092807
51
124.2150396
0
ARC
8
DEFAULT_255_2_778
10
36.0961219
20
6.1290535
40
1.36499
50
124.1959939
51
127.0263213
0
ARC
8
DEFAULT_255_2_778
10
35.8416655
20
6.4660363
40
0.9427276
50
127.0127933
51
129.1411699
0
ARC
8
DEFAULT_255_2_778
10
35.5011159
20
6.8833764
40
0.4040758
50
129.0434806
51
130.7758972
0
ARC
8
DEFAULT_255_2_778
10
35.260414
20
7.2899647
40
0.3950638
50
129.6656418
51
131.4078134
0
ARC
8
DEFAULT_255_2_778
10
35.6141795
20
6.8657637
40
0.9474184
50
127.6259426
51
129.7595213
0
ARC
8
DEFAULT_255_2_778
10
35.8910685
20
6.5074567
40
1.4002443
50
125.1044643
51
127.6485272
0
ARC
8
DEFAULT_255_2_778
10
36.0929144
20
6.2208002
40
1.7508348
50
121.9817557
51
125.1137546
0
ARC
8
DEFAULT_255_2_778
10
36.222277
20
6.0143233
40
1.9944889
50
118.2976486
51
121.9923054
0
ARC
8
DEFAULT_255_2_778
10
36.280989
20
5.9068851
40
2.1169205
50
115.9004103
51
118.3183362
0
ARC
8
DEFAULT_255_2_778
10
36.3129811
20
5.8403491
40
2.1907477
50
111.130907
51
115.8929617
0
ARC
8
DEFAULT_255_2_778
10
36.3304905
20
5.79548
40
2.2389118
50
105.5046277
51
111.1349191
0
ARC
8
DEFAULT_255_2_778
10
36.3382269
20
5.7675145
40
2.2679275
50
99.1761252
51
105.5041025
0
ARC
8
DEFAULT_255_2_778
10
36.3454243
20
5.7212016
40
2.3147955
50
92.3468957
51
99.1691892
0
ARC
8
DEFAULT_255_2_778
10
36.3483832
20
5.6646095
40
2.3714614
50
89.9968602
51
92.3623344
0
ARC
8
DEFAULT_255_2_778
10
36.3605773
20
6.139822
40
1.8962872
50
78.4355168
51
90.3645176
0
ARC
8
DEFAULT_255_2_778
10
36.483398
20
6.7156748
40
1.3075114
50
58.7396337
51
78.6496156
0
ARC
8
DEFAULT_255_2_778
10
36.5588768
20
6.8685631
40
1.1377483
50
22.5947626
51
57.9934231
0
ARC
8
DEFAULT_255_2_778
10
36.1016637
20
6.6632139
40
1.6388246
50
9.2121013
51
23.0814827
0
ARC
8
DEFAULT_255_2_778
10
35.371912
20
6.539775
40
2.3789309
50
359.7132888
51
9.3330344
0
ARC
8
DEFAULT_255_2_778
10
36.9354764
20
4.91135
40
0.3629913
50
337.4525959
51
339.0684865
0
ARC
8
DEFAULT_255_2_778
10
36.4528687
20
5.1107916
40
0.8851854
50
335.0881991
51
337.5081362
0
ARC
8
DEFAULT_255_2_778
10
36.1025874
20
5.2725584
40
1.2710158
50
332.181324
51
335.1256482
0
ARC
8
DEFAULT_255_2_778
10
35.9110764
20
5.3730845
40
1.4873065
50
328.3653236
51
332.1992477
0
ARC
8
DEFAULT_255_2_778
10
35.8541369
20
5.4074813
40
1.5538266
50
323.3670977
51
328.3866739
0
ARC
8
DEFAULT_255_2_778
10
35.8917937
20
5.3787874
40
1.5064869
50
317.3606227
51
323.3882791
0
ARC
8
DEFAULT_255_2_778
10
35.9767554
20
5.2990761
40
1.3899917
50
307.9413375
51
317.4054143
0
ARC
8
DEFAULT_255_2_778
10
36.0500362
20
5.2053382
40
1.2710093
50
296.1328306
51
307.9342573
0
ARC
8
DEFAULT_255_2_778
10
36.0640522
20
5.180298
40
1.2423565
50
284.2092956
51
296.0611539
0
ARC
8
DEFAULT_255_2_778
10
36.0427229
20
5.2689747
40
1.3335563
50
273.8571187
51
284.1624523
0
ARC
8
DEFAULT_255_2_778
10
36.0315867
20
5.402642
40
1.4676713
50
269.9776084
51
273.9398545
0
ARC
8
DEFAULT_255_2_778
10
36.0035105
20
5.2835308
40
1.3488405
50
225.7905686
51
271.1683321
0
ARC
8
DEFAULT_255_2_778
10
35.8182091
20
5.0484882
40
1.0516144
50
194.6136657
51
224.0976283
0
ARC
8
DEFAULT_255_2_778
10
35.9925611
20
5.093026
40
1.2315632
50
179.714126
51
194.5721628
0
ARC
8
DEFAULT_255_2_778
10
36.3279486
20
5.1619648
40
1.5681931
50
180.8746306
51
182.2948664
0
ARC
8
DEFAULT_255_2_778
10
36.2721905
20
5.1610207
40
1.5124272
50
180.0015865
51
180.871113
0
ARC
8
DEFAULT_255_2_778
10
36.0563118
20
5.1667861
40
1.2965615
50
168.9230717
51
180.256628
0
ARC
8
DEFAULT_255_2_778
10
35.7995721
20
5.2173776
40
1.0348849
50
152.3565662
51
168.9409221
0
ARC
8
DEFAULT_255_2_778
10
35.8959232
20
5.128136
40
1.1621508
50
113.3716388
51
150.6627612
0
ARC
8
DEFAULT_255_2_778
10
36.4279566
20
4.0143691
40
2.3960409
50
99.7980032
51
114.4850004
0
ARC
8
DEFAULT_255_2_778
10
36.7318457
20
2.4959964
40
3.9441946
50
95.3142235
51
100.3945809
0
ARC
8
DEFAULT_255_2_778
10
36.853554
20
1.2698578
40
5.1763407
50
92.8947112
51
95.3986004
0
ARC
8
DEFAULT_255_2_778
10
36.9180132
20
0.0319714
40
6.4159033
50
91.3740527
51
92.911346
0
ARC
8
DEFAULT_255_2_778
10
36.9623622
20
-1.7785436
40
8.2269614
50
90.4735442
51
91.3804672
0
ARC
8
DEFAULT_255_2_778
10
37.0017829
20
-6.7680981
40
13.2166713
50
89.9647544
51
90.4656615
0
ARC
8
DEFAULT_255_2_778
10
36.0607773
20
5.3170273
40
0.9322626
50
269.7932447
51
302.1256096
0
ARC
8
DEFAULT_255_2_778
10
35.8658037
20
5.5836408
40
1.2619518
50
303.1854139
51
333.4612203
0
ARC
8
DEFAULT_255_2_778
10
35.4063686
20
5.8418944
40
1.7885514
50
332.6358228
51
353.6813129
0
ARC
8
DEFAULT_255_2_778
10
35.4496298
20
5.841222
40
1.7454839
50
353.5469616
51
359.9589269
0
ARC
8
DEFAULT_255_2_778
10
36.9745033
20
-5.0202533
40
11.0454277
50
89.9532634
51
90.671547
0
ARC
8
DEFAULT_255_2_778
10
36.9240406
20
-0.7283918
40
6.7532695
50
90.6702165
51
92.136562
0
ARC
8
DEFAULT_255_2_778
10
36.8471334
20
1.2356523
40
4.7877249
50
92.0931042
51
95.1493157
0
ARC
8
DEFAULT_255_2_778
10
36.7455921
20
2.3960241
40
3.6229239
50
95.1969772
51
97.804045
0
ARC
8
DEFAULT_255_2_778
10
36.5169925
20
3.8369754
40
2.1644972
50
96.9881346
51
111.1188121
0
ARC
8
DEFAULT_255_2_778
10
36.1010941
20
4.9146314
40
1.009372
50
111.136871
51
132.2428832
0
ARC
8
DEFAULT_255_2_778
10
35.8660208
20
5.1834648
40
0.6523547
50
132.8317665
51
167.8059671
0
ARC
8
DEFAULT_255_2_778
10
35.9984469
20
5.1557742
40
0.7876423
50
167.8718419
51
180.2694006
0
ARC
8
DEFAULT_255_2_778
10
36.0003101
20
5.1751345
40
0.7898337
50
181.6733184
51
241.2311181
0
ARC
8
DEFAULT_255_2_778
10
36.0142181
20
5.2524355
40
0.8646488
50
242.8887578
51
263.0938675
0
ARC
8
DEFAULT_255_2_778
10
36.0550333
20
5.5173938
40
1.1326255
50
262.6558034
51
270.1203922
0
ARC
8
DEFAULT_255_2_778
10
41.2308675
20
5.4903297
40
1.9719627
50
179.8331927
51
186.1811077
0
ARC
8
DEFAULT_255_2_778
10
40.6741308
20
5.4282057
40
1.411775
50
186.1073186
51
194.7928214
0
ARC
8
DEFAULT_255_2_778
10
40.287936
20
5.3252511
40
1.0120939
50
194.7397676
51
206.1385113
0
ARC
8
DEFAULT_255_2_778
10
40.0660095
20
5.2157389
40
0.7646188
50
206.0977132
51
222.0716915
0
ARC
8
DEFAULT_255_2_778
10
40.0039037
20
5.1636098
40
0.6835939
50
222.3163318
51
243.4416179
0
ARC
8
DEFAULT_255_2_778
10
40.032055
20
5.2171865
40
0.7441049
50
243.3472087
51
249.2914182
0
ARC
8
DEFAULT_255_2_778
10
40.0681795
20
5.319641
40
0.8527176
50
249.455294
51
260.7693632
0
ARC
8
DEFAULT_255_2_778
10
40.0984441
20
5.4957579
40
1.03141
50
260.6792619
51
267.5973169
0
ARC
8
DEFAULT_255_2_778
10
40.1053245
20
5.6235538
40
1.1593829
50
267.5223542
51
270.0142638
0
ARC
8
DEFAULT_255_2_778
10
40.052503
20
5.676149
40
1.6882782
50
266.0338862
51
270.0037379
0
ARC
8
DEFAULT_255_2_778
10
40.0457418
20
5.5885156
40
1.6003871
50
260.6958752
51
266.0583654
0
ARC
8
DEFAULT_255_2_778
10
40.0158729
20
5.4139489
40
1.4232886
50
252.7666978
51
260.7463099
0
ARC
8
DEFAULT_255_2_778
10
39.9759295
20
5.2788368
40
1.2824098
50
249.0229008
51
252.6827675
0
ARC
8
DEFAULT_255_2_778
10
39.9140075
20
5.1312997
40
1.1224944
50
231.5994227
51
249.2781474
0
ARC
8
DEFAULT_255_2_778
10
39.8764745
20
5.0762811
40
1.0560738
50
215.4030204
51
231.3411183
0
ARC
8
DEFAULT_255_2_778
10
39.9941366
20
5.1577938
40
1.1992034
50
202.7666587
51
215.3206654
0
ARC
8
DEFAULT_255_2_778
10
40.2724591
20
5.2751008
40
1.5012369
50
193.1351788
51
202.7843084
0
ARC
8
DEFAULT_255_2_778
10
40.7080383
20
5.3779996
40
1.9488038
50
185.6373525
51
193.1710927
0
ARC
8
DEFAULT_255_2_778
10
41.2931909
20
5.4376196
40
2.5369836
50
179.8768893
51
185.6791588
0
ARC
8
DEFAULT_255_2_778
10
42.310733
20
6.3857021
40
1.6503938
50
75.3618703
51
90.3166103
0
ARC
8
DEFAULT_255_2_778
10
42.378615
20
6.649162
40
1.3783311
50
49.1387332
51
75.3244094
0
ARC
8
DEFAULT_255_2_778
10
42.1979136
20
6.4791591
40
1.6253231
50
18.1465948
51
48.2417893
0
ARC
8
DEFAULT_255_2_778
10
41.5750534
20
6.2538815
40
2.2874546
50
0.1902679
51
18.6496491
0
ARC
8
DEFAULT_255_2_778
10
41.2993578
20
6.2369035
40
2.5632552
50
359.9992673
51
0.5493082
0
ARC
8
DEFAULT_255_2_778
10
43.0436435
20
6.0175488
40
2.0654266
50
181.2561319
51
193.2411332
0
ARC
8
DEFAULT_255_2_778
10
42.6242068
20
5.9170946
40
1.6341327
50
193.1811184
51
209.5013195
0
ARC
8
DEFAULT_255_2_778
10
42.3999787
20
5.7895088
40
1.3761484
50
209.4753443
51
236.8442887
0
ARC
8
DEFAULT_255_2_778
10
42.420751
20
5.8464863
40
1.435276
50
237.394053
51
270.525436
0
ARC
8
DEFAULT_255_2_778
10
42.4334721
20
5.9110244
40
1.4997537
50
270.0168488
51
280.6020535
0
ARC
8
DEFAULT_255_2_778
10
42.416883
20
5.9953843
40
1.5857259
50
280.6304113
51
290.0967054
0
ARC
8
DEFAULT_255_2_778
10
42.3733956
20
6.1157183
40
1.7136758
50
290.0797278
51
297.2843857
0
ARC
8
DEFAULT_255_2_778
10
42.336123
20
6.1901108
40
1.7968776
50
297.2532537
51
300.9680942
0
ARC
8
DEFAULT_255_2_778
10
42.3245625
20
6.2098069
40
1.819715
50
300.9610957
51
305.3861061
0
ARC
8
DEFAULT_255_2_778
10
42.366061
20
6.1520731
40
1.7486154
50
305.3730097
51
308.773374
0
ARC
8
DEFAULT_255_2_778
10
42.4924392
20
5.9953321
40
1.5472722
50
308.7596581
51
311.5448671
0
ARC
8
DEFAULT_255_2_778
10
42.7303346
20
5.727608
40
1.1891241
50
311.5210983
51
313.881579
0
ARC
8
DEFAULT_255_2_778
10
43.1035763
20
5.3405323
40
0.6514106
50
313.8188122
51
315.7944422
0
ARC
8
DEFAULT_255_2_778
10
43.4590405
20
4.9942991
40
0.1551932
50
315.9247252
51
316.4997604
0
ARC
8
DEFAULT_255_2_778
10
43.5155555
20
4.7877235
40
0.4181249
50
313.4810309
51
314.7097925
0
ARC
8
DEFAULT_255_2_778
10
43.0568295
20
5.2706018
40
1.0841586
50
311.5950857
51
313.5115318
0
ARC
8
DEFAULT_255_2_778
10
42.6850458
20
5.6880548
40
1.6431663
50
309.3794694
51
311.6267838
0
ARC
8
DEFAULT_255_2_778
10
42.4524029
20
5.9705599
40
2.009133
50
306.8136631
51
309.3962229
0
ARC
8
DEFAULT_255_2_778
10
42.3291522
20
6.1346387
40
2.2143463
50
303.596602
51
306.8228413
0
ARC
8
DEFAULT_255_2_778
10
42.2916451
20
6.190272
40
2.2814405
50
299.9137031
51
303.6080898
0
ARC
8
DEFAULT_255_2_778
10
42.3133263
20
6.1513274
40
2.2368719
50
294.5638252
51
299.9298066
0
ARC
8
DEFAULT_255_2_778
10
42.3684303
20
6.0288652
40
2.102586
50
287.4903744
51
294.5853884
0
ARC
8
DEFAULT_255_2_778
10
42.416835
20
5.8739727
40
1.9403069
50
278.5359697
51
287.5017572
0
ARC
8
DEFAULT_255_2_778
10
42.4333248
20
5.7708247
40
1.835854
50
270.0183618
51
278.5048574
0
ARC
8
DEFAULT_255_2_778
10
42.4258514
20
5.9648632
40
2.0299085
50
250.8546147
51
270.2275505
0
ARC
8
DEFAULT_255_2_778
10
42.382898
20
5.8217112
40
1.8805978
50
201.0173796
51
250.6604964
0
ARC
8
DEFAULT_255_2_778
10
42.6599892
20
5.9417836
40
2.1823557
50
184.9914988
51
201.350945
0
ARC
8
DEFAULT_255_2_778
10
42.908678
20
5.9711127
40
2.4326651
50
179.9727256
51
185.1700278
0
ARC
8
DEFAULT_255_2_778
10
43.3643124
20
6.0314302
40
2.8889051
50
180.0027717
51
181.1733942
0
ARC
8
DEFAULT_255_2_778
10
43.038818
20
6.0397892
40
2.5634247
50
169.2294312
51
180.1899573
0
ARC
8
DEFAULT_255_2_778
10
42.5892847
20
6.1267578
40
2.1055586
50
155.007624
51
169.2683237
0
ARC
8
DEFAULT_255_2_778
10
42.309975
20
6.2582193
40
1.7968604
50
133.8959162
51
155.044109
0
ARC
8
DEFAULT_255_2_778
10
42.2773171
20
6.2696079
40
1.7660796
50
90.644479
51
133.3886098
0
ARC
8
DEFAULT_255_2_778
10
42.3015712
20
6.0696719
40
1.9663988
50
89.9987781
51
91.2856237
0
ARC
8
DEFAULT_255_2_778
10
41.5271493
20
6.3460388
40
1.8334331
50
1.5480885
51
12.1326442
0
ARC
8
DEFAULT_255_2_778
10
42.0413091
20
6.4592863
40
1.3069586
50
12.016292
51
27.1218376
0
ARC
8
DEFAULT_255_2_778
10
42.3293569
20
6.6086529
40
0.9824921
50
27.0270345
51
51.7081945
0
ARC
8
DEFAULT_255_2_778
10
42.3224987
20
6.5662411
40
1.0202434
50
52.8819101
51
91.1729934
0
ARC
8
DEFAULT_255_2_778
10
42.2807528
20
6.3113738
40
1.2750676
50
89.0625864
51
124.1621898
0
ARC
8
DEFAULT_255_2_778
10
42.2709465
20
6.3610565
40
1.2286104
50
125.0848716
51
149.8674688
0
ARC
8
DEFAULT_255_2_778
10
42.5633222
20
6.1886012
40
1.568051
50
149.78059
51
164.7616437
0
ARC
8
DEFAULT_255_2_778
10
42.9432077
20
6.0753343
40
1.9643731
50
164.4863812
51
170.6176396
0
ARC
8
DEFAULT_255_2_778
10
46.4047194
20
5.8315355
40
2.2045363
50
83.2141016
51
90.0547415
0
ARC
8
DEFAULT_255_2_778
10
46.423614
20
5.9941913
40
2.0407874
50
76.4810813
51
83.2012687
0
ARC
8
DEFAULT_255_2_778
10
46.4479694
20
6.0964384
40
1.9356798
50
69.5954445
51
76.4745284
0
ARC
8
DEFAULT_255_2_778
10
46.4723015
20
6.1623733
40
1.8653988
50
63.2212298
51
69.5898346
0
ARC
8
DEFAULT_255_2_778
10
46.4975926
20
6.212922
40
1.8088763
50
58.6810084
51
63.2150262
0
ARC
8
DEFAULT_255_2_778
10
46.5374842
20
6.2778158
40
1.7327027
50
53.7266901
51
58.6924791
0
ARC
8
DEFAULT_255_2_778
10
46.6183391
20
6.3875586
40
1.5963909
50
49.5165635
51
53.7359368
0
ARC
8
DEFAULT_255_2_778
10
46.7601547
20
6.5531731
40
1.378355
50
45.9334451
51
49.5307941
0
ARC
8
DEFAULT_255_2_778
10
46.9733195
20
6.7732285
40
1.0719832
50
43.1641772
51
45.9397939
0
ARC
8
DEFAULT_255_2_778
10
47.2725654
20
7.0528321
40
0.6624404
50
40.6391281
51
43.2307373
0
ARC
8
DEFAULT_255_2_778
10
47.6058123
20
7.3390201
40
0.2231718
50
39.2993299
51
40.6068267
0
ARC
8
DEFAULT_255_2_778
10
47.1939373
20
6.7949106
40
0.43094
50
42.0545999
51
43.8615585
0
ARC
8
DEFAULT_255_2_778
10
46.7848343
20
6.4039585
40
0.9968091
50
43.7700462
51
46.1525354
0
ARC
8
DEFAULT_255_2_778
10
46.5090281
20
6.1179326
40
1.3941497
50
46.1210576
51
49.0187064
0
ARC
8
DEFAULT_255_2_778
10
46.3596214
20
5.9466478
40
1.6214393
50
49.0024542
51
52.7338243
0
ARC
8
DEFAULT_255_2_778
10
46.313223
20
5.8866016
40
1.6973212
50
52.7147105
51
57.5544373
0
ARC
8
DEFAULT_255_2_778
10
46.3399237
20
5.9286706
40
1.6474942
50
57.5531446
51
57.7284021
0
ARC
8
DEFAULT_255_2_778
10
46.3389843
20
5.9288078
40
1.6478799
50
57.698237
51
64.3507881
0
ARC
8
DEFAULT_255_2_778
10
46.3912891
20
6.039532
40
1.5254261
50
64.3215906
51
73.3545632
0
ARC
8
DEFAULT_255_2_778
10
46.4246986
20
6.1505927
40
1.4094491
50
73.3625474
51
84.4183657
0
ARC
8
DEFAULT_255_2_778
10
46.4291443
20
6.1844681
40
1.3753025
50
84.4654307
51
90.0012972
0
ARC
8
DEFAULT_255_2_778
10
46.4212747
20
6.0794083
40
1.4803832
50
89.696623
51
118.1870191
0
ARC
8
DEFAULT_255_2_778
10
46.4114928
20
6.1166047
40
1.4430053
50
118.5423067
51
156.1939171
0
ARC
8
DEFAULT_255_2_778
10
46.60311
20
6.0283307
40
1.6539538
50
156.0754928
51
174.4473084
0
ARC
8
DEFAULT_255_2_778
10
46.8198352
20
5.9999492
40
1.8724223
50
174.2246109
51
180.0360604
0
ARC
8
DEFAULT_255_2_778
10
46.7666997
20
5.9900179
40
1.8193076
50
179.7243439
51
195.5796365
0
ARC
8
DEFAULT_255_2_778
10
46.4629242
20
5.9027469
40
1.5032563
50
195.485218
51
219.4498676
0
ARC
8
DEFAULT_255_2_778
10
46.3821295
20
5.8491493
40
1.4068475
50
219.8551028
51
260.7646704
0
ARC
8
DEFAULT_255_2_778
10
46.4269218
20
6.0497919
40
1.6121227
50
260.3378032
51
270.0778816
0
ARC
8
DEFAULT_255_2_778
10
46.430295
20
5.9798763
40
1.542206
50
269.9560924
51
279.4900055
0
ARC
8
DEFAULT_255_2_778
10
46.4335912
20
5.954554
40
1.5166872
50
279.52491
51
289.3192403
0
ARC
8
DEFAULT_255_2_778
10
46.4176646
20
5.9988354
40
1.5637442
50
289.3331643
51
297.5754309
0
ARC
8
DEFAULT_255_2_778
10
46.3870164
20
6.0579841
40
1.6303615
50
297.567903
51
304.4701643
0
ARC
8
DEFAULT_255_2_778
10
46.436898
20
5.9863689
40
1.5430886
50
304.4482262
51
304.5557831
0
ARC
8
DEFAULT_255_2_778
10
46.3732313
20
6.0790137
40
1.6555007
50
304.5518148
51
309.6980455
0
ARC
8
DEFAULT_255_2_778
10
46.4137625
20
6.0308145
40
1.5925264
50
309.6837003
51
313.6353386
0
ARC
8
DEFAULT_255_2_778
10
46.5362193
20
5.902942
40
1.4154758
50
313.6196644
51
316.8465333
0
ARC
8
DEFAULT_255_2_778
10
46.7707582
20
5.683751
40
1.0944573
50
316.8198975
51
319.5433734
0
ARC
8
DEFAULT_255_2_778
10
47.1412401
20
5.3687144
40
0.6081406
50
319.478842
51
321.7107531
0
ARC
8
DEFAULT_255_2_778
10
47.4949847
20
5.0889568
40
0.1571429
50
321.8523299
51
322.5351252
0
ARC
8
DEFAULT_255_2_778
10
47.6009216
20
4.8114626
40
0.3349848
50
318.5321869
51
320.0741318
0
ARC
8
DEFAULT_255_2_778
10
47.2040548
20
5.1613578
40
0.8640687
50
316.2216363
51
318.5732117
0
ARC
8
DEFAULT_255_2_778
10
46.8726455
20
5.477833
40
1.3223136
50
313.4432492
51
316.2558848
0
ARC
8
DEFAULT_255_2_778
10
46.6522084
20
5.7097353
40
1.6422682
50
310.2562034
51
313.4636706
0
ARC
8
DEFAULT_255_2_778
10
46.5203318
20
5.8650491
40
1.8460174
50
306.304181
51
310.264845
0
ARC
8
DEFAULT_255_2_778
10
46.4558761
20
5.9521485
40
1.9543718
50
301.857177
51
306.3151692
0
ARC
8
DEFAULT_255_2_778
10
46.4334426
20
5.987881
40
1.9965623
50
296.1456981
51
301.8627595
0
ARC
8
DEFAULT_255_2_778
10
46.4292506
20
5.9962058
40
2.0058824
50
289.5439169
51
296.1484027
0
ARC
8
DEFAULT_255_2_778
10
46.424322
20
6.0107286
40
2.0212174
50
282.2674585
51
289.5378597
0
ARC
8
DEFAULT_255_2_778
10
46.4120685
20
6.0694605
40
2.081212
50
274.6623861
51
282.2535454
0
ARC
8
DEFAULT_255_2_778
10
46.4033234
20
6.1700914
40
2.1822208
50
269.9813517
51
274.6764703
0
ARC
8
DEFAULT_255_2_778
10
46.3953116
20
6.0392843
40
2.0514266
50
249.9319865
51
270.2039303
0
ARC
8
DEFAULT_255_2_778
10
46.351896
20
5.9093254
40
1.9144643
50
200.5190312
51
249.8178481
0
ARC
8
DEFAULT_255_2_778
10
46.5809733
20
6.0024745
40
2.1616696
50
183.7536319
51
200.7030723
0
ARC
8
DEFAULT_255_2_778
10
46.7989334
20
6.024555
40
2.3806203
50
179.9851806
51
183.9404942
0
ARC
8
DEFAULT_255_2_778
10
46.6512649
20
6.0333041
40
2.2329665
50
165.2328282
51
180.2086934
0
ARC
8
DEFAULT_255_2_778
10
46.3746228
20
6.1072094
40
1.9466244
50
143.1698685
51
165.2608023
0
ARC
8
DEFAULT_255_2_778
10
46.3340789
20
6.1227732
40
1.9048794
50
102.3267711
51
142.8135474
0
ARC
8
DEFAULT_255_2_778
10
46.3987542
20
5.8874615
40
2.1486127
50
89.8970949
51
102.672058
0
ARC
8
DEFAULT_255_2_778
10
49.95668
20
6.7105752
40
1.0216206
50
154.0040072
51
160.1741331
0
ARC
8
DEFAULT_255_2_778
10
50.2157111
20
6.5853962
40
1.3093115
50
148.3364122
51
154.0487099
0
ARC
8
DEFAULT_255_2_778
10
50.3984944
20
6.4734497
40
1.523651
50
142.3997159
51
148.3614505
0
ARC
8
DEFAULT_255_2_778
10
50.4712176
20
6.4191347
40
1.6144095
50
142.2573279
51
142.4472359
0
ARC
8
DEFAULT_255_2_778
10
50.5011763
20
6.3942415
40
1.653338
50
131.2018407
51
142.2106634
0
ARC
8
DEFAULT_255_2_778
10
50.4815198
20
6.4195855
40
1.6213224
50
117.5361848
51
131.2691635
0
ARC
8
DEFAULT_255_2_778
10
50.4561092
20
6.4655407
40
1.5688259
50
103.2099158
51
117.4891958
0
ARC
8
DEFAULT_255_2_778
10
50.4723722
20
6.3873748
40
1.6486411
50
90.7102691
51
103.1393753
0
ARC
8
DEFAULT_255_2_778
10
50.4771761
20
6.2799201
40
1.7561505
50
89.9987895
51
90.8235294
0
ARC
8
DEFAULT_255_2_778
10
50.4886809
20
6.1845644
40
1.8515418
50
80.4288447
51
90.3548697
0
ARC
8
DEFAULT_255_2_778
10
50.6025563
20
6.8340637
40
1.1921572
50
64.311611
51
80.6353383
0
ARC
8
DEFAULT_255_2_778
10
50.6881469
20
7.0489645
40
0.9615283
50
18.2505479
51
63.3567714
0
ARC
8
DEFAULT_255_2_778
10
49.9140032
20
6.7425668
40
1.7933422
50
7.8644983
51
19.8016755
0
ARC
8
DEFAULT_255_2_778
10
48.6632682
20
6.5606246
40
3.0572223
50
0.5575409
51
8.0348905
0
ARC
8
DEFAULT_255_2_778
10
47.5957429
20
6.5282765
40
4.1250703
50
359.994364
51
0.8625406
0
ARC
8
DEFAULT_255_2_778
10
48.1973007
20
6.4193364
40
3.021229
50
359.0485947
51
8.3043237
0
ARC
8
DEFAULT_255_2_778
10
50.1682035
20
6.7129688
40
1.0285987
50
7.9759881
51
29.1249866
0
ARC
8
DEFAULT_255_2_778
10
50.5471925
20
6.9119412
40
0.6007804
50
30.1403199
51
69.9686677
0
ARC
8
DEFAULT_255_2_778
10
50.444365
20
6.6329818
40
0.8980866
50
69.9014266
51
85.7282017
0
ARC
8
DEFAULT_255_2_778
10
50.400094
20
6.2159949
40
1.3172778
50
85.1589419
51
90.0948558
0
ARC
8
DEFAULT_255_2_778
10
50.4104308
20
6.1558327
40
1.3774949
50
90.5206685
51
153.5097533
0
ARC
8
DEFAULT_255_2_778
10
50.5474408
20
6.0645434
40
1.5409769
50
152.7440819
51
166.5843594
0
ARC
8
DEFAULT_255_2_778
10
50.4473286
20
6.0310965
40
1.4524274
50
164.3841196
51
182.0325641
0
ARC
8
DEFAULT_255_2_778
10
61.3970404
20
5.9073657
40
12.4014357
50
179.6663496
51
180.066968
0
LINE
8
DEFAULT_255_2_778
10
17.6424132
20
8.8826708
11
17.3514132
21
8.4857708
0
LINE
8
DEFAULT_255_2_778
10
17.4572132
20
5.1520708
11
17.7483132
21
4.7551708
0
LINE
8
DEFAULT_255_2_778
10
15.7639132
20
9.5970708
11
15.7639132
21
9.5970708
0
LINE
8
DEFAULT_255_2_778
10
20.2089132
20
8.0360708
11
20.2089132
21
8.0360708
0
LINE
8
DEFAULT_255_2_778
10
20.2089132
20
4.4112708
11
20.2089132
21
4.4112708
0
LINE
8
DEFAULT_255_2_778
10
22.9606132
20
7.9566708
11
23.4633132
21
7.9566708
0
LINE
8
DEFAULT_255_2_778
10
23.4633132
20
7.9566708
11
23.4633132
21
7.0570708
0
LINE
8
DEFAULT_255_2_778
10
28.5962132
20
6.5278708
11
28.5962132
21
4.0408708
0
LINE
8
DEFAULT_255_2_778
10
28.5962132
20
4.0408708
11
28.0935132
21
4.0408708
0
LINE
8
DEFAULT_255_2_778
10
28.0935132
20
4.0408708
11
28.0935132
21
6.3955708
0
LINE
8
DEFAULT_255_2_778
10
26.0562132
20
5.8928708
11
26.0562132
21
4.0408708
0
LINE
8
DEFAULT_255_2_778
10
26.0562132
20
4.0408708
11
25.5535132
21
4.0408708
0
LINE
8
DEFAULT_255_2_778
10
25.5535132
20
4.0408708
11
25.5535132
21
6.3955708
0
LINE
8
DEFAULT_255_2_778
10
23.4897132
20
5.8664708
11
23.4897132
21
4.0143708
0
LINE
8
DEFAULT_255_2_778
10
23.4897132
20
4.0143708
11
22.9870132
21
4.0143708
0
LINE
8
DEFAULT_255_2_778
10
22.9870132
20
4.0143708
11
22.9606132
21
7.9566708
0
LINE
8
DEFAULT_255_2_778
10
31.5860132
20
6.4485708
11
31.7977132
21
6.4485708
0
LINE
8
DEFAULT_255_2_778
10
31.7977132
20
6.4485708
11
31.7977132
21
6.5543708
0
LINE
8
DEFAULT_255_2_778
10
29.8133132
20
7.1893708
11
29.5751132
21
7.5862708
0
LINE
8
DEFAULT_255_2_778
10
32.3268132
20
6.5278708
11
32.3268132
21
4.0408708
0
LINE
8
DEFAULT_255_2_778
10
32.3268132
20
4.0408708
11
31.8506132
21
4.0408708
0
LINE
8
DEFAULT_255_2_778
10
31.8506132
20
4.0408708
11
31.8506132
21
4.7816708
0
LINE
8
DEFAULT_255_2_778
10
31.5860132
20
6.4485708
11
31.5860132
21
6.4485708
0
LINE
8
DEFAULT_255_2_778
10
31.7977132
20
5.8399708
11
31.7977132
21
6.0251708
0
LINE
8
DEFAULT_255_2_778
10
31.7977132
20
6.0251708
11
31.5860132
21
6.0251708
0
LINE
8
DEFAULT_255_2_778
10
30.6599132
20
4.3847708
11
30.6599132
21
4.3847708
0
LINE
8
DEFAULT_255_2_778
10
33.2529132
20
9.4912708
11
33.7556132
21
9.4912708
0
LINE
8
DEFAULT_255_2_778
10
33.7556132
20
9.4912708
11
33.7556132
21
5.0726708
0
LINE
8
DEFAULT_255_2_778
10
34.1789132
20
4.4905708
11
34.3112132
21
4.4905708
0
LINE
8
DEFAULT_255_2_778
10
34.3112132
20
4.4905708
11
34.3112132
21
4.0143708
0
LINE
8
DEFAULT_255_2_778
10
34.3112132
20
4.0143708
11
34.1260132
21
4.0143708
0
LINE
8
DEFAULT_255_2_778
10
33.2529132
20
4.9668708
11
33.2529132
21
9.4912708
0
LINE
8
DEFAULT_255_2_778
10
37.0099132
20
6.4485708
11
37.2216132
21
6.4485708
0
LINE
8
DEFAULT_255_2_778
10
37.2216132
20
6.4485708
11
37.2216132
21
6.5543708
0
LINE
8
DEFAULT_255_2_778
10
35.2372132
20
7.1893708
11
34.9991132
21
7.5862708
0
LINE
8
DEFAULT_255_2_778
10
37.7508132
20
6.5278708
11
37.7508132
21
4.0408708
0
LINE
8
DEFAULT_255_2_778
10
37.7508132
20
4.0408708
11
37.2745132
21
4.0408708
0
LINE
8
DEFAULT_255_2_778
10
37.2745132
20
4.0408708
11
37.2745132
21
4.7816708
0
LINE
8
DEFAULT_255_2_778
10
37.0099132
20
6.4485708
11
37.0099132
21
6.4485708
0
LINE
8
DEFAULT_255_2_778
10
37.1951132
20
5.8399708
11
37.1951132
21
6.0251708
0
LINE
8
DEFAULT_255_2_778
10
37.1951132
20
6.0251708
11
36.9835132
21
6.0251708
0
LINE
8
DEFAULT_255_2_778
10
36.0574132
20
4.3847708
11
36.0574132
21
4.3847708
0
LINE
8
DEFAULT_255_2_778
10
38.7297132
20
7.4539708
11
38.2270132
21
7.4539708
0
LINE
8
DEFAULT_255_2_778
10
38.2270132
20
7.4539708
11
38.2270132
21
7.9037708
0
LINE
8
DEFAULT_255_2_778
10
38.2270132
20
7.9037708
11
38.7562132
21
7.9037708
0
LINE
8
DEFAULT_255_2_778
10
38.7562132
20
7.9037708
11
38.7562132
21
9.0149708
0
LINE
8
DEFAULT_255_2_778
10
38.7562132
20
9.0149708
11
39.2589132
21
9.0149708
0
LINE
8
DEFAULT_255_2_778
10
39.2589132
20
9.0149708
11
39.2589132
21
7.8772708
0
LINE
8
DEFAULT_255_2_778
10
39.2589132
20
7.8772708
11
40.1849132
21
7.8772708
0
LINE
8
DEFAULT_255_2_778
10
40.1849132
20
7.8772708
11
40.1849132
21
7.4274708
0
LINE
8
DEFAULT_255_2_778
10
40.1849132
20
7.4274708
11
39.2589132
21
7.4274708
0
LINE
8
DEFAULT_255_2_778
10
39.2589132
20
7.4274708
11
39.2589132
21
5.4960708
0
LINE
8
DEFAULT_255_2_778
10
40.1056132
20
4.4641708
11
40.2643132
21
4.4641708
0
LINE
8
DEFAULT_255_2_778
10
40.2643132
20
4.4641708
11
40.2643132
21
3.9878708
0
LINE
8
DEFAULT_255_2_778
10
40.2643132
20
3.9878708
11
40.0526132
21
3.9878708
0
LINE
8
DEFAULT_255_2_778
10
38.7562132
20
5.4430708
11
38.7297132
21
7.4539708
0
LINE
8
DEFAULT_255_2_778
10
43.8626132
20
6.2368708
11
43.8626132
21
5.9722708
0
LINE
8
DEFAULT_255_2_778
10
43.8626132
20
5.9722708
11
40.9787132
21
5.9722708
0
LINE
8
DEFAULT_255_2_778
10
43.5716132
20
4.8874708
11
43.8097132
21
4.4905708
0
LINE
8
DEFAULT_255_2_778
10
42.3016132
20
8.0360708
11
42.3016132
21
8.0360708
0
LINE
8
DEFAULT_255_2_778
10
41.0051132
20
6.3955708
11
43.3599132
21
6.3955708
0
LINE
8
DEFAULT_255_2_778
10
47.7785132
20
7.4803708
11
47.5139132
21
7.0835708
0
LINE
8
DEFAULT_255_2_778
10
47.6197132
20
4.9933708
11
47.8578132
21
4.5964708
0
LINE
8
DEFAULT_255_2_778
10
46.4026132
20
8.0360708
11
46.4026132
21
8.0360708
0
LINE
8
DEFAULT_255_2_778
10
48.4929132
20
9.4912708
11
48.9956132
21
9.4912708
0
LINE
8
DEFAULT_255_2_778
10
48.9956132
20
9.4912708
11
48.9956132
21
7.0570708
0
LINE
8
DEFAULT_255_2_778
10
51.7208132
20
6.5278708
11
51.7208132
21
4.0408708
0
LINE
8
DEFAULT_255_2_778
10
51.7208132
20
4.0408708
11
51.2181132
21
4.0408708
0
LINE
8
DEFAULT_255_2_778
10
51.2181132
20
4.0408708
11
51.2181132
21
6.3691708
0
LINE
8
DEFAULT_255_2_778
10
48.9956132
20
5.8928708
11
48.9956132
21
4.0408708
0
LINE
8
DEFAULT_255_2_778
10
48.9956132
20
4.0408708
11
48.4929132
21
4.0408708
0
LINE
8
DEFAULT_255_2_778
10
48.4929132
20
4.0408708
11
48.4929132
21
9.4912708
0
ARC
8
DEFAULT_255_2_778
10
7.6405167
20
7.0940486
40
7.5029116
50
177.7684517
51
179.9988727
0
ARC
8
DEFAULT_255_2_778
10
7.6923313
20
7.0930874
40
7.5547243
50
155.1026416
51
177.7764683
0
ARC
8
DEFAULT_255_2_778
10
7.3826274
20
7.2365116
40
7.2134225
50
138.7648446
51
155.1003494
0
ARC
8
DEFAULT_255_2_778
10
7.2571383
20
7.3367201
40
7.0530045
50
136.1021435
51
138.7050682
0
ARC
8
DEFAULT_255_2_778
10
7.34741
20
7.2518942
40
7.1768685
50
129.236558
51
136.1138669
0
ARC
8
DEFAULT_255_2_778
10
7.2042019
20
7.4271268
40
6.9505613
50
121.1955775
51
129.2358841
0
ARC
8
DEFAULT_255_2_778
10
7.1266704
20
7.5546775
40
6.8012957
50
111.4326112
51
121.1934332
0
ARC
8
DEFAULT_255_2_778
10
7.0989493
20
7.6242549
40
6.7264001
50
98.0080386
51
111.4293738
0
ARC
8
DEFAULT_255_2_778
10
7.0961803
20
7.639829
40
6.7105921
50
90.0002148
51
98.0031517
0
ARC
8
DEFAULT_255_2_778
10
7.0957826
20
7.6352608
40
6.7151605
50
72.3095315
51
89.9968215
0
ARC
8
DEFAULT_255_2_778
10
7.0789317
20
7.5835191
40
6.7695759
50
61.6944552
51
72.306729
0
ARC
8
DEFAULT_255_2_778
10
7.0202257
20
7.4749999
40
6.8929564
50
53.3379339
51
61.6925466
0
ARC
8
DEFAULT_255_2_778
10
6.9027851
20
7.3174402
40
7.0894693
50
46.2420683
51
53.3368868
0
ARC
8
DEFAULT_255_2_778
10
6.7813554
20
7.187394
40
7.2673802
50
43.9053345
51
46.2597041
0
ARC
8
DEFAULT_255_2_778
10
9.7254799
20
10.1354016
40
0.1439229
50
48.2021465
51
51.2464636
0
ARC
8
DEFAULT_255_2_778
10
9.1218398
20
9.4017314
40
1.0939943
50
50.6447132
51
51.5559323
0
ARC
8
DEFAULT_255_2_778
10
8.5111211
20
8.6345689
40
2.074563
50
51.5189018
51
52.2088475
0
ARC
8
DEFAULT_255_2_778
10
8.0163666
20
7.9973316
40
2.8813177
50
52.1991023
51
52.8111306
0
ARC
8
DEFAULT_255_2_778
10
7.5318208
20
7.3581523
40
3.6833992
50
52.8163599
51
53.6698269
0
ARC
8
DEFAULT_255_2_778
10
7.0547185
20
6.7097242
40
4.4884368
50
53.6671682
51
54.5873949
0
ARC
8
DEFAULT_255_2_778
10
6.6631241
20
6.1593472
40
5.1639077
50
54.584867
51
55.5553963
0
ARC
8
DEFAULT_255_2_778
10
6.3704663
20
5.7332726
40
5.6808099
50
55.5518118
51
56.4352422
0
ARC
8
DEFAULT_255_2_778
10
6.1685841
20
5.429375
40
6.0456525
50
56.4333271
51
57.2358646
0
ARC
8
DEFAULT_255_2_778
10
6.0002293
20
5.1674572
40
6.3570111
50
57.237439
51
58.3364845
0
ARC
8
DEFAULT_255_2_778
10
5.8582536
20
4.9373328
40
6.6274076
50
58.3361144
51
59.5908329
0
ARC
8
DEFAULT_255_2_778
10
5.7610568
20
4.7718688
40
6.8193074
50
59.5902239
51
61.0237947
0
ARC
8
DEFAULT_255_2_778
10
5.7123663
20
4.6843139
40
6.9194904
50
61.0223054
51
62.376724
0
ARC
8
DEFAULT_255_2_778
10
5.6992769
20
4.6595087
40
6.9475372
50
62.3759297
51
63.8077263
0
ARC
8
DEFAULT_255_2_778
10
5.7135181
20
4.6887331
40
6.9150276
50
63.8067296
51
65.5761883
0
ARC
8
DEFAULT_255_2_778
10
5.7542647
20
4.7789694
40
6.8160185
50
65.5744155
51
67.7247438
0
ARC
8
DEFAULT_255_2_778
10
5.8173951
20
4.9336838
40
6.6489199
50
67.7227933
51
70.1836237
0
ARC
8
DEFAULT_255_2_778
10
5.89175
20
5.14078
40
6.4288803
50
70.1813498
51
72.9839941
0
ARC
8
DEFAULT_255_2_778
10
5.9671331
20
5.3880431
40
6.1703817
50
72.9814341
51
76.1937545
0
ARC
8
DEFAULT_255_2_778
10
6.0320594
20
5.652802
40
5.8977782
50
76.1924771
51
79.7006803
0
ARC
8
DEFAULT_255_2_778
10
6.080113
20
5.9187043
40
5.6275686
50
79.6980188
51
83.8068287
0
ARC
8
DEFAULT_255_2_778
10
6.1064127
20
6.1600324
40
5.3848119
50
83.8080149
51
88.1860392
0
ARC
8
DEFAULT_255_2_778
10
6.1119159
20
6.2977804
40
5.2469587
50
88.1984897
51
89.998151
0
ARC
8
DEFAULT_255_2_778
10
6.1111865
20
6.4006814
40
5.1440579
50
89.9899899
51
94.676206
0
ARC
8
DEFAULT_255_2_778
10
6.1047028
20
6.4848689
40
5.0596221
50
94.680749
51
99.4680619
0
ARC
8
DEFAULT_255_2_778
10
6.1047342
20
6.4872664
40
5.0572624
50
99.4728817
51
104.0490186
0
ARC
8
DEFAULT_255_2_778
10
6.1229077
20
6.4157776
40
5.1310245
50
104.0520984
51
108.2424873
0
ARC
8
DEFAULT_255_2_778
10
6.1681431
20
6.2794656
40
5.2746459
50
108.245647
51
112.3492491
0
ARC
8
DEFAULT_255_2_778
10
6.248431
20
6.084482
40
5.4855125
50
112.350441
51
116.1521941
0
ARC
8
DEFAULT_255_2_778
10
6.3704052
20
5.8364605
40
5.7619041
50
116.1538848
51
119.8176404
0
ARC
8
DEFAULT_255_2_778
10
6.5407684
20
5.5392306
40
6.104496
50
119.817775
51
123.2298497
0
ARC
8
DEFAULT_255_2_778
10
6.745732
20
5.2253971
40
6.4793311
50
123.2251388
51
125.9807685
0
ARC
8
DEFAULT_255_2_778
10
6.9876002
20
4.8926531
40
6.8906932
50
125.982694
51
128.7838538
0
ARC
8
DEFAULT_255_2_778
10
7.2280035
20
4.5915215
40
7.2760145
50
128.7741978
51
130.4165608
0
ARC
8
DEFAULT_255_2_778
10
7.4753941
20
4.3020419
40
7.6568032
50
130.4215734
51
132.5866546
0
ARC
8
DEFAULT_255_2_778
10
7.7954189
20
3.9536721
40
8.1298542
50
132.5857834
51
134.5865484
0
ARC
8
DEFAULT_255_2_778
10
8.1382498
20
3.6054887
40
8.6184897
50
134.5848281
51
136.348933
0
ARC
8
DEFAULT_255_2_778
10
8.5189785
20
3.242497
40
9.1445292
50
136.3499257
51
138.1627902
0
ARC
8
DEFAULT_255_2_778
10
8.9582093
20
2.8491856
40
9.7341204
50
138.1624385
51
139.8961837
0
ARC
8
DEFAULT_255_2_778
10
9.4248412
20
2.455815
40
10.3444362
50
139.894587
51
141.4207085
0
ARC
8
DEFAULT_255_2_778
10
9.8841834
20
2.0889629
40
10.932293
50
141.4189228
51
142.717758
0
ARC
8
DEFAULT_255_2_778
10
10.4044396
20
1.6934736
40
11.5858052
50
142.7200599
51
144.2372945
0
ARC
8
DEFAULT_255_2_778
10
10.9985699
20
1.265136
40
12.318242
50
144.2356903
51
145.5639319
0
ARC
8
DEFAULT_255_2_778
10
11.6363939
20
0.8280334
40
13.0914677
50
145.5647069
51
146.9372989
0
ARC
8
DEFAULT_255_2_778
10
12.3404483
20
0.3695295
40
13.9316571
50
146.9366457
51
148.2088161
0
ARC
8
DEFAULT_255_2_778
10
13.0745832
20
-0.0856836
40
14.7954702
50
148.2082021
51
149.394733
0
ARC
8
DEFAULT_255_2_778
10
13.8416166
20
-0.5395628
40
15.6867315
50
149.3942247
51
150.5036447
0
ARC
8
DEFAULT_255_2_778
10
14.3746814
20
-0.8426623
40
16.2999407
50
150.4989002
51
150.8612896
0
LINE
8
DEFAULT_255_2_778
10
12.0174051
20
12.2270962
11
9.8214051
21
10.2426962
0
LINE
8
DEFAULT_255_2_778
10
0.1376051
20
7.0941962
11
0.1376051
21
7.0941962
0
ARC
8
DEFAULT_255_2_778
10
7.5784872
20
7.0658703
40
7.4270128
50
190.2460198
51
202.9927868
0
ARC
8
DEFAULT_255_2_778
10
7.4732286
20
7.0196248
40
7.3120524
50
202.9813791
51
219.8877008
0
ARC
8
DEFAULT_255_2_778
10
7.178724
20
6.7329451
40
6.902305
50
219.6294673
51
256.5924797
0
ARC
8
DEFAULT_255_2_778
10
7.0921881
20
6.5132413
40
6.6686064
50
256.8780185
51
269.1954967
0
ARC
8
DEFAULT_255_2_778
10
7.0960918
20
6.6092308
40
6.7646417
50
269.1738512
51
270.0001764
0
ARC
8
DEFAULT_255_2_778
10
7.1299917
20
6.1510067
40
6.3065088
50
269.6922006
51
278.4557188
0
ARC
8
DEFAULT_255_2_778
10
7.3434967
20
4.5975713
40
4.7385961
50
278.6641826
51
285.4307636
0
ARC
8
DEFAULT_255_2_778
10
10.1166661
20
6.6014428
40
6.7434299
50
235.0398824
51
257.0400059
0
ARC
8
DEFAULT_255_2_778
10
10.3541022
20
6.9366735
40
7.1542215
50
211.7817802
51
235.0198463
0
ARC
8
DEFAULT_255_2_778
10
10.5442637
20
7.0657784
40
7.3838741
50
197.0436343
51
211.8562074
0
ARC
8
DEFAULT_255_2_778
10
10.6649558
20
7.1029988
40
7.5101748
50
185.3386253
51
197.0452434
0
ARC
8
DEFAULT_255_2_778
10
10.8206182
20
7.1195872
40
7.6667058
50
179.9917659
51
185.3538209
0
ARC
8
DEFAULT_255_2_778
10
10.7106883
20
7.1298023
40
7.5567812
50
170.8909156
51
180.0690973
0
ARC
8
DEFAULT_255_2_778
10
10.6075511
20
7.1317002
40
7.4546583
50
156.669601
51
170.7798227
0
ARC
8
DEFAULT_255_2_778
10
3.7501249
20
10.0900961
40
0.0137217
50
303.6345342
51
333.5720923
0
ARC
8
DEFAULT_255_2_778
10
3.6296061
20
10.2266809
40
0.1957583
50
308.0997032
51
310.8799576
0
ARC
8
DEFAULT_255_2_778
10
3.3675293
20
10.5573394
40
0.6176796
50
307.3893234
51
308.304844
0
ARC
8
DEFAULT_255_2_778
10
2.9058766
20
11.1599021
40
1.376761
50
307.0496873
51
307.4269041
0
ARC
8
DEFAULT_255_2_778
10
2.2439684
20
12.0357402
40
2.4745838
50
306.9079881
51
307.0630899
0
ARC
8
DEFAULT_255_2_778
10
19.8853874
20
-11.5764586
40
27.0000849
50
126.7514247
51
126.9075827
0
ARC
8
DEFAULT_255_2_778
10
7.3172685
20
5.1717698
40
6.0606373
50
126.9852393
51
128.2344214
0
ARC
8
DEFAULT_255_2_778
10
7.5245267
20
4.9124205
40
6.3926209
50
128.2549652
51
129.9065265
0
ARC
8
DEFAULT_255_2_778
10
8.1614035
20
4.1515738
40
7.3848405
50
129.9098769
51
131.7253754
0
ARC
8
DEFAULT_255_2_778
10
8.9019763
20
3.3201898
40
8.498235
50
131.7212284
51
133.4433924
0
ARC
8
DEFAULT_255_2_778
10
9.741448
20
2.4349025
40
9.7182537
50
133.4477849
51
135.4487774
0
ARC
8
DEFAULT_255_2_778
10
10.6885175
20
1.5016007
40
11.0479124
50
135.4452541
51
137.3567862
0
ARC
8
DEFAULT_255_2_778
10
11.6248901
20
0.637783
40
12.3218722
50
137.3517422
51
139.0346761
0
ARC
8
DEFAULT_255_2_778
10
12.615908
20
-0.2219731
40
13.633854
50
139.0368025
51
140.8798668
0
ARC
8
DEFAULT_255_2_778
10
13.7463967
20
-1.1413979
40
15.0910248
50
140.8797438
51
142.7411408
0
ARC
8
DEFAULT_255_2_778
10
15.0198234
20
-2.1096633
40
16.6907602
50
142.7421835
51
144.683627
0
ARC
8
DEFAULT_255_2_778
10
16.4332658
20
-3.1114951
40
18.4232399
50
144.6824791
51
146.5631666
0
ARC
8
DEFAULT_255_2_778
10
17.9401172
20
-4.1070945
40
20.2292906
50
146.561693
51
148.3505055
0
ARC
8
DEFAULT_255_2_778
10
19.5319858
20
-5.0888637
40
22.0995623
50
148.3492948
51
150.0506884
0
ARC
8
DEFAULT_255_2_778
10
20.6494578
20
-5.7378601
40
23.3918168
50
150.0397772
51
150.6013538
0
LINE
8
DEFAULT_255_2_778
10
0.2699126
20
5.744789
11
0.2699126
21
5.744789
0
ARC
8
DEFAULT_255_2_778
10
4.1727152
20
9.3914529
40
0.7822913
50
121.6393197
51
123.252307
0
ARC
8
DEFAULT_255_2_778
10
4.8523441
20
8.3483033
40
2.0273019
50
123.1494973
51
124.8548222
0
ARC
8
DEFAULT_255_2_778
10
5.6156104
20
7.2517722
40
3.3633242
50
124.8492344
51
126.8783791
0
ARC
8
DEFAULT_255_2_778
10
6.4683006
20
6.1131487
40
4.7858371
50
126.8636239
51
128.9438968
0
ARC
8
DEFAULT_255_2_778
10
7.3584685
20
5.0101301
40
6.2032461
50
128.934902
51
131.0242053
0
ARC
8
DEFAULT_255_2_778
10
8.2442483
20
3.989793
40
7.554428
50
131.0130894
51
132.9143152
0
ARC
8
DEFAULT_255_2_778
10
9.1572302
20
3.0078255
40
8.8952471
50
132.9144285
51
134.9271318
0
ARC
8
DEFAULT_255_2_778
10
10.1615448
20
2.0005951
40
10.3176257
50
134.9257279
51
136.9721977
0
ARC
8
DEFAULT_255_2_778
10
11.177345
20
1.050515
40
11.7084891
50
136.9653681
51
138.7499576
0
ARC
8
DEFAULT_255_2_778
10
12.2424356
20
0.1171255
40
13.1246932
50
138.7521608
51
140.6932459
0
ARC
8
DEFAULT_255_2_778
10
13.450282
20
-0.8718888
40
14.6857962
50
140.6927457
51
142.6424923
0
ARC
8
DEFAULT_255_2_778
10
14.7834578
20
-1.8897107
40
16.3630912
50
142.6422201
51
144.6018147
0
ARC
8
DEFAULT_255_2_778
10
16.1106025
20
-2.8351851
40
17.9925793
50
144.5956235
51
146.1777194
0
ARC
8
DEFAULT_255_2_778
10
17.4887138
20
-3.7574989
40
19.6508474
50
146.1802085
51
147.9374595
0
ARC
8
DEFAULT_255_2_778
10
19.1097409
20
-4.7725732
40
21.5634646
50
147.9381753
51
149.7404582
0
ARC
8
DEFAULT_255_2_778
10
20.5425059
20
-5.6127412
40
23.2243936
50
149.7313285
51
150.7978339
0
ARC
8
DEFAULT_255_2_778
10
7.7561017
20
7.1115278
40
7.6147984
50
190.5426354
51
206.3307238
0
ARC
8
DEFAULT_255_2_778
10
10.0143555
20
2.5878048
40
9.1550375
50
168.2017136
51
172.8079818
0
ARC
8
DEFAULT_255_2_778
10
9.9123012
20
2.6085993
40
9.0508876
50
163.5433049
51
168.1984751
0
ARC
8
DEFAULT_255_2_778
10
9.9045059
20
2.6104661
40
9.0428826
50
159.0427576
51
163.5406568
0
ARC
8
DEFAULT_255_2_778
10
9.9545794
20
2.5911452
40
9.0965542
50
155.0714671
51
159.0419203
0
ARC
8
DEFAULT_255_2_778
10
10.0211714
20
2.5601838
40
9.1699919
50
151.2247187
51
155.0714098
0
ARC
8
DEFAULT_255_2_778
10
10.0658692
20
2.5358845
40
9.2208674
50
147.7859198
51
151.2260714
0
ARC
8
DEFAULT_255_2_778
10
10.050951
20
2.5456734
40
9.2030274
50
144.5618593
51
147.7879705
0
ARC
8
DEFAULT_255_2_778
10
9.9744029
20
2.5999699
40
9.1091782
50
142.8236289
51
144.5609364
0
ARC
8
DEFAULT_255_2_778
10
9.8642134
20
2.6837736
40
8.9707415
50
141.0065372
51
142.8248344
0
ARC
8
DEFAULT_255_2_778
10
9.6987016
20
2.8178704
40
8.7577246
50
139.3556014
51
141.0070419
0
ARC
8
DEFAULT_255_2_778
10
9.481754
20
3.004244
40
8.4717153
50
137.8075022
51
139.3562954
0
ARC
8
DEFAULT_255_2_778
10
9.2094627
20
3.2512274
40
8.1040968
50
136.3435859
51
137.8082861
0
ARC
8
DEFAULT_255_2_778
10
8.9900105
20
3.4596076
40
7.8014732
50
135.8537848
51
136.3382
0
ARC
8
DEFAULT_255_2_778
10
8.3016965
20
7.972215
40
4.9953947
50
155.3272163
51
169.3749649
0
LINE
8
DEFAULT_255_2_778
10
3.7623484
20
10.0574699
11
3.7623484
21
10.0574699
0
ARC
8
DEFAULT_255_2_778
10
7.1025658
20
6.4981876
40
6.6588045
50
295.8563005
51
306.3397362
0
ARC
8
DEFAULT_255_2_778
10
6.8009167
20
6.9274712
40
7.1833577
50
306.2488256
51
316.2622121
0
ARC
8
DEFAULT_255_2_778
10
5.0948945
20
10.3558074
40
7.9486272
50
302.5046838
51
306.2489247
0
ARC
8
DEFAULT_255_2_778
10
5.3872974
20
9.8969815
40
7.4045495
50
298.6119356
51
302.5043842
0
ARC
8
DEFAULT_255_2_778
10
5.6098922
20
9.4891435
40
6.9399202
50
294.6323176
51
298.6110369
0
ARC
8
DEFAULT_255_2_778
10
5.7730808
20
9.1338348
40
6.5489284
50
290.7475172
51
294.6301453
0
ARC
8
DEFAULT_255_2_778
10
5.8888394
20
8.829103
40
6.2229507
50
287.1318017
51
290.7447522
0
ARC
8
DEFAULT_255_2_778
10
5.9764996
20
8.5440041
40
5.9246796
50
283.3060708
51
287.1338432
0
ARC
8
DEFAULT_255_2_778
10
6.0447876
20
8.2555138
40
5.6282173
50
279.7117424
51
283.3054813
0
ARC
8
DEFAULT_255_2_778
10
6.0947553
20
7.9640819
40
5.3325329
50
276.5008145
51
279.7107806
0
ARC
8
DEFAULT_255_2_778
10
6.1313179
20
7.6408985
40
5.0072879
50
273.3642043
51
276.5038171
0
ARC
8
DEFAULT_255_2_778
10
6.1539579
20
7.2515901
40
4.6173218
50
270.4290655
51
273.3672413
0
ARC
8
DEFAULT_255_2_778
10
6.1576114
20
6.9968124
40
4.3625243
50
270.0010134
51
270.4061412
0
ARC
8
DEFAULT_255_2_778
10
6.157269
20
6.8422769
40
4.2079887
50
268.7378057
51
270.0057125
0
ARC
8
DEFAULT_255_2_778
10
6.1516715
20
6.591065
40
3.9567144
50
267.4871004
51
268.7387103
0
ARC
8
DEFAULT_255_2_778
10
6.1408277
20
6.3411263
40
3.7065407
50
266.4906614
51
267.485168
0
ARC
8
DEFAULT_255_2_778
10
6.1243522
20
6.0747378
40
3.4396433
50
265.4023069
51
266.4929714
0
ARC
8
DEFAULT_255_2_778
10
6.101955
20
5.795027
40
3.1590372
50
264.5147826
51
265.400563
0
ARC
8
DEFAULT_255_2_778
10
6.0752948
20
5.5177968
40
2.8805279
50
263.6502775
51
264.5155379
0
ARC
8
DEFAULT_255_2_778
10
6.0446981
20
5.2421896
40
2.6032276
50
262.9235135
51
263.6486864
0
ARC
8
DEFAULT_255_2_778
10
6.0044235
20
4.9197627
40
2.2782951
50
261.9990672
51
262.9297177
0
ARC
8
DEFAULT_255_2_778
10
5.9468352
20
4.5115239
40
1.8660145
50
261.0295166
51
262.0053708
0
ARC
8
DEFAULT_255_2_778
10
5.8830111
20
4.1063366
40
1.4558313
50
260.3072391
51
261.024176
0
ARC
8
DEFAULT_255_2_778
10
5.8149439
20
3.7089903
40
1.0526971
50
259.5321286
51
260.3179272
0
ARC
8
DEFAULT_255_2_778
10
5.7386327
20
3.2961031
40
0.6328171
50
258.8988995
51
259.5344928
0
ARC
8
DEFAULT_255_2_778
10
5.6615949
20
2.904324
40
0.2335356
50
258.3594391
51
258.938854
0
ARC
8
DEFAULT_255_2_778
10
6.1226308
20
3.0534237
40
0.63323
50
216.6320798
51
218.0359649
0
ARC
8
DEFAULT_255_2_778
10
6.8837379
20
3.6460015
40
1.5978184
50
217.9559228
51
219.5851449
0
ARC
8
DEFAULT_255_2_778
10
7.5280481
20
4.1769181
40
2.4326879
50
219.5520774
51
221.1039957
0
ARC
8
DEFAULT_255_2_778
10
8.0977424
20
4.6740552
40
3.1887943
50
221.1052288
51
223.0041037
0
ARC
8
DEFAULT_255_2_778
10
8.5888909
20
5.1310133
40
3.8596421
50
222.9920421
51
224.7942387
0
ARC
8
DEFAULT_255_2_778
10
9.000232
20
5.5394271
40
4.4393
50
224.7943907
51
226.8517724
0
ARC
8
DEFAULT_255_2_778
10
9.3612312
20
5.9242339
40
4.966933
50
226.8492869
51
229.0249468
0
ARC
8
DEFAULT_255_2_778
10
9.6759845
20
6.2866942
40
5.4469821
50
229.0253573
51
231.4869578
0
ARC
8
DEFAULT_255_2_778
10
9.9414313
20
6.6196213
40
5.8727782
50
231.4831336
51
233.8877902
0
ARC
8
DEFAULT_255_2_778
10
10.1712659
20
6.9349165
40
6.2629514
50
233.8891619
51
236.6382767
0
ARC
8
DEFAULT_255_2_778
10
10.3796807
20
7.2512883
40
6.641802
50
236.6374902
51
239.489455
0
ARC
8
DEFAULT_255_2_778
10
10.5534919
20
7.54541
40
6.9834416
50
239.4860101
51
242.0339703
0
ARC
8
DEFAULT_255_2_778
10
10.6949413
20
7.8112797
40
7.2845971
50
242.0319826
51
244.3552544
0
ARC
8
DEFAULT_255_2_778
10
10.8280208
20
8.0889907
40
7.5925475
50
244.3569152
51
246.947937
0
ARC
8
DEFAULT_255_2_778
10
10.9626985
20
8.4056711
40
7.936676
50
246.9485007
51
249.6157952
0
ARC
8
DEFAULT_255_2_778
10
11.0904626
20
8.7492281
40
8.3032208
50
249.6151216
51
252.1745676
0
ARC
8
DEFAULT_255_2_778
10
11.2112262
20
9.125093
40
8.6980096
50
252.175179
51
254.7663311
0
ARC
8
DEFAULT_255_2_778
10
11.3243581
20
9.5403509
40
9.1284024
50
254.7660477
51
257.2587878
0
ARC
8
DEFAULT_255_2_778
10
11.4296514
20
10.0068735
40
9.6066597
50
257.2599212
51
259.8238402
0
ARC
8
DEFAULT_255_2_778
10
11.5077385
20
10.4349999
40
10.0418474
50
259.8168824
51
261.4025779
0
LINE
8
DEFAULT_255_2_778
10
11.9909742
20
1.9611916
11
9.7948742
21
3.9455916
0
LINE
8
DEFAULT_255_2_778
10
10.0065742
20
0.5059916
11
10.0065742
21
0.5059916
0
ARC
8
DEFAULT_255_2_778
10
6.0922095
20
8.1502022
40
5.508723
50
271.8788927
51
273.0128065
0
ARC
8
DEFAULT_255_2_778
10
6.1037034
20
7.8039909
40
5.162321
50
270.9381424
51
271.877377
0
ARC
8
DEFAULT_255_2_778
10
6.1088241
20
7.4901025
40
4.8483909
50
270.0053445
51
270.9383706
0
ARC
8
DEFAULT_255_2_778
10
6.1081861
20
7.0725996
40
4.4308881
50
268.5310565
51
270.0140984
0
ARC
8
DEFAULT_255_2_778
10
6.0935567
20
6.517858
40
3.8759539
50
266.8897295
51
268.5370243
0
ARC
8
DEFAULT_255_2_778
10
6.0597358
20
5.9011785
40
3.2583479
50
265.2055698
51
266.8952046
0
ARC
8
DEFAULT_255_2_778
10
6.0168552
20
5.3802049
40
2.7356133
50
264.1883216
51
265.1885443
0
ARC
8
DEFAULT_255_2_778
10
5.9664526
20
4.8916086
40
2.2444247
50
262.8018387
51
264.205392
0
ARC
8
DEFAULT_255_2_778
10
5.8862117
20
4.2609568
40
1.6086889
50
261.2753753
51
262.8227462
0
ARC
8
DEFAULT_255_2_778
10
5.787553
20
3.6183829
40
0.9585855
50
260.0186447
51
261.2782377
0
ARC
8
DEFAULT_255_2_778
10
5.6838777
20
3.0316911
40
0.3628041
50
258.9665309
51
260.0843619
0
ARC
8
DEFAULT_255_2_778
10
5.9965973
20
2.9602387
40
0.476513
50
216.6803954
51
217.6657355
0
ARC
8
DEFAULT_255_2_778
10
6.7155966
20
3.5149753
40
1.3846389
50
217.6564773
51
219.2378206
0
ARC
8
DEFAULT_255_2_778
10
7.4153771
20
4.0843361
40
2.2867825
50
219.1963722
51
220.7218382
0
ARC
8
DEFAULT_255_2_778
10
8.0216887
20
4.6060691
40
3.0866695
50
220.719314
51
222.5309745
0
ARC
8
DEFAULT_255_2_778
10
8.5429182
20
5.0832025
40
3.7933067
50
222.5197986
51
224.3090072
0
ARC
8
DEFAULT_255_2_778
10
8.982158
20
5.5119186
40
4.4070893
50
224.3084963
51
226.3586134
0
ARC
8
DEFAULT_255_2_778
10
9.361336
20
5.9091307
40
4.9562281
50
226.3555131
51
228.531984
0
ARC
8
DEFAULT_255_2_778
10
9.6821309
20
6.2720592
40
5.4406106
50
228.5314799
51
230.9651697
0
ARC
8
DEFAULT_255_2_778
10
9.946784
20
6.5979346
40
5.8604152
50
230.961857
51
233.4000186
0
ARC
8
DEFAULT_255_2_778
10
10.169817
20
6.898389
40
6.2346031
50
233.4007858
51
236.1576067
0
ARC
8
DEFAULT_255_2_778
10
10.3648649
20
7.1890924
40
6.5846777
50
236.1566874
51
239.0286999
0
ARC
8
DEFAULT_255_2_778
10
10.5084435
20
7.4255683
40
6.8613251
50
239.0168801
51
239.1099286
0
ARC
8
DEFAULT_255_2_778
10
10.529255
20
7.4627209
40
6.9038922
50
239.1200074
51
241.7209705
0
ARC
8
DEFAULT_255_2_778
10
10.6643417
20
7.7138555
40
7.1890535
50
241.7210884
51
244.4036288
0
ARC
8
DEFAULT_255_2_778
10
10.7883305
20
7.972513
40
7.475893
50
244.4030685
51
247.0273355
0
ARC
8
DEFAULT_255_2_778
10
10.9056753
20
8.249538
40
7.7767463
50
247.0279424
51
249.7378226
0
ARC
8
DEFAULT_255_2_778
10
11.0209554
20
8.562167
40
8.1099527
50
249.7386862
51
252.5343052
0
ARC
8
DEFAULT_255_2_778
10
11.1316718
20
8.9140594
40
8.4788517
50
252.5343258
51
255.2754189
0
ARC
8
DEFAULT_255_2_778
10
11.2299471
20
9.2870128
40
8.8645358
50
255.2737827
51
257.7229686
0
ARC
8
DEFAULT_255_2_778
10
11.3183511
20
9.6942898
40
9.2812968
50
257.7243304
51
260.2805236
0
ARC
8
DEFAULT_255_2_778
10
11.3833548
20
10.0672498
40
9.6598777
50
260.2739642
51
261.8057926
0
ARC
8
DEFAULT_255_2_778
10
4.3496286
20
11.8181406
40
12.6477414
50
296.5684589
51
296.5820862
0
ARC
8
DEFAULT_255_2_778
10
6.6779171
20
7.271808
40
7.5402726
50
296.2189891
51
308.6019826
0
ARC
8
DEFAULT_255_2_778
10
12.7319878
20
28.0234586
40
26.6785259
50
266.016313
51
267.1002164
0
ARC
8
DEFAULT_255_2_778
10
12.4756779
20
24.3773091
40
23.0233796
50
264.6504196
51
266.022245
0
ARC
8
DEFAULT_255_2_778
10
12.141152
20
20.8204927
40
19.4508669
50
263.0666756
51
264.6547174
0
ARC
8
DEFAULT_255_2_778
10
11.7658104
20
17.7331961
40
16.3408377
50
261.4151509
51
263.0663818
0
ARC
8
DEFAULT_255_2_778
10
11.3487816
20
14.9864822
40
13.5626472
50
259.3646837
51
261.425052
0
ARC
8
DEFAULT_255_2_778
10
10.8996581
20
12.5939616
40
11.1283369
50
257.215145
51
259.3639193
0
ARC
8
DEFAULT_255_2_778
10
10.4389109
20
10.5715521
40
9.0541082
50
254.6136456
51
257.2264333
0
ARC
8
DEFAULT_255_2_778
10
9.9594565
20
8.8323991
40
7.250077
50
251.657772
51
254.6201792
0
ARC
8
DEFAULT_255_2_778
10
9.4758468
20
7.3790934
40
5.7184201
50
248.0582851
51
251.6747595
0
ARC
8
DEFAULT_255_2_778
10
8.9862456
20
6.1682038
40
4.4122963
50
243.6475395
51
248.0799939
0
ARC
8
DEFAULT_255_2_778
10
8.5127087
20
5.2152722
40
3.348194
50
238.3132628
51
243.670275
0
ARC
8
DEFAULT_255_2_778
10
8.1480211
20
4.6188306
40
2.6491028
50
234.1661586
51
238.2490024
0
ARC
8
DEFAULT_255_2_778
10
7.9462968
20
4.3363564
40
2.3019997
50
231.8148295
51
234.1206306
0
ARC
8
DEFAULT_255_2_778
10
7.812332
20
4.1662518
40
2.0854768
50
229.1741053
51
231.8186514
0
ARC
8
DEFAULT_255_2_778
10
7.6832723
20
4.0168711
40
1.8880661
50
226.4217179
51
229.1741018
0
LINE
8
DEFAULT_255_2_778
10
6.3817434
20
2.6490933
11
6.3817434
21
2.6490933
0
ENDSEC
0
EOF