0
SECTION
2
HEADER
9
$MEASUREMENT
70
1
0
ENDSEC
0
SECTION
2
TABLES
0
TABLE
2
LTYPE
0
LTYPE
72
65
70
64
2
CONTINUOUS
3
______
73
0
40
0
0
ENDTAB
0
TABLE
2
LAYER
0
LAYER
2
DEFAULT_255_2_778
70
0
62
255
6
CONTINUOUS
0
ENDTAB
0
ENDSEC
0
SECTION
2
ENTITIES
0
LINE
8
DEFAULT_255_2_778
10
23.4155959
20
6.3873262
11
23.4155959
21
-0.2521738
0
LINE
8
DEFAULT_255_2_778
10
23.4155959
20
-0.2521738
11
28.0457959
21
-0.2521738
0
LINE
8
DEFAULT_255_2_778
10
28.0457959
20
-0.2521738
11
28.0457959
21
6.3873262
0
LINE
8
DEFAULT_255_2_778
10
28.0457959
20
6.3873262
11
23.4155959
21
6.3873262
0
LINE
8
DEFAULT_255_2_778
10
27.2784959
20
0.5122262
11
24.1801959
21
0.5122262
0
LINE
8
DEFAULT_255_2_778
10
24.1801959
20
0.5122262
11
24.1801959
21
3.4385262
0
LINE
8
DEFAULT_255_2_778
10
24.1801959
20
3.4385262
11
26.3423959
21
3.4385262
0
LINE
8
DEFAULT_255_2_778
10
26.3423959
20
3.4385262
11
26.3423959
21
4.5088262
0
LINE
8
DEFAULT_255_2_778
10
26.3423959
20
4.5088262
11
27.2596959
21
4.5088262
0
LINE
8
DEFAULT_255_2_778
10
27.2596959
20
4.5088262
11
27.2596959
21
0.5117262
0
LINE
8
DEFAULT_255_2_778
10
27.2596959
20
0.5117262
11
27.2784959
21
0.5122262
0
LINE
8
DEFAULT_255_2_778
10
25.1168959
20
2.6744262
11
26.3616959
21
2.6744262
0
LINE
8
DEFAULT_255_2_778
10
26.3616959
20
2.6744262
11
26.3616959
21
1.2766262
0
LINE
8
DEFAULT_255_2_778
10
26.3616959
20
1.2766262
11
25.1168959
21
1.2766262
0
LINE
8
DEFAULT_255_2_778
10
25.1168959
20
1.2766262
11
25.1168959
21
2.6744262
0
LINE
8
DEFAULT_255_2_778
10
10.1361613
20
3.3079122
11
10.1361613
21
4.3781122
0
LINE
8
DEFAULT_255_2_778
10
10.1361613
20
4.3781122
11
9.5276613
21
4.3781122
0
LINE
8
DEFAULT_255_2_778
10
9.5276613
20
4.3781122
11
9.5276613
21
3.3079122
0
LINE
8
DEFAULT_255_2_778
10
9.5276613
20
3.3079122
11
9.0690613
21
3.3079122
0
LINE
8
DEFAULT_255_2_778
10
9.0690613
20
3.3079122
11
9.0690613
21
2.6745122
0
LINE
8
DEFAULT_255_2_778
10
9.0690613
20
2.6745122
11
9.5276613
21
2.6745122
0
LINE
8
DEFAULT_255_2_778
10
9.5276613
20
2.6745122
11
9.5276613
21
0.5123122
0
LINE
8
DEFAULT_255_2_778
10
9.5276613
20
0.5123122
11
10.7724613
21
0.5123122
0
LINE
8
DEFAULT_255_2_778
10
10.7724613
20
0.5123122
11
10.7724613
21
1.1457122
0
LINE
8
DEFAULT_255_2_778
10
10.7724613
20
1.1457122
11
10.1361613
21
1.1457122
0
LINE
8
DEFAULT_255_2_778
10
10.1361613
20
1.1457122
11
10.1361613
21
2.6745122
0
LINE
8
DEFAULT_255_2_778
10
10.1361613
20
2.6745122
11
10.7695613
21
2.6745122
0
LINE
8
DEFAULT_255_2_778
10
10.7695613
20
2.6745122
11
10.7695613
21
3.3079122
0
LINE
8
DEFAULT_255_2_778
10
10.7695613
20
3.3079122
11
10.1361613
21
3.3079122
0
LINE
8
DEFAULT_255_2_778
10
11.6871613
20
2.6745122
11
13.2375613
21
2.6745122
0
LINE
8
DEFAULT_255_2_778
10
13.2375613
20
2.6745122
11
13.2375613
21
2.2157122
0
LINE
8
DEFAULT_255_2_778
10
13.2375613
20
2.2157122
11
11.0754613
21
2.2157122
0
LINE
8
DEFAULT_255_2_778
10
11.0754613
20
2.2157122
11
11.0754613
21
0.5118122
0
LINE
8
DEFAULT_255_2_778
10
11.0754613
20
0.5118122
11
13.8490613
21
0.5118122
0
LINE
8
DEFAULT_255_2_778
10
13.8490613
20
0.5118122
11
13.8490613
21
3.3079122
0
LINE
8
DEFAULT_255_2_778
10
13.8490613
20
3.3079122
11
11.6839613
21
3.3079122
0
LINE
8
DEFAULT_255_2_778
10
11.6839613
20
3.3079122
11
11.6871613
21
2.6745122
0
LINE
8
DEFAULT_255_2_778
10
13.2375613
20
1.1457122
11
11.6871613
21
1.1457122
0
LINE
8
DEFAULT_255_2_778
10
11.6871613
20
1.1457122
11
11.6871613
21
1.6072122
0
LINE
8
DEFAULT_255_2_778
10
11.6871613
20
1.6072122
11
13.2375613
21
1.6072122
0
LINE
8
DEFAULT_255_2_778
10
13.2375613
20
1.6072122
11
13.2375613
21
1.1457122
0
LINE
8
DEFAULT_255_2_778
10
14.1551613
20
3.3079122
11
14.7637613
21
3.3079122
0
LINE
8
DEFAULT_255_2_778
10
14.7637613
20
3.3079122
11
14.7637613
21
0.5343122
0
LINE
8
DEFAULT_255_2_778
10
14.7637613
20
0.5343122
11
14.1551613
21
0.5343122
0
LINE
8
DEFAULT_255_2_778
10
14.1551613
20
0.5343122
11
14.1551613
21
3.3079122
0
LINE
8
DEFAULT_255_2_778
10
7.0569613
20
2.6745122
11
8.1271613
21
2.6745122
0
LINE
8
DEFAULT_255_2_778
10
8.1271613
20
2.6745122
11
8.1271613
21
0.5123122
0
LINE
8
DEFAULT_255_2_778
10
8.1271613
20
0.5123122
11
8.7605613
21
0.5123122
0
LINE
8
DEFAULT_255_2_778
10
8.7605613
20
0.5123122
11
8.7605613
21
3.3079122
0
LINE
8
DEFAULT_255_2_778
10
8.7605613
20
3.3079122
11
6.4452613
21
3.3079122
0
LINE
8
DEFAULT_255_2_778
10
6.4452613
20
3.3079122
11
6.4452613
21
0.5123122
0
LINE
8
DEFAULT_255_2_778
10
6.4452613
20
0.5123122
11
7.0537613
21
0.5123122
0
LINE
8
DEFAULT_255_2_778
10
7.0537613
20
0.5123122
11
7.0569613
21
2.6745122
0
LINE
8
DEFAULT_255_2_778
10
3.0352613
20
1.1457122
11
0.8757613
21
1.1457122
0
LINE
8
DEFAULT_255_2_778
10
0.8757613
20
1.1457122
11
0.8757613
21
2.6745122
0
LINE
8
DEFAULT_255_2_778
10
0.8757613
20
2.6745122
11
3.0379613
21
2.6745122
0
LINE
8
DEFAULT_255_2_778
10
3.0379613
20
2.6745122
11
3.0379613
21
3.3079122
0
LINE
8
DEFAULT_255_2_778
10
3.0379613
20
3.3079122
11
0.2645613
21
3.3079122
0
LINE
8
DEFAULT_255_2_778
10
0.2645613
20
3.3079122
11
0.2645613
21
0.5123122
0
LINE
8
DEFAULT_255_2_778
10
0.2645613
20
0.5123122
11
3.0381613
21
0.5123122
0
LINE
8
DEFAULT_255_2_778
10
3.0381613
20
0.5123122
11
3.0352613
21
1.1457122
0
LINE
8
DEFAULT_255_2_778
10
3.3413613
20
2.7618122
11
3.3413613
21
0.5340122
0
LINE
8
DEFAULT_255_2_778
10
3.3413613
20
0.5340122
11
6.1150613
21
0.5340122
0
LINE
8
DEFAULT_255_2_778
10
6.1150613
20
0.5340122
11
6.1150613
21
3.3079122
0
LINE
8
DEFAULT_255_2_778
10
6.1150613
20
3.3079122
11
3.3443613
21
3.3079122
0
LINE
8
DEFAULT_255_2_778
10
3.3443613
20
3.3079122
11
3.3413613
21
2.7618122
0
LINE
8
DEFAULT_255_2_778
10
3.9748613
20
2.6745122
11
5.5252613
21
2.6745122
0
LINE
8
DEFAULT_255_2_778
10
5.5252613
20
2.6745122
11
5.5252613
21
1.1240122
0
LINE
8
DEFAULT_255_2_778
10
5.5252613
20
1.1240122
11
3.9748613
21
1.1240122
0
LINE
8
DEFAULT_255_2_778
10
3.9748613
20
1.1240122
11
3.9748613
21
2.6745122
0
LINE
8
DEFAULT_255_2_778
10
14.1522613
20
4.3784122
11
14.7608613
21
4.3784122
0
LINE
8
DEFAULT_255_2_778
10
14.7608613
20
4.3784122
11
14.7608613
21
3.7699122
0
LINE
8
DEFAULT_255_2_778
10
14.7608613
20
3.7699122
11
14.1522613
21
3.7699122
0
LINE
8
DEFAULT_255_2_778
10
14.1522613
20
3.7699122
11
14.1522613
21
4.3784122
0
LINE
8
DEFAULT_255_2_778
10
21.2505613
20
3.3082122
11
20.6419613
21
3.3082122
0
LINE
8
DEFAULT_255_2_778
10
20.6419613
20
3.3082122
11
20.6419613
21
0.5126122
0
LINE
8
DEFAULT_255_2_778
10
20.6419613
20
0.5126122
11
21.2505613
21
0.5126122
0
LINE
8
DEFAULT_255_2_778
10
21.2505613
20
0.5126122
11
21.2505613
21
2.6747122
0
LINE
8
DEFAULT_255_2_778
10
21.2505613
20
2.6747122
11
22.9544613
21
2.6747122
0
LINE
8
DEFAULT_255_2_778
10
22.9544613
20
2.6747122
11
22.9544613
21
3.3084122
0
LINE
8
DEFAULT_255_2_778
10
22.9544613
20
3.3084122
11
21.2505613
21
3.3082122
0
LINE
8
DEFAULT_255_2_778
10
15.7056613
20
2.6745122
11
16.7758613
21
2.6745122
0
LINE
8
DEFAULT_255_2_778
10
16.7758613
20
2.6745122
11
16.7758613
21
0.5123122
0
LINE
8
DEFAULT_255_2_778
10
16.7758613
20
0.5123122
11
17.3844613
21
0.5123122
0
LINE
8
DEFAULT_255_2_778
10
17.3844613
20
0.5123122
11
17.3844613
21
3.3079122
0
LINE
8
DEFAULT_255_2_778
10
17.3844613
20
3.3079122
11
15.0693613
21
3.3079122
0
LINE
8
DEFAULT_255_2_778
10
15.0693613
20
3.3079122
11
15.0693613
21
0.5123122
0
LINE
8
DEFAULT_255_2_778
10
15.0693613
20
0.5123122
11
15.7056613
21
0.5123122
0
LINE
8
DEFAULT_255_2_778
10
15.7056613
20
0.5123122
11
15.7056613
21
2.6745122
0
LINE
8
DEFAULT_255_2_778
10
17.7151613
20
3.3079122
11
17.7151613
21
0.5343122
0
LINE
8
DEFAULT_255_2_778
10
17.7151613
20
0.5343122
11
20.0302613
21
0.5343122
0
LINE
8
DEFAULT_255_2_778
10
20.0302613
20
0.5343122
11
20.0302613
21
1.1428122
0
LINE
8
DEFAULT_255_2_778
10
20.0302613
20
1.1428122
11
18.3263613
21
1.1428122
0
LINE
8
DEFAULT_255_2_778
10
18.3263613
20
1.1428122
11
18.3263613
21
1.6072122
0
LINE
8
DEFAULT_255_2_778
10
18.3263613
20
1.6072122
11
20.3358613
21
1.6072122
0
LINE
8
DEFAULT_255_2_778
10
20.3358613
20
1.6072122
11
20.3358613
21
3.3111122
0
LINE
8
DEFAULT_255_2_778
10
20.3358613
20
3.3111122
11
18.0207613
21
3.3111122
0
LINE
8
DEFAULT_255_2_778
10
18.0207613
20
3.3111122
11
17.7151613
21
3.3079122
0
LINE
8
DEFAULT_255_2_778
10
18.3236613
20
2.6745122
11
19.7272613
21
2.6745122
0
LINE
8
DEFAULT_255_2_778
10
19.7272613
20
2.6745122
11
19.7272613
21
2.2157122
0
LINE
8
DEFAULT_255_2_778
10
19.7272613
20
2.2157122
11
18.3294613
21
2.2157122
0
LINE
8
DEFAULT_255_2_778
10
18.3294613
20
2.2157122
11
18.3236613
21
2.6745122
0
ENDSEC
0
EOF