0
SECTION
2
HEADER
9
$MEASUREMENT
70
1
0
ENDSEC
0
SECTION
2
TABLES
0
TABLE
2
LTYPE
0
LTYPE
72
65
70
64
2
CONTINUOUS
3
______
73
0
40
0
0
ENDTAB
0
TABLE
2
LAYER
0
LAYER
2
DEFAULT_255_2_778
70
0
62
255
6
CONTINUOUS
0
ENDTAB
0
ENDSEC
0
SECTION
2
ENTITIES
0
ARC
8
DEFAULT_255_2_778
10
15.9390286
20
0.3352419
40
2.6468399
50
164.7408164
51
164.7990283
0
ARC
8
DEFAULT_255_2_778
10
16.0944236
20
0.2927737
40
2.8079333
50
164.7941943
51
164.8484037
0
ARC
8
DEFAULT_255_2_778
10
16.2790084
20
0.2428161
40
2.999159
50
164.8488755
51
164.8990098
0
ARC
8
DEFAULT_255_2_778
10
16.2160507
20
0.2594807
40
2.9340339
50
164.8929035
51
164.9435203
0
ARC
8
DEFAULT_255_2_778
10
17.5715111
20
-0.1050541
40
4.3376571
50
164.9446965
51
164.9785095
0
ARC
8
DEFAULT_255_2_778
10
6.9460562
20
2.6844178
40
6.6479597
50
344.2907893
51
345.4936259
0
ARC
8
DEFAULT_255_2_778
10
11.6445739
20
1.3772252
40
1.7710643
50
342.7531851
51
343.8449427
0
ARC
8
DEFAULT_255_2_778
10
12.7717649
20
0.9838569
40
0.5794136
50
311.0384068
51
346.8586627
0
ARC
8
DEFAULT_255_2_778
10
12.9572652
20
0.8120263
40
0.3291315
50
281.7166738
51
306.3155613
0
ARC
8
DEFAULT_255_2_778
10
12.9404887
20
1.0615503
40
0.5778786
50
270.2357083
51
278.319395
0
ARC
8
DEFAULT_255_2_778
10
12.9279959
20
0.8068706
40
0.3235358
50
220.15115
51
272.6343149
0
ARC
8
DEFAULT_255_2_778
10
13.8716411
20
1.3122658
40
1.3885781
50
182.5707171
51
210.944297
0
ARC
8
DEFAULT_255_2_778
10
19.4298028
20
1.8677581
40
6.9727631
50
182.5879288
51
185.0829606
0
LINE
8
DEFAULT_255_2_778
10
12.4641512
20
1.5529203
11
12.4640358
21
1.5551211
0
LINE
8
DEFAULT_255_2_778
10
12.4640358
20
1.5551211
11
12.4640027
21
1.5557527
0
ARC
8
DEFAULT_255_2_778
10
36.9718529
20
2.8710553
40
24.5431201
50
181.7974649
51
183.0720383
0
ARC
8
DEFAULT_255_2_778
10
22.5413225
20
2.3930543
40
10.1047282
50
180.056028
51
181.6549723
0
ARC
8
DEFAULT_255_2_778
10
17.6875039
20
2.4361079
40
5.2511715
50
171.561057
51
180.5775841
0
ARC
8
DEFAULT_255_2_778
10
15.4871004
20
2.7439212
40
3.029475
50
161.847363
51
171.2122934
0
ARC
8
DEFAULT_255_2_778
10
12.938934
20
3.5479655
40
0.3588752
50
96.6133731
51
157.075676
0
ARC
8
DEFAULT_255_2_778
10
12.9457122
20
3.5179598
40
0.3894757
50
96.9538327
51
97.0955201
0
ARC
8
DEFAULT_255_2_778
10
12.9416413
20
3.5507067
40
0.3564768
50
89.9967156
51
96.9415641
0
ARC
8
DEFAULT_255_2_778
10
12.9503699
20
3.5854315
40
0.3218698
50
25.4512386
51
91.5503279
0
ARC
8
DEFAULT_255_2_778
10
11.823372
20
3.0513486
40
1.5690137
50
3.287265
51
25.3757095
0
ARC
8
DEFAULT_255_2_778
10
5.1753986
20
2.2838789
40
8.2590351
50
5.3490256
51
5.9590968
0
ARC
8
DEFAULT_255_2_778
10
-20.2667796
20
-0.1193929
40
33.8144657
50
5.3046629
51
5.3846446
0
ARC
8
DEFAULT_255_2_778
10
20.9669978
20
3.6799611
40
7.5940266
50
185.0855026
51
186.5010643
0
ARC
8
DEFAULT_255_2_778
10
7.2663865
20
2.079721
40
6.1997893
50
1.3059973
51
6.8591224
0
ARC
8
DEFAULT_255_2_778
10
6.9563201
20
2.0684253
40
6.5100339
50
359.9981834
51
1.3431893
0
ARC
8
DEFAULT_255_2_778
10
6.7345564
20
2.0715569
40
6.7317984
50
351.1109841
51
359.9715896
0
ARC
8
DEFAULT_255_2_778
10
12.9508609
20
3.457691
40
1.1290919
50
38.2789418
51
66.9563754
0
ARC
8
DEFAULT_255_2_778
10
12.968602
20
3.4852068
40
1.0968411
50
67.2465496
51
90.1172152
0
ARC
8
DEFAULT_255_2_778
10
12.9680415
20
3.4026918
40
1.179355
50
90.0817832
51
102.8333028
0
ARC
8
DEFAULT_255_2_778
10
12.9814705
20
3.3353281
40
1.2480202
50
102.7475005
51
105.615124
0
ARC
8
DEFAULT_255_2_778
10
12.9067733
20
3.6015033
40
0.9715626
50
105.5978583
51
105.648881
0
ARC
8
DEFAULT_255_2_778
10
12.8950286
20
3.5459545
40
1.0222224
50
104.1749782
51
145.6450211
0
ARC
8
DEFAULT_255_2_778
10
13.3418251
20
3.1693785
40
1.6046631
50
143.5468547
51
158.5749308
0
ARC
8
DEFAULT_255_2_778
10
13.2882777
20
3.1875669
40
1.5481741
50
158.4776526
51
163.8918814
0
ARC
8
DEFAULT_255_2_778
10
13.19502
20
3.2157296
40
1.4507644
50
163.9385858
51
164.7407158
0
ARC
8
DEFAULT_255_2_778
10
15.8455284
20
2.4620304
40
4.2062964
50
164.3382467
51
173.2463871
0
ARC
8
DEFAULT_255_2_778
10
17.536995
20
2.2563626
40
5.9102149
50
173.1947732
51
180.1732554
0
ARC
8
DEFAULT_255_2_778
10
18.5420355
20
2.2384916
40
6.9152285
50
180.0000058
51
180.3056555
0
ARC
8
DEFAULT_255_2_778
10
19.5902548
20
2.261802
40
7.9635769
50
180.4331328
51
186.220504
0
ARC
8
DEFAULT_255_2_778
10
20.6988465
20
2.3671472
40
9.0770693
50
186.1233184
51
187.7693869
0
ARC
8
DEFAULT_255_2_778
10
15.5458716
20
1.8431412
40
3.9045921
50
190.373667
51
193.7660576
0
ARC
8
DEFAULT_255_2_778
10
14.8231982
20
1.6725402
40
3.1620876
50
193.8795841
51
194.488823
0
ARC
8
DEFAULT_255_2_778
10
13.4085832
20
1.233241
40
1.6840682
50
192.058779
51
222.074769
0
ARC
8
DEFAULT_255_2_778
10
12.8936173
20
0.8304167
40
1.0329194
50
224.6313165
51
247.6120158
0
ARC
8
DEFAULT_255_2_778
10
12.9443524
20
1.1162261
40
1.3179665
50
250.306028
51
270.1242456
0
LINE
8
DEFAULT_255_2_778
10
12.9472104
20
-0.2017372
11
12.948342
21
-0.2017368
0
ARC
8
DEFAULT_255_2_778
10
12.9671886
20
0.9587703
40
1.1606601
50
269.0695976
51
303.7403765
0
ARC
8
DEFAULT_255_2_778
10
13.0980425
20
0.7259193
40
0.8945851
50
305.0547031
51
313.2241281
0
ARC
8
DEFAULT_255_2_778
10
12.3131201
20
1.3600352
40
1.8992072
50
317.3813589
51
349.3189069
0
ARC
8
DEFAULT_255_2_778
10
9.5807288
20
1.9715213
40
4.698541
50
348.1669038
51
356.6048597
0
ARC
8
DEFAULT_255_2_778
10
-1.028087
20
2.7605223
40
15.3362906
50
356.0095458
51
357.1177252
0
ARC
8
DEFAULT_255_2_778
10
3.0446444
20
2.2805822
40
11.2479291
50
358.5163414
51
359.941478
0
ARC
8
DEFAULT_255_2_778
10
8.9807481
20
2.3293237
40
5.3121611
50
359.3503579
51
8.5125524
0
ARC
8
DEFAULT_255_2_778
10
11.5448056
20
2.7188467
40
2.718697
50
8.3927536
51
27.9941553
0
ARC
8
DEFAULT_255_2_778
10
3.8665805
20
1.0131907
40
0.684917
50
332.272262
51
336.7344117
0
ARC
8
DEFAULT_255_2_778
10
4.087339
20
0.8603689
40
0.4196701
50
284.3789707
51
336.7220921
0
ARC
8
DEFAULT_255_2_778
10
4.1576986
20
0.6972357
40
0.2457341
50
277.2247729
51
277.919789
0
ARC
8
DEFAULT_255_2_778
10
4.1323937
20
0.7822515
40
0.3335687
50
276.0780823
51
279.7010808
0
ARC
8
DEFAULT_255_2_778
10
4.1324679
20
0.781484
40
0.3327978
50
270.0000365
51
276.0793656
0
ARC
8
DEFAULT_255_2_778
10
4.1325447
20
0.7820988
40
0.3334127
50
225.6323838
51
269.9868467
0
ARC
8
DEFAULT_255_2_778
10
4.2957428
20
0.9549604
40
0.5711193
50
188.559161
51
226.0547321
0
ARC
8
DEFAULT_255_2_778
10
7.3380721
20
1.6794395
40
3.6968013
50
191.5682243
51
192.6483925
0
ARC
8
DEFAULT_255_2_778
10
1.2259543
20
0.4490482
40
2.5379759
50
11.1100868
51
14.4554364
0
ARC
8
DEFAULT_255_2_778
10
2.5232449
20
0.7707304
40
1.2015176
50
15.0439102
51
15.2048176
0
ARC
8
DEFAULT_255_2_778
10
12.3329404
20
2.0865824
40
8.7079316
50
180.2998812
51
186.5991046
0
ARC
8
DEFAULT_255_2_778
10
12.3415897
20
2.0865913
40
8.7165808
50
180.000001
51
180.2996424
0
ARC
8
DEFAULT_255_2_778
10
12.332103
20
2.0866253
40
8.7070943
50
171.5736003
51
180.0002247
0
ARC
8
DEFAULT_255_2_778
10
0.7358375
20
4.1766302
40
3.0922478
50
344.7361764
51
344.7810029
0
ARC
8
DEFAULT_255_2_778
10
0.4416343
20
4.2567624
40
3.3971684
50
344.77947
51
344.8197399
0
ARC
8
DEFAULT_255_2_778
10
0.0627052
20
4.3597579
40
3.7898454
50
344.81707
51
344.8526929
0
ARC
8
DEFAULT_255_2_778
10
8.4015618
20
2.1559918
40
4.8354207
50
163.6650923
51
165.4659615
0
ARC
8
DEFAULT_255_2_778
10
5.317349
20
3.0429507
40
1.6263278
50
162.9126546
51
163.0914231
0
ARC
8
DEFAULT_255_2_778
10
4.3014275
20
3.4033046
40
0.5512861
50
127.800415
51
167.6927576
0
ARC
8
DEFAULT_255_2_778
10
4.1503413
20
3.5471692
40
0.3464171
50
101.647589
51
122.6323534
0
ARC
8
DEFAULT_255_2_778
10
4.1440061
20
3.6033222
40
0.2901866
50
90.0524198
51
102.6609373
0
ARC
8
DEFAULT_255_2_778
10
4.1187716
20
3.5066819
40
0.3876319
50
34.5101599
51
86.3067865
0
ARC
8
DEFAULT_255_2_778
10
3.9334469
20
3.3305386
40
0.6413965
50
31.9290101
51
38.0991371
0
ARC
8
DEFAULT_255_2_778
10
2.3073095
20
2.8160195
40
2.3323595
50
4.7531077
51
21.4715037
0
ARC
8
DEFAULT_255_2_778
10
-1.3633961
20
2.4496682
40
6.0211066
50
0.0591599
51
5.3329016
0
ARC
8
DEFAULT_255_2_778
10
-21.5468312
20
2.2475395
40
26.2053666
50
359.9092927
51
0.4555348
0
LINE
8
DEFAULT_255_2_778
10
4.6585027
20
2.2060527
11
4.658403
21
2.203248
0
ARC
8
DEFAULT_255_2_778
10
48.4787361
20
0.6775104
40
43.8468867
50
178.0058796
51
178.2216065
0
ARC
8
DEFAULT_255_2_778
10
-2.5580154
20
2.1107469
40
7.211349
50
352.1882595
51
359.4239672
0
ARC
8
DEFAULT_255_2_778
10
1.9664555
20
1.5375661
40
2.6513774
50
342.5491897
51
351.1704281
0
ARC
8
DEFAULT_255_2_778
10
4.1984751
20
3.363594
40
1.2125395
50
93.8811143
51
154.4399365
0
ARC
8
DEFAULT_255_2_778
10
6.5953597
20
2.4582284
40
3.7717458
50
157.7441242
51
177.1517146
0
ARC
8
DEFAULT_255_2_778
10
8.8667474
20
2.2510938
40
6.0513506
50
176.2615666
51
180.080869
0
ARC
8
DEFAULT_255_2_778
10
-88.8920438
20
0.0288192
40
91.7341613
50
1.3274642
51
1.3827989
0
ARC
8
DEFAULT_255_2_778
10
10.6844146
20
2.1743668
40
7.8669432
50
180.148457
51
187.0674112
0
ARC
8
DEFAULT_255_2_778
10
4.9566093
20
1.4340601
40
2.0917866
50
186.2470355
51
216.1248983
0
ARC
8
DEFAULT_255_2_778
10
4.0214855
20
0.7368988
40
0.9255213
50
215.3930887
51
240.4989798
0
ARC
8
DEFAULT_255_2_778
10
4.0525901
20
0.829441
40
1.02155
50
241.5366257
51
271.0133606
0
ARC
8
DEFAULT_255_2_778
10
4.0677062
20
1.2158669
40
1.4078192
50
270.120083
51
277.8757806
0
LINE
8
DEFAULT_255_2_778
10
4.2606138
20
-0.178673
11
4.2608027
21
-0.1786473
0
ARC
8
DEFAULT_255_2_778
10
4.1667031
20
0.8806054
40
1.0634241
50
275.0765877
51
319.7086716
0
ARC
8
DEFAULT_255_2_778
10
4.0991745
20
0.9826184
40
1.1813953
50
318.0525602
51
334.3784024
0
ARC
8
DEFAULT_255_2_778
10
2.2011676
20
1.7927384
40
3.2443435
50
335.9730821
51
354.1023288
0
ARC
8
DEFAULT_255_2_778
10
-1.5275312
20
2.2385485
40
6.9993742
50
353.6085627
51
0.4748187
0
ARC
8
DEFAULT_255_2_778
10
-1.5340546
20
2.2319712
40
7.005955
50
0.5281655
51
8.6480587
0
ARC
8
DEFAULT_255_2_778
10
3.0381037
20
2.925459
40
2.3815038
50
8.6934721
51
28.6462442
0
ARC
8
DEFAULT_255_2_778
10
4.1614597
20
3.3999612
40
1.1745395
50
34.6140229
51
89.6640224
0
ARC
8
DEFAULT_255_2_778
10
4.1684298
20
3.3740872
40
1.2003934
50
90.0039479
51
92.4840769
0
ARC
8
DEFAULT_255_2_778
10
5.8262511
20
0.3668493
40
2.4296682
50
44.8324508
51
55.0500863
0
ARC
8
DEFAULT_255_2_778
10
-0.071863
20
-7.6566508
40
12.3872375
50
53.9488781
51
54.4179347
0
ARC
8
DEFAULT_255_2_778
10
1662.1421537
20
2311.5462676
40
2840.9717723
50
234.3691723
51
234.3699488
0
ARC
8
DEFAULT_255_2_778
10
8.7156611
20
4.8292992
40
2.8816318
50
225.8789961
51
236.0075179
0
ARC
8
DEFAULT_255_2_778
10
7.3414468
20
3.4083282
40
0.9048668
50
194.4748162
51
225.7056825
0
ARC
8
DEFAULT_255_2_778
10
-16.2713816
20
1.5492178
40
22.7952471
50
4.107895
51
4.2164696
0
ARC
8
DEFAULT_255_2_778
10
9.2594993
20
3.4563632
40
2.8068639
50
180.9267226
51
184.7232981
0
ARC
8
DEFAULT_255_2_778
10
7.9046627
20
3.4206048
40
1.4516921
50
180.0000105
51
180.3804324
0
ARC
8
DEFAULT_255_2_778
10
7.0851412
20
3.4580886
40
0.633281
50
149.8960572
51
183.3933381
0
ARC
8
DEFAULT_255_2_778
10
6.8627996
20
3.5568256
40
0.3922753
50
117.4447311
51
146.080932
0
ARC
8
DEFAULT_255_2_778
10
6.7751506
20
3.7086238
40
0.2173052
50
88.599346
51
115.3819245
0
ARC
8
DEFAULT_255_2_778
10
6.7802044
20
3.586469
40
0.3393953
50
86.7403692
51
89.9564675
0
ARC
8
DEFAULT_255_2_778
10
6.7495947
20
3.2889256
40
0.6383436
50
74.9065329
51
85.5158355
0
ARC
8
DEFAULT_255_2_778
10
6.4490076
20
2.0259937
40
1.9363641
50
76.0138394
51
76.0500273
0
ARC
8
DEFAULT_255_2_778
10
6.6885874
20
3.5435994
40
0.4274925
50
2.4069545
51
57.7025862
0
ARC
8
DEFAULT_255_2_778
10
5.9635484
20
3.3304936
40
1.1750948
50
1.4776045
51
11.3399708
0
ARC
8
DEFAULT_255_2_778
10
1.7681877
20
3.1530427
40
5.3740819
50
0.8240106
51
2.215502
0
LINE
8
DEFAULT_255_2_778
10
7.1417139
20
3.2303284
11
7.1417235
21
3.2298127
0
ARC
8
DEFAULT_255_2_778
10
10.00306
20
3.2429506
40
2.8613667
50
180.2630726
51
184.8414937
0
ARC
8
DEFAULT_255_2_778
10
3.2738475
20
3.2287484
40
4.6245443
50
357.1827856
51
359.8811177
0
ARC
8
DEFAULT_255_2_778
10
5.970694
20
3.2834728
40
1.9287607
50
358.0889609
51
21.8850646
0
ARC
8
DEFAULT_255_2_778
10
6.5030279
20
3.4533322
40
1.3720829
50
23.5893477
51
26.5886982
0
ARC
8
DEFAULT_255_2_778
10
6.9181713
20
3.6380519
40
0.9183982
50
27.8756461
51
66.9061265
0
ARC
8
DEFAULT_255_2_778
10
6.8454807
20
3.5495566
40
1.0288164
50
65.115137
51
81.6561307
0
ARC
8
DEFAULT_255_2_778
10
6.8102874
20
3.3558928
40
1.2255556
50
81.3420823
51
90.0428976
0
ARC
8
DEFAULT_255_2_778
10
6.8093964
20
3.3202979
40
1.2611501
50
90.0012076
51
92.7382748
0
ARC
8
DEFAULT_255_2_778
10
6.7870793
20
3.468719
40
1.1119363
50
91.9549756
51
122.6014658
0
ARC
8
DEFAULT_255_2_778
10
6.6555051
20
3.707353
40
0.8401976
50
123.8106843
51
129.4267697
0
ARC
8
DEFAULT_255_2_778
10
6.9126044
20
3.4109103
40
1.2325058
50
129.9067474
51
165.832957
0
ARC
8
DEFAULT_255_2_778
10
7.2200124
20
3.3191934
40
1.5530724
50
165.327921
51
180.1977929
0
ARC
8
DEFAULT_255_2_778
10
7.3624187
20
3.3139248
40
1.6954694
50
180.0031351
51
181.9935688
0
ARC
8
DEFAULT_255_2_778
10
7.4358984
20
3.3180068
40
1.7690473
50
182.0429069
51
192.1075811
0
ARC
8
DEFAULT_255_2_778
10
6.9708101
20
3.3107722
40
1.3159015
50
196.0501878
51
227.4570898
0
ARC
8
DEFAULT_255_2_778
10
9.3171667
20
5.6903198
40
4.6570957
50
225.9828506
51
232.3755358
0
ARC
8
DEFAULT_255_2_778
10
-37.7638602
20
-53.7378476
40
71.1610874
50
51.4349252
51
51.5625977
0
ARC
8
DEFAULT_255_2_778
10
3.1012401
20
-2.520115
40
5.638528
50
48.6927612
51
51.6702052
0
ARC
8
DEFAULT_255_2_778
10
4.9412974
20
-0.4048237
40
2.8349813
50
46.3344721
51
48.408181
0
ARC
8
DEFAULT_255_2_778
10
6.4071018
20
1.0536924
40
0.7697037
50
23.5792867
51
50.3059043
0
ARC
8
DEFAULT_255_2_778
10
6.3354568
20
1.0346185
40
0.8430707
50
359.3412665
51
22.8196068
0
ARC
8
DEFAULT_255_2_778
10
6.0729364
20
1.0269214
40
1.1055371
50
352.7368827
51
359.8965775
0
ARC
8
DEFAULT_255_2_778
10
6.4734532
20
0.956056
40
0.6995511
50
349.3377436
51
354.3474084
0
ARC
8
DEFAULT_255_2_778
10
6.7169555
20
0.8754257
40
0.4466451
50
289.5788479
51
353.7273738
0
ARC
8
DEFAULT_255_2_778
10
6.7631622
20
0.8170173
40
0.3768921
50
285.2824711
51
285.9336079
0
ARC
8
DEFAULT_255_2_778
10
6.7849211
20
0.9139082
40
0.4669455
50
270.1623914
51
279.5638634
0
ARC
8
DEFAULT_255_2_778
10
6.7738641
20
0.7406584
40
0.2939548
50
226.9773753
51
272.4138332
0
ARC
8
DEFAULT_255_2_778
10
7.149778
20
1.0140965
40
0.7555154
50
181.749661
51
220.2686003
0
ARC
8
DEFAULT_255_2_778
10
8.5641497
20
1.1712609
40
2.1770084
50
179.6666584
51
184.7488928
0
ARC
8
DEFAULT_255_2_778
10
10.4985438
20
1.1826603
40
4.1113657
50
179.3234791
51
179.9823546
0
ARC
8
DEFAULT_255_2_778
10
16.0563775
20
1.1003507
40
9.6697982
50
178.5005415
51
179.2246393
0
ARC
8
DEFAULT_255_2_778
10
-0.5491233
20
1.5497684
40
6.9417922
50
358.3788863
51
359.7497812
0
ARC
8
DEFAULT_255_2_778
10
9.581653
20
1.2095727
40
3.9779385
50
175.5321526
51
178.0415022
0
ARC
8
DEFAULT_255_2_778
10
8.890619
20
1.2349004
40
3.286443
50
178.0710766
51
179.9773139
0
ARC
8
DEFAULT_255_2_778
10
7.5514935
20
1.1885768
40
1.9478996
50
178.5990169
51
200.3100825
0
ARC
8
DEFAULT_255_2_778
10
6.8638468
20
0.9625906
40
1.2248575
50
201.5613165
51
218.4728821
0
ARC
8
DEFAULT_255_2_778
10
6.7401793
20
0.9694635
40
1.1353021
50
222.6310016
51
270.567713
0
ARC
8
DEFAULT_255_2_778
10
6.7867701
20
1.3520486
40
1.518243
50
268.6661403
51
270.0029622
0
ARC
8
DEFAULT_255_2_778
10
6.7829927
20
1.5050247
40
1.6712235
50
270.1321946
51
279.5583652
0
ARC
8
DEFAULT_255_2_778
10
6.8878265
20
0.8967608
40
1.0539988
50
279.4292705
51
279.4788481
0
ARC
8
DEFAULT_255_2_778
10
6.8315234
20
0.9538876
40
1.1205676
50
281.8380088
51
344.3791892
0
ARC
8
DEFAULT_255_2_778
10
6.2920388
20
1.0709939
40
1.671975
50
345.4924949
51
359.9722637
0
ARC
8
DEFAULT_255_2_778
10
6.3263965
20
1.0701825
40
1.6376171
50
0.0000699
51
0.9760236
0
ARC
8
DEFAULT_255_2_778
10
6.6170004
20
1.1090088
40
1.3468201
50
359.5349683
51
44.5519124
0
ARC
8
DEFAULT_255_2_778
10
6.7565414
20
1.2074874
40
1.1786189
50
45.8994989
51
47.7304924
0
ARC
8
DEFAULT_255_2_778
10
14.142952
20
2.4070393
40
4.893461
50
340.6084464
51
342.3477706
0
ARC
8
DEFAULT_255_2_778
10
18.2904571
20
0.9059861
40
0.4844137
50
299.0170953
51
345.207046
0
ARC
8
DEFAULT_255_2_778
10
18.3779506
20
0.803917
40
0.3537481
50
289.9764018
51
294.6396834
0
ARC
8
DEFAULT_255_2_778
10
18.3865329
20
0.8034542
40
0.3504704
50
271.3500183
51
288.6834991
0
ARC
8
DEFAULT_255_2_778
10
18.3880803
20
0.7850628
40
0.3320494
50
270.0032426
51
271.1578643
0
ARC
8
DEFAULT_255_2_778
10
18.3990463
20
0.8306867
40
0.377832
50
218.0226127
51
268.3396796
0
ARC
8
DEFAULT_255_2_778
10
18.7145218
20
1.0284631
40
0.749169
50
185.6003271
51
215.0751619
0
ARC
8
DEFAULT_255_2_778
10
24.2434449
20
1.9579581
40
6.3541146
50
188.5158975
51
189.0785482
0
ARC
8
DEFAULT_255_2_778
10
15.3647091
20
0.6440992
40
2.6213379
50
8.1787712
51
10.9060203
0
ARC
8
DEFAULT_255_2_778
10
24.1196055
20
2.0583113
40
6.2487406
50
180.5953503
51
188.4502726
0
ARC
8
DEFAULT_255_2_778
10
25.9867711
20
2.1164083
40
8.1165013
50
179.9951083
51
180.8684911
0
ARC
8
DEFAULT_255_2_778
10
26.5099759
20
2.116574
40
8.6397062
50
179.2862218
51
179.9965027
0
ARC
8
DEFAULT_255_2_778
10
29.5400517
20
2.0309362
40
11.6707119
50
174.3712404
51
179.051141
0
ARC
8
DEFAULT_255_2_778
10
35.0529207
20
1.5534247
40
17.2039598
50
174.1452334
51
174.5894028
0
ARC
8
DEFAULT_255_2_778
10
19.5520912
20
3.0157422
40
1.6397084
50
166.6288268
51
169.7203484
0
ARC
8
DEFAULT_255_2_778
10
18.6180161
20
3.2887999
40
0.6696495
50
126.3918633
51
170.8802185
0
ARC
8
DEFAULT_255_2_778
10
18.4569075
20
3.4498066
40
0.4457671
50
120.9127484
51
121.9965061
0
ARC
8
DEFAULT_255_2_778
10
18.3733848
20
3.4896786
40
0.3721855
50
89.9132849
51
113.0096507
0
ARC
8
DEFAULT_255_2_778
10
18.3739539
20
3.4851612
40
0.3767026
50
87.4215131
51
90.0008698
0
ARC
8
DEFAULT_255_2_778
10
18.3781565
20
3.5107128
40
0.3510011
50
45.2416654
51
87.9191985
0
ARC
8
DEFAULT_255_2_778
10
17.6987176
20
3.1053855
40
1.1344682
50
5.099672
51
35.2385192
0
ARC
8
DEFAULT_255_2_778
10
11.6102645
20
2.1284858
40
7.2984427
50
7.3741588
51
8.4917646
0
ARC
8
DEFAULT_255_2_778
10
25.0512229
20
3.8488176
40
6.2521782
50
187.1998442
51
189.1327857
0
ARC
8
DEFAULT_255_2_778
10
6.2301753
20
2.104046
40
12.670487
50
1.4507905
51
3.4043764
0
ARC
8
DEFAULT_255_2_778
10
8.1324684
20
2.155975
40
10.7674897
50
0.0148758
51
1.4308391
0
ARC
8
DEFAULT_255_2_778
10
9.7050148
20
2.152529
40
9.1949453
50
357.5371362
51
0.0388927
0
ARC
8
DEFAULT_255_2_778
10
12.2126319
20
2.0201065
40
6.6839991
50
350.5540927
51
357.7475232
0
ARC
8
DEFAULT_255_2_778
10
18.3253373
20
3.4738219
40
1.0873966
50
96.1044208
51
149.4264798
0
ARC
8
DEFAULT_255_2_778
10
18.3221775
20
3.437169
40
1.1038179
50
147.7047544
51
157.000692
0
ARC
8
DEFAULT_255_2_778
10
20.5075028
20
2.5834677
40
3.4496593
50
158.1303512
51
174.2375919
0
ARC
8
DEFAULT_255_2_778
10
23.2160888
20
2.2626831
40
6.1769465
50
173.7996614
51
180.2983021
0
ARC
8
DEFAULT_255_2_778
10
28.1159842
20
2.257479
40
11.076791
50
180.139428
51
182.8511048
0
ARC
8
DEFAULT_255_2_778
10
33.4163146
20
2.4829091
40
16.3818187
50
182.7164826
51
182.7384007
0
ARC
8
DEFAULT_255_2_778
10
27.7261392
20
2.4902045
40
10.7021306
50
184.2329986
51
185.8531413
0
ARC
8
DEFAULT_255_2_778
10
22.8561824
20
2.0050592
40
5.8081052
50
185.9914193
51
187.1799567
0
ARC
8
DEFAULT_255_2_778
10
19.746121
20
1.5465194
40
2.6659429
50
185.7564223
51
202.82386
0
ARC
8
DEFAULT_255_2_778
10
18.4289015
20
1.0016912
40
1.2405519
50
203.2293542
51
236.9362263
0
ARC
8
DEFAULT_255_2_778
10
18.4263018
20
1.0253646
40
1.259064
50
237.6231303
51
248.1008019
0
ARC
8
DEFAULT_255_2_778
10
18.368325
20
1.1572942
40
1.3637451
50
252.4323122
51
269.9844911
0
ARC
8
DEFAULT_255_2_778
10
18.367995
20
1.1149374
40
1.3213882
50
269.9983014
51
270.2906421
0
ARC
8
DEFAULT_255_2_778
10
18.3987328
20
0.8852762
40
1.0919746
50
268.7387926
51
313.4135614
0
ARC
8
DEFAULT_255_2_778
10
17.6413623
20
1.4058462
40
1.999909
50
318.9340992
51
351.0477852
0
ARC
8
DEFAULT_255_2_778
10
13.0234543
20
2.2985282
40
6.7024622
50
349.6524349
51
355.9528505
0
LINE
8
DEFAULT_255_2_778
10
19.7092026
20
1.8254861
11
19.7093027
21
1.8266527
0
ARC
8
DEFAULT_255_2_778
10
7.8914104
20
2.1301134
40
11.8217878
50
358.5290782
51
359.9546679
0
ARC
8
DEFAULT_255_2_778
10
13.7044991
20
2.1909436
40
6.0091053
50
359.3307968
51
9.1072376
0
ARC
8
DEFAULT_255_2_778
10
16.4958643
20
2.6269948
40
3.183929
50
9.3100599
51
23.3013536
0
ARC
8
DEFAULT_255_2_778
10
18.3769185
20
3.4338965
40
1.1371193
50
23.4522595
51
89.156846
0
ARC
8
DEFAULT_255_2_778
10
18.3939567
20
3.4917201
40
1.0791727
50
90.016202
51
99.2055299
0
ARC
8
DEFAULT_255_2_778
10
18.3959539
20
3.4765306
40
1.0944861
50
99.1815308
51
99.7978403
0
LINE
8
DEFAULT_255_2_778
10
13.9454027
20
3.9949527
11
13.8372027
21
4.1571527
0
LINE
8
DEFAULT_255_2_778
10
7.1519027
20
3.0014527
11
7.8928027
21
3.0014527
0
LINE
8
DEFAULT_255_2_778
10
6.3926027
20
1.5194527
11
5.6158027
21
1.5194527
0
ARC
8
DEFAULT_255_2_778
10
14.7574893
20
1.2047243
40
12.9116087
50
177.5594972
51
178.3770148
0
ARC
8
DEFAULT_255_2_778
10
-20.0813699
20
2.2228174
40
21.9421313
50
357.9833186
51
358.2961819
0
ARC
8
DEFAULT_255_2_778
10
-1.003713
20
1.4789261
40
2.8510242
50
347.7695249
51
359.4320136
0
ARC
8
DEFAULT_255_2_778
10
0.6878028
20
1.1342285
40
1.1250825
50
331.5370824
51
346.6763627
0
ARC
8
DEFAULT_255_2_778
10
1.4508799
20
0.726144
40
0.2597993
50
265.6076132
51
330.4525648
0
ARC
8
DEFAULT_255_2_778
10
1.4316021
20
0.9016205
40
0.4345132
50
261.8915805
51
269.9183335
0
ARC
8
DEFAULT_255_2_778
10
1.4196078
20
0.8211728
40
0.3531782
50
261.8913421
51
261.97716
0
ARC
8
DEFAULT_255_2_778
10
1.4950504
20
0.8201309
40
0.370426
50
201.4604369
51
250.2359405
0
ARC
8
DEFAULT_255_2_778
10
2.1355291
20
1.190043
40
1.1073075
50
205.7429931
51
207.1585697
0
ARC
8
DEFAULT_255_2_778
10
3.0899652
20
1.6377826
40
2.1615154
50
202.8988386
51
205.4449691
0
ARC
8
DEFAULT_255_2_778
10
5.6231434
20
1.910879
40
4.6595167
50
187.4579632
51
193.8342257
0
ARC
8
DEFAULT_255_2_778
10
7.8344478
20
2.1922157
40
6.8886361
50
180.7745684
51
187.3908592
0
ARC
8
DEFAULT_255_2_778
10
9.4761608
20
2.2446514
40
8.5309614
50
180.2032578
51
180.9776512
0
ARC
8
DEFAULT_255_2_778
10
9.7516782
20
2.2460171
40
8.8064819
50
180.0000029
51
180.2057841
0
ARC
8
DEFAULT_255_2_778
10
10.8435813
20
2.2326972
40
9.8983941
50
175.8254312
51
179.9229017
0
ARC
8
DEFAULT_255_2_778
10
11.9314766
20
2.1643505
40
10.9883839
50
174.6875808
51
175.8829366
0
ARC
8
DEFAULT_255_2_778
10
-6.6982075
20
4.3587831
40
7.7780772
50
351.2959823
51
351.829984
0
ARC
8
DEFAULT_255_2_778
10
11.5125651
20
1.7433146
40
10.6195562
50
171.4402007
51
171.824733
0
ARC
8
DEFAULT_255_2_778
10
1.9532815
20
3.2548037
40
0.944516
50
143.57772
51
175.8019702
0
ARC
8
DEFAULT_255_2_778
10
1.6398704
20
3.4359068
40
0.5861896
50
135.0110468
51
139.6301702
0
ARC
8
DEFAULT_255_2_778
10
1.3944041
20
3.6166195
40
0.2884744
50
89.9939272
51
125.8899187
0
ARC
8
DEFAULT_255_2_778
10
1.3944315
20
3.6165258
40
0.2885681
50
87.7830051
51
89.9993713
0
ARC
8
DEFAULT_255_2_778
10
1.3944609
20
3.6171224
40
0.2879708
50
69.3126868
51
87.7842721
0
ARC
8
DEFAULT_255_2_778
10
1.2787436
20
3.4887391
40
0.4533406
50
9.979153
51
61.3369796
0
ARC
8
DEFAULT_255_2_778
10
0.4338699
20
3.2023393
40
1.3419369
50
14.6047313
51
15.7811966
0
ARC
8
DEFAULT_255_2_778
10
-0.2101141
20
3.0382889
40
2.0064812
50
12.4489556
51
14.5010643
0
ARC
8
DEFAULT_255_2_778
10
-2.8458891
20
2.828362
40
4.6397767
50
3.4729304
51
7.9592427
0
LINE
8
DEFAULT_255_2_778
10
1.7853667
20
3.1094256
11
1.7854417
21
3.108412
0
ARC
8
DEFAULT_255_2_778
10
6.4525891
20
3.3919925
40
4.6757548
50
183.4770742
51
187.916206
0
ARC
8
DEFAULT_255_2_778
10
-0.6151397
20
2.8249059
40
3.214251
50
358.6294353
51
15.0119125
0
ARC
8
DEFAULT_255_2_778
10
0.8700465
20
3.188611
40
1.6858753
50
16.1471161
51
31.4022795
0
ARC
8
DEFAULT_255_2_778
10
1.4698255
20
3.5947489
40
0.9629357
50
29.3704923
51
65.2267233
0
ARC
8
DEFAULT_255_2_778
10
1.4145312
20
3.4737786
40
1.0959436
50
65.252044
51
90.2508711
0
ARC
8
DEFAULT_255_2_778
10
1.4098627
20
3.4009566
40
1.1687549
50
90.0063782
51
95.1017554
0
ARC
8
DEFAULT_255_2_778
10
1.4114174
20
3.3844579
40
1.1853265
50
95.1056894
51
103.4809483
0
ARC
8
DEFAULT_255_2_778
10
1.3238346
20
3.6445202
40
0.9123422
50
101.9394148
51
142.2019362
0
ARC
8
DEFAULT_255_2_778
10
1.9251291
20
3.1720483
40
1.6770461
50
142.0374584
51
163.3396174
0
ARC
8
DEFAULT_255_2_778
10
2.5741986
20
2.9370451
40
2.3665653
50
162.3941312
51
167.4933126
0
ARC
8
DEFAULT_255_2_778
10
2.6717802
20
2.9139354
40
2.4668362
50
167.4601068
51
169.0947337
0
ARC
8
DEFAULT_255_2_778
10
-0.006772
20
3.3926632
40
0.2565463
50
342.5243392
51
357.3105781
0
ARC
8
DEFAULT_255_2_778
10
1.2691165
20
3.0377446
40
1.0679676
50
164.9184898
51
165.8248663
0
ARC
8
DEFAULT_255_2_778
10
0.4285336
20
3.2451998
40
0.2022307
50
164.4906134
51
178.4699548
0
ARC
8
DEFAULT_255_2_778
10
0.3279448
20
3.2497679
40
0.1015733
50
179.5308552
51
198.2697858
0
ARC
8
DEFAULT_255_2_778
10
0.2323113
20
3.1955224
40
0.0224181
50
92.095184
51
115.9776276
0
ARC
8
DEFAULT_255_2_778
10
0.2296402
20
3.2011443
40
0.0161944
50
116.1940661
51
184.3157995
0
ARC
8
DEFAULT_255_2_778
10
4.6912097
20
2.4496425
40
4.5401412
50
170.487926
51
178.4461451
0
ARC
8
DEFAULT_255_2_778
10
6.795333
20
2.35895
40
6.646035
50
178.1564541
51
180.0343658
0
ARC
8
DEFAULT_255_2_778
10
9.8512988
20
2.3759487
40
9.7020223
50
180.1239283
51
182.6036087
0
ARC
8
DEFAULT_255_2_778
10
-17.9931469
20
0.4224097
40
18.2153683
50
4.7470434
51
4.7639949
0
ARC
8
DEFAULT_255_2_778
10
-37.26372
20
-1.1473988
40
37.5497635
50
4.4372203
51
4.7007381
0
ARC
8
DEFAULT_255_2_778
10
6.580594
20
2.1112591
40
6.4168458
50
183.1584882
51
190.9333428
0
ARC
8
DEFAULT_255_2_778
10
2.1825963
20
1.2613833
40
1.9374853
50
190.9246235
51
215.7858172
0
ARC
8
DEFAULT_255_2_778
10
1.3470627
20
0.7133556
40
0.940261
50
218.4691552
51
244.836996
0
ARC
8
DEFAULT_255_2_778
10
1.4004178
20
0.8508526
40
1.0874438
50
245.3729086
51
270.5988464
0
ARC
8
DEFAULT_255_2_778
10
1.4103348
20
1.0909738
40
1.3275064
50
270.0625241
51
277.5425342
0
ARC
8
DEFAULT_255_2_778
10
1.3923244
20
1.2245592
40
1.4623001
50
277.5550652
51
286.32647
0
ARC
8
DEFAULT_255_2_778
10
1.4232973
20
0.8723732
40
1.1177581
50
289.8799668
51
308.318825
0
ARC
8
DEFAULT_255_2_778
10
1.2518815
20
1.0059122
40
1.3298181
50
310.5464315
51
347.4097137
0
ARC
8
DEFAULT_255_2_778
10
-0.3573977
20
1.4697649
40
3.0032393
50
345.4650697
51
354.5340792
0
ARC
8
DEFAULT_255_2_778
10
-2.8309334
20
1.7412424
40
5.4914962
50
354.1727665
51
356.9319397
0
ARC
8
DEFAULT_255_2_778
10
3.0949716
20
1.5166713
40
0.4476832
50
179.4695205
51
188.9109425
0
ARC
8
DEFAULT_255_2_778
10
3.9632465
20
1.5106744
40
1.315978
50
176.7495748
51
179.5584373
0
ARC
8
DEFAULT_255_2_778
10
1.3610435
20
1.6593962
40
1.2904717
50
356.7079679
51
359.4880333
0
ARC
8
DEFAULT_255_2_778
10
2.3665116
20
1.6577068
40
0.2851219
50
358.0219419
51
19.8506728
0
ARC
8
DEFAULT_255_2_778
10
15.5688325
20
2.7162244
40
0.5931826
50
270.1430711
51
317.3884833
0
ARC
8
DEFAULT_255_2_778
10
15.4050923
20
4.1662264
40
2.0498523
50
270.6194519
51
274.623147
0
ARC
8
DEFAULT_255_2_778
10
15.3367565
20
9.0365324
40
6.9206302
50
269.8512702
51
270.749247
0
ARC
8
DEFAULT_255_2_778
10
15.2925915
20
3.8042212
40
0.0370495
50
315.0050181
51
316.8799554
0
ARC
8
DEFAULT_255_2_778
10
15.296658
20
3.8000953
40
0.0312621
50
317.3052085
51
5.194287
0
ARC
8
DEFAULT_255_2_778
10
15.3355165
20
3.8060797
40
0.0083439
50
81.2087134
51
202.2108939
0
ARC
8
DEFAULT_255_2_778
10
15.4626533
20
1.8192461
40
1.9990456
50
91.3463956
51
93.6097782
0
ARC
8
DEFAULT_255_2_778
10
15.4536456
20
2.1561641
40
1.6620094
50
90.0126769
51
91.3088641
0
ARC
8
DEFAULT_255_2_778
10
15.4890712
20
2.9845381
40
0.8344034
50
64.1210254
51
92.4585612
0
ARC
8
DEFAULT_255_2_778
10
15.6332694
20
3.3292183
40
0.4618143
50
24.6802372
51
61.5513196
0
ARC
8
DEFAULT_255_2_778
10
15.5559283
20
3.2868299
40
0.5498251
50
23.6197475
51
25.3286487
0
ARC
8
DEFAULT_255_2_778
10
15.1575279
20
3.0153385
40
1.027499
50
14.8174116
51
28.5956634
0
ARC
8
DEFAULT_255_2_778
10
14.8871189
20
2.9393869
40
1.3083467
50
359.9496505
51
15.0044753
0
ARC
8
DEFAULT_255_2_778
10
14.8878978
20
2.9382223
40
1.3075672
50
358.8016168
51
0.0006503
0
ARC
8
DEFAULT_255_2_778
10
15.1161388
20
2.916423
40
1.0790547
50
332.6074879
51
359.7054408
0
ARC
8
DEFAULT_255_2_778
10
15.3895848
20
2.7920416
40
0.7791945
50
322.2146909
51
331.477018
0
ARC
8
DEFAULT_255_2_778
10
15.7459542
20
2.7037687
40
1.2022609
50
270.3115601
51
310.9521752
0
ARC
8
DEFAULT_255_2_778
10
15.7641651
20
2.639886
40
1.1424232
50
312.3624477
51
317.1554871
0
ARC
8
DEFAULT_255_2_778
10
15.5037639
20
2.8697099
40
1.4896572
50
317.4850531
51
354.1557557
0
ARC
8
DEFAULT_255_2_778
10
14.9960427
20
2.9694978
40
2.0054646
50
352.7965392
51
0.0533766
0
ARC
8
DEFAULT_255_2_778
10
14.8989067
20
2.9713469
40
2.1025998
50
0.0005225
51
0.6257632
0
ARC
8
DEFAULT_255_2_778
10
14.8181257
20
2.9681777
40
2.1834116
50
0.6857705
51
17.1382577
0
ARC
8
DEFAULT_255_2_778
10
14.9388854
20
3.003142
40
2.0577121
50
17.198777
51
19.9764305
0
ARC
8
DEFAULT_255_2_778
10
15.6547026
20
3.1767007
40
1.3281686
50
23.4914797
51
68.7040881
0
ARC
8
DEFAULT_255_2_778
10
15.8380189
20
3.5749293
40
0.8909389
50
70.3872033
51
87.3641283
0
ARC
8
DEFAULT_255_2_778
10
27.6736286
20
2.7026527
40
0.2352685
50
16.3561468
51
20.3648918
0
ARC
8
DEFAULT_255_2_778
10
26.3005238
20
2.2822438
40
1.6712773
50
15.9462399
51
16.9293177
0
ARC
8
DEFAULT_255_2_778
10
22.0558401
20
1.0664448
40
6.0866486
50
15.4037555
51
15.9730737
0
ARC
8
DEFAULT_255_2_778
10
11.4538632
20
-1.8624988
40
17.085767
50
15.1364288
51
15.4293766
0
ARC
8
DEFAULT_255_2_778
10
-7.5772806
20
-7.0162935
40
36.8024101
50
14.9723758
51
15.1451675
0
ARC
8
DEFAULT_255_2_778
10
-34.4103835
20
-14.1977318
40
64.5798911
50
14.8765393
51
14.9769991
0
ARC
8
DEFAULT_255_2_778
10
-73.1594321
20
-24.4900853
40
104.6725501
50
14.7839364
51
14.8760191
0
ARC
8
DEFAULT_255_2_778
10
-133.245096
20
-40.3502015
40
166.8161764
50
14.7151828
51
14.7848727
0
ARC
8
DEFAULT_255_2_778
10
-227.4777899
20
-65.0953526
40
264.2437037
50
14.646955
51
14.7145485
0
ARC
8
DEFAULT_255_2_778
10
-368.524237
20
-101.9632088
40
410.0289536
50
14.5953467
51
14.64757
0
ARC
8
DEFAULT_255_2_778
10
-324.9570863
20
-90.6343139
40
365.0129539
50
14.5944804
51
14.5977345
0
ARC
8
DEFAULT_255_2_778
10
-562.6062568
20
-152.4984568
40
610.5822928
50
14.5478894
51
14.5931743
0
ARC
8
DEFAULT_255_2_778
10
-701.5018365
20
-188.55704
40
754.0821302
50
14.5334803
51
14.5489087
0
ARC
8
DEFAULT_255_2_778
10
-759.2150963
20
-203.5197471
40
813.70346
50
14.5218137
51
14.5335524
0
ARC
8
DEFAULT_255_2_778
10
-791.5117932
20
-211.8861727
40
847.0662192
50
14.5084476
51
14.5218669
0
ARC
8
DEFAULT_255_2_778
10
-786.7464798
20
-210.6532726
40
842.1439987
50
14.4989293
51
14.5084637
0
ARC
8
DEFAULT_255_2_778
10
-718.0779111
20
-192.8978671
40
771.2170875
50
14.4899602
51
14.4990821
0
ARC
8
DEFAULT_255_2_778
10
-670.5876259
20
-180.6249204
40
722.1665788
50
14.4839128
51
14.48996
0
ARC
8
DEFAULT_255_2_778
10
-521.1115113
20
-142.0129317
40
567.7839551
50
14.4776542
51
14.4839509
0
ARC
8
DEFAULT_255_2_778
10
-306.2586959
20
-86.5380547
40
345.8848917
50
14.4725475
51
14.4777263
0
ARC
8
DEFAULT_255_2_778
10
-66.9792775
20
-24.7799778
40
98.7640707
50
14.4671385
51
14.4733833
0
LINE
8
DEFAULT_255_2_778
10
2.6346917
20
1.7545256
11
1.8575917
21
1.7545256
0
LINE
8
DEFAULT_255_2_778
10
1.8213917
20
2.7480256
11
2.5981917
21
2.7480256
0
LINE
8
DEFAULT_255_2_778
10
9.7898917
20
1.8087256
11
9.7718917
21
1.7725256
0
LINE
8
DEFAULT_255_2_778
10
9.7718917
20
1.7725256
11
9.2114917
21
4.4466256
0
LINE
8
DEFAULT_255_2_778
10
9.2114917
20
4.4466256
11
8.1274917
21
4.4466256
0
LINE
8
DEFAULT_255_2_778
10
8.1274917
20
4.4466256
11
8.1274917
21
-0.1065744
0
LINE
8
DEFAULT_255_2_778
10
8.1274917
20
-0.1065744
11
8.8320917
21
-0.1065744
0
LINE
8
DEFAULT_255_2_778
10
8.8320917
20
-0.1065744
11
8.8320917
21
3.0372256
0
LINE
8
DEFAULT_255_2_778
10
8.8320917
20
3.0372256
11
9.2294917
21
1.0859256
0
LINE
8
DEFAULT_255_2_778
10
9.2294917
20
1.0859256
11
9.4643917
21
-0.1065744
0
LINE
8
DEFAULT_255_2_778
10
9.4643917
20
-0.1065744
11
10.0244917
21
-0.1065744
0
LINE
8
DEFAULT_255_2_778
10
10.0244917
20
-0.1065744
11
10.6568917
21
2.8927256
0
LINE
8
DEFAULT_255_2_778
10
10.6568917
20
2.8927256
11
10.6568917
21
-0.1065744
0
LINE
8
DEFAULT_255_2_778
10
10.6568917
20
-0.1065744
11
11.3976917
21
-0.1065744
0
LINE
8
DEFAULT_255_2_778
10
11.3976917
20
-0.1065744
11
11.3976917
21
4.4646256
0
LINE
8
DEFAULT_255_2_778
10
11.3976917
20
4.4646256
11
10.3496917
21
4.4646256
0
LINE
8
DEFAULT_255_2_778
10
10.3496917
20
4.4646256
11
9.7898917
21
1.8087256
0
LINE
8
DEFAULT_255_2_778
10
15.3187917
20
2.1159256
11
15.3187917
21
3.7780256
0
LINE
8
DEFAULT_255_2_778
10
15.8789917
20
4.4646256
11
14.5057917
21
4.4646256
0
LINE
8
DEFAULT_255_2_778
10
14.5057917
20
4.4646256
11
14.5057917
21
-0.0885744
0
LINE
8
DEFAULT_255_2_778
10
14.5057917
20
-0.0885744
11
15.3008917
21
-0.0885744
0
LINE
8
DEFAULT_255_2_778
10
15.3008917
20
-0.0885744
11
15.3008917
21
1.5015256
0
LINE
8
DEFAULT_255_2_778
10
15.3008917
20
1.5015256
11
15.7524917
21
1.5015256
0
LINE
8
DEFAULT_255_2_778
10
21.6066917
20
-0.1062744
11
21.6066917
21
0.5080256
0
LINE
8
DEFAULT_255_2_778
10
21.6066917
20
0.5080256
11
20.7935917
21
0.5080256
0
LINE
8
DEFAULT_255_2_778
10
20.7935917
20
0.5080256
11
20.7935917
21
4.4649256
0
LINE
8
DEFAULT_255_2_778
10
20.7935917
20
4.4649256
11
20.0164917
21
4.4649256
0
LINE
8
DEFAULT_255_2_778
10
20.0164917
20
4.4649256
11
20.0164917
21
-0.1062744
0
LINE
8
DEFAULT_255_2_778
10
20.0164917
20
-0.1062744
11
21.6066917
21
-0.1062744
0
LINE
8
DEFAULT_255_2_778
10
21.7870917
20
4.4649256
11
22.5641917
21
4.4649256
0
LINE
8
DEFAULT_255_2_778
10
22.5641917
20
4.4649256
11
22.5641917
21
-0.1062744
0
LINE
8
DEFAULT_255_2_778
10
22.5641917
20
-0.1062744
11
21.7870917
21
-0.1062744
0
LINE
8
DEFAULT_255_2_778
10
21.7870917
20
-0.1062744
11
21.7870917
21
4.4649256
0
LINE
8
DEFAULT_255_2_778
10
22.7086917
20
4.4649256
11
22.7086917
21
3.8145256
0
LINE
8
DEFAULT_255_2_778
10
22.7086917
20
3.8145256
11
23.3952917
21
3.8145256
0
LINE
8
DEFAULT_255_2_778
10
23.3952917
20
3.8145256
11
23.3952917
21
-0.1062744
0
LINE
8
DEFAULT_255_2_778
10
23.3952917
20
-0.1062744
11
24.1540917
21
-0.1062744
0
LINE
8
DEFAULT_255_2_778
10
24.1540917
20
-0.1062744
11
24.1540917
21
3.8145256
0
LINE
8
DEFAULT_255_2_778
10
24.1540917
20
3.8145256
11
24.8226917
21
3.8145256
0
LINE
8
DEFAULT_255_2_778
10
24.8226917
20
3.8145256
11
24.8226917
21
4.4649256
0
LINE
8
DEFAULT_255_2_778
10
24.8226917
20
4.4649256
11
22.7086917
21
4.4649256
0
LINE
8
DEFAULT_255_2_778
10
25.5454917
20
1.8087256
11
25.7804917
21
3.4528256
0
LINE
8
DEFAULT_255_2_778
10
25.7804917
20
3.4528256
11
25.7804917
21
3.4708256
0
LINE
8
DEFAULT_255_2_778
10
25.7804917
20
3.4708256
11
26.0333917
21
1.7905256
0
LINE
8
DEFAULT_255_2_778
10
26.0333917
20
1.7905256
11
25.5454917
21
1.7905256
0
LINE
8
DEFAULT_255_2_778
10
25.5454917
20
1.7905256
11
25.5454917
21
1.8087256
0
LINE
8
DEFAULT_255_2_778
10
25.2382917
20
4.4649256
11
24.4794917
21
-0.1062744
0
LINE
8
DEFAULT_255_2_778
10
24.4794917
20
-0.1062744
11
25.2382917
21
-0.1062744
0
LINE
8
DEFAULT_255_2_778
10
25.2382917
20
-0.1062744
11
25.4549917
21
1.1766256
0
LINE
8
DEFAULT_255_2_778
10
25.4549917
20
1.1766256
11
26.1415917
21
1.1766256
0
LINE
8
DEFAULT_255_2_778
10
26.1415917
20
1.1766256
11
26.3582917
21
-0.0880744
0
LINE
8
DEFAULT_255_2_778
10
26.3582917
20
-0.0880744
11
27.0811917
21
-0.0880744
0
LINE
8
DEFAULT_255_2_778
10
27.0811917
20
-0.0880744
11
26.3043917
21
4.4829256
0
LINE
8
DEFAULT_255_2_778
10
26.3043917
20
4.4829256
11
25.2382917
21
4.4829256
0
LINE
8
DEFAULT_255_2_778
10
25.2382917
20
4.4829256
11
25.2382917
21
4.4649256
0
LINE
8
DEFAULT_255_2_778
10
28.8519917
20
4.4649256
11
28.8519917
21
1.6823256
0
LINE
8
DEFAULT_255_2_778
10
28.8519917
20
1.6823256
11
28.1111917
21
4.4649256
0
LINE
8
DEFAULT_255_2_778
10
28.1111917
20
4.4649256
11
27.2438917
21
4.4649256
0
LINE
8
DEFAULT_255_2_778
10
27.2438917
20
4.4649256
11
27.2438917
21
-0.1062744
0
LINE
8
DEFAULT_255_2_778
10
27.2438917
20
-0.1062744
11
27.8941917
21
-0.1062744
0
LINE
8
DEFAULT_255_2_778
10
27.8941917
20
-0.1062744
11
27.8941917
21
2.7845256
0
LINE
8
DEFAULT_255_2_778
10
28.6530917
20
-0.1062744
11
29.4840917
21
-0.1062744
0
LINE
8
DEFAULT_255_2_778
10
29.4840917
20
-0.1062744
11
29.4840917
21
4.4649256
0
LINE
8
DEFAULT_255_2_778
10
29.4840917
20
4.4649256
11
28.8519917
21
4.4649256
0
ENDSEC
0
EOF