0
SECTION
2
HEADER
9
$MEASUREMENT
70
1
0
ENDSEC
0
SECTION
2
TABLES
0
TABLE
2
LTYPE
0
LTYPE
72
65
70
64
2
CONTINUOUS
3
______
73
0
40
0
0
ENDTAB
0
TABLE
2
LAYER
0
LAYER
2
DEFAULT_255_2_778
70
0
62
255
6
CONTINUOUS
0
ENDTAB
0
ENDSEC
0
SECTION
2
ENTITIES
0
ARC
8
DEFAULT_255_2_778
10
42.5311808
20
5.0386291
40
36.1320474
50
177.4715067
51
178.2525347
0
ARC
8
DEFAULT_255_2_778
10
179.0831419
20
0.6611255
40
172.7541219
50
178.1824176
51
178.2373419
0
ARC
8
DEFAULT_255_2_778
10
-72.9441479
20
8.3570232
40
79.390657
50
357.9819442
51
358.2805971
0
ARC
8
DEFAULT_255_2_778
10
-8.0354408
20
5.9426577
40
14.437747
50
353.3101251
51
358.4865196
0
ARC
8
DEFAULT_255_2_778
10
0.1701455
20
5.0021935
40
6.1785095
50
344.5888456
51
353.1074938
0
ARC
8
DEFAULT_255_2_778
10
2.4318811
20
4.3773222
40
3.8320421
50
331.3520191
51
344.6091945
0
ARC
8
DEFAULT_255_2_778
10
5.0509985
20
2.9316863
40
0.8405757
50
278.6407808
51
332.2373751
0
ARC
8
DEFAULT_255_2_778
10
4.9283822
20
3.3865298
40
1.3097468
50
269.8178006
51
280.9550884
0
ARC
8
DEFAULT_255_2_778
10
4.9264452
20
3.6145888
40
1.5378007
50
261.8188588
51
269.9169892
0
ARC
8
DEFAULT_255_2_778
10
4.9966778
20
3.0894015
40
1.0380248
50
213.6437163
51
253.8306479
0
ARC
8
DEFAULT_255_2_778
10
6.2672121
20
4.0434647
40
2.6258744
50
205.0473958
51
215.6154331
0
ARC
8
DEFAULT_255_2_778
10
9.4350245
20
5.5918977
40
6.1516449
50
203.4051825
51
205.6217487
0
ARC
8
DEFAULT_255_2_778
10
19.1146715
20
9.8196418
40
16.7142648
50
203.1696239
51
203.5245611
0
ARC
8
DEFAULT_255_2_778
10
18.3747063
20
6.8854131
40
15.0728328
50
190.5447756
51
193.982868
0
ARC
8
DEFAULT_255_2_778
10
21.4120001
20
7.4511295
40
18.1623616
50
187.3609084
51
190.5458045
0
ARC
8
DEFAULT_255_2_778
10
25.1082808
20
7.9280735
40
21.8892861
50
184.3104864
51
187.3594681
0
ARC
8
DEFAULT_255_2_778
10
30.6014343
20
8.3191074
40
27.3963018
50
180.1202991
51
184.2625011
0
ARC
8
DEFAULT_255_2_778
10
34.2820024
20
8.3711674
40
31.0770028
50
179.9997939
51
180.2020329
0
ARC
8
DEFAULT_255_2_778
10
37.0369481
20
8.3494723
40
33.8319556
50
177.1629583
51
179.9630693
0
ARC
8
DEFAULT_255_2_778
10
40.4284141
20
8.1984869
40
37.226742
50
175.896343
51
177.1892182
0
ARC
8
DEFAULT_255_2_778
10
42.0415972
20
8.0838863
40
38.8439901
50
174.681913
51
175.8980163
0
ARC
8
DEFAULT_255_2_778
10
-24.1780762
20
15.8800531
40
27.8606597
50
351.3380937
51
351.8581249
0
ARC
8
DEFAULT_255_2_778
10
40.1617938
20
6.6743508
40
37.1344463
50
171.4622241
51
171.8569
0
ARC
8
DEFAULT_255_2_778
10
8.2775751
20
11.597988
40
4.8744756
50
159.4045637
51
173.055095
0
ARC
8
DEFAULT_255_2_778
10
5.7955778
20
12.482074
40
2.2405786
50
138.1545525
51
158.2408838
0
ARC
8
DEFAULT_255_2_778
10
5.6651868
20
12.5809541
40
2.0775217
50
134.9978829
51
137.7870213
0
ARC
8
DEFAULT_255_2_778
10
4.7944906
20
13.2224503
40
1.0211952
50
89.9900619
51
125.8638951
0
ARC
8
DEFAULT_255_2_778
10
4.7946701
20
13.221954
40
1.0216914
50
87.7012328
51
90.0001347
0
ARC
8
DEFAULT_255_2_778
10
4.7947012
20
13.2226991
40
1.0209457
50
69.3161064
51
87.7012988
0
ARC
8
DEFAULT_255_2_778
10
4.669405
20
13.0979655
40
1.1841578
50
35.7582293
51
65.7738547
0
ARC
8
DEFAULT_255_2_778
10
3.7706211
20
12.5037587
40
2.2611558
50
14.446592
51
34.6679206
0
ARC
8
DEFAULT_255_2_778
10
1.5266505
20
11.791762
40
4.6136229
50
14.6218597
51
16.0570756
0
ARC
8
DEFAULT_255_2_778
10
-0.7622462
20
11.2069078
40
6.9760389
50
12.417057
51
14.5241774
0
ARC
8
DEFAULT_255_2_778
10
-6.7229971
20
10.8440822
40
12.9087298
50
4.1258495
51
8.2973118
0
ARC
8
DEFAULT_255_2_778
10
-57.5198321
20
6.7662681
40
63.8686417
50
4.1871497
51
4.4959401
0
LINE
8
DEFAULT_255_2_778
10
6.1783364
20
11.4296061
11
6.1784489
21
11.4280881
0
ARC
8
DEFAULT_255_2_778
10
25.7854698
20
12.6973396
40
19.6480602
50
183.703848
51
186.8756273
0
ARC
8
DEFAULT_255_2_778
10
14.7509681
20
11.4472632
40
8.543636
50
187.4114904
51
188.7387247
0
LINE
8
DEFAULT_255_2_778
10
9.0560114
20
10.1492381
11
9.0560113
21
10.1507968
0
ARC
8
DEFAULT_255_2_778
10
-5.1911993
20
10.2674705
40
14.2476883
50
359.5308022
51
7.6129993
0
ARC
8
DEFAULT_255_2_778
10
1.0304016
20
11.0893524
40
7.9720496
50
7.6820535
51
19.522537
0
ARC
8
DEFAULT_255_2_778
10
3.1439872
20
11.8133323
40
5.7380858
50
19.7617293
51
31.5686992
0
ARC
8
DEFAULT_255_2_778
10
5.0620635
20
13.142187
40
3.4105818
50
29.4170414
51
43.367253
0
ARC
8
DEFAULT_255_2_778
10
4.9423298
20
12.9761873
40
3.6118164
50
43.9773488
51
83.9777114
0
ARC
8
DEFAULT_255_2_778
10
4.8503268
20
12.5437705
40
4.0517617
50
83.3254016
51
90.0142026
0
ARC
8
DEFAULT_255_2_778
10
4.8497865
20
12.4614118
40
4.1341202
50
90.0064318
51
95.1312281
0
ARC
8
DEFAULT_255_2_778
10
4.8548666
20
12.4063676
40
4.1893983
50
95.1330974
51
102.4519831
0
ARC
8
DEFAULT_255_2_778
10
4.858809
20
12.3864354
40
4.2097117
50
102.4458849
51
103.493841
0
ARC
8
DEFAULT_255_2_778
10
4.466255
20
13.511799
40
3.0261604
50
101.23782
51
114.1899728
0
ARC
8
DEFAULT_255_2_778
10
4.7160572
20
13.1032846
40
3.5016859
50
115.1795052
51
144.9700358
0
ARC
8
DEFAULT_255_2_778
10
6.8793107
20
11.5613732
40
6.1581701
50
144.7757732
51
163.1178316
0
ARC
8
DEFAULT_255_2_778
10
8.7639836
20
10.8802069
40
8.1601041
50
162.3841157
51
165.0552108
0
ARC
8
DEFAULT_255_2_778
10
9.1359783
20
10.7800615
40
8.5453423
50
165.0496799
51
167.3868462
0
ARC
8
DEFAULT_255_2_778
10
9.2937142
20
10.7440744
40
8.7071299
50
167.3824095
51
169.119533
0
ARC
8
DEFAULT_255_2_778
10
-0.1647564
20
12.4302087
40
0.9088653
50
342.5306154
51
357.3153238
0
ARC
8
DEFAULT_255_2_778
10
4.3918071
20
11.163653
40
3.821093
50
164.9263091
51
165.8171247
0
ARC
8
DEFAULT_255_2_778
10
1.378493
20
11.907856
40
0.7174825
50
164.4757024
51
178.4643089
0
ARC
8
DEFAULT_255_2_778
10
1.021692
20
11.9241751
40
0.3604356
50
179.5375394
51
198.1097339
0
ARC
8
DEFAULT_255_2_778
10
0.681319
20
11.7377775
40
0.0743934
50
91.7004823
51
103.268625
0
ARC
8
DEFAULT_255_2_778
10
0.6809034
20
11.7354079
40
0.0766102
50
102.5593669
51
116.2151702
0
ARC
8
DEFAULT_255_2_778
10
0.6711275
20
11.7538996
40
0.0557053
50
115.5961347
51
175.357003
0
ARC
8
DEFAULT_255_2_778
10
0.7009933
20
11.7483196
40
0.0859823
50
173.2613971
51
180.1209554
0
ARC
8
DEFAULT_255_2_778
10
16.4852574
20
9.089196
40
16.0914474
50
170.4888547
51
178.5136218
0
ARC
8
DEFAULT_255_2_778
10
23.9719633
20
8.771902
40
23.5841852
50
178.2148327
51
180.0324605
0
ARC
8
DEFAULT_255_2_778
10
32.3457635
20
8.7976998
40
31.9580058
50
180.0702065
51
182.0747686
0
ARC
8
DEFAULT_255_2_778
10
44.5782989
20
9.1931579
40
44.1968647
50
182.012979
51
182.4914095
0
ARC
8
DEFAULT_255_2_778
10
-128.5267524
20
-3.3598869
40
129.3875143
50
4.4348972
51
4.7133319
0
ARC
8
DEFAULT_255_2_778
10
38.486091
20
9.3095689
40
38.1059985
50
184.0094342
51
186.8614723
0
ARC
8
DEFAULT_255_2_778
10
13.0520429
20
6.2697479
40
12.4909632
50
186.9556757
51
194.1161814
0
ARC
8
DEFAULT_255_2_778
10
7.4839131
20
4.812305
40
6.7357472
50
193.6446958
51
213.6516441
0
ARC
8
DEFAULT_255_2_778
10
6.557342
20
4.2786258
40
5.6691373
50
214.3510966
51
216.8661763
0
ARC
8
DEFAULT_255_2_778
10
4.6712192
20
2.9913921
40
3.3894194
50
218.5862536
51
230.0696755
0
ARC
8
DEFAULT_255_2_778
10
4.6410131
20
2.9675784
40
3.3517796
50
230.2043419
51
250.5975301
0
ARC
8
DEFAULT_255_2_778
10
4.8270114
20
3.5350044
40
3.9487911
50
250.7870965
51
269.8058955
0
ARC
8
DEFAULT_255_2_778
10
4.8566121
20
4.0478111
40
4.461782
50
269.448088
51
269.999901
0
ARC
8
DEFAULT_255_2_778
10
4.8532107
20
4.2441408
40
4.658113
50
270.0417432
51
276.1518382
0
ARC
8
DEFAULT_255_2_778
10
4.8322065
20
4.4691293
40
4.8840577
50
276.1139774
51
277.4702438
0
ARC
8
DEFAULT_255_2_778
10
4.7982019
20
4.7009355
40
5.1183187
50
277.5103036
51
284.1522119
0
ARC
8
DEFAULT_255_2_778
10
4.7460145
20
4.9211849
40
5.3446442
50
284.1174008
51
286.2568155
0
ARC
8
DEFAULT_255_2_778
10
4.8023058
20
3.7171307
40
4.1825607
50
290.1368816
51
298.4711232
0
ARC
8
DEFAULT_255_2_778
10
4.9870018
20
3.3749191
40
3.7936896
50
298.4828926
51
309.8311859
0
ARC
8
DEFAULT_255_2_778
10
4.6454958
20
3.6879765
40
4.2532895
50
310.6628095
51
338.0561069
0
ARC
8
DEFAULT_255_2_778
10
2.1349078
20
4.7856676
40
6.9926487
50
337.4009164
51
347.9006808
0
ARC
8
DEFAULT_255_2_778
10
-2.2725258
20
5.7479388
40
11.5038858
50
347.8156811
51
354.354839
0
ARC
8
DEFAULT_255_2_778
10
-8.7255841
20
6.4564822
40
17.9954829
50
354.1308923
51
356.1775168
0
ARC
8
DEFAULT_255_2_778
10
-14.3425929
20
6.8504881
40
23.6262701
50
356.1322428
51
356.8337704
0
ARC
8
DEFAULT_255_2_778
10
10.8033463
20
5.7907883
40
1.5749472
50
179.4647619
51
188.958537
0
ARC
8
DEFAULT_255_2_778
10
13.8669285
20
5.7695641
40
4.6386
50
176.735346
51
179.5561081
0
ARC
8
DEFAULT_255_2_778
10
4.6941572
20
6.296088
40
4.5492708
50
356.6938199
51
359.4857983
0
ARC
8
DEFAULT_255_2_778
10
8.1689229
20
6.2839671
40
1.0747054
50
358.469412
51
16.42901
0
ARC
8
DEFAULT_255_2_778
10
8.5331115
20
6.3726008
40
0.7005493
50
17.9003202
51
21.7890581
0
LINE
8
DEFAULT_255_2_778
10
9.1838114
20
6.6326381
11
6.4343114
21
6.6326381
0
LINE
8
DEFAULT_255_2_778
10
6.3065114
20
10.1492381
11
9.0560114
21
10.1492381
0
ENDSEC
0
EOF