0
SECTION
2
HEADER
9
$MEASUREMENT
70
1
0
ENDSEC
0
SECTION
2
TABLES
0
TABLE
2
LTYPE
0
LTYPE
72
65
70
64
2
CONTINUOUS
3
______
73
0
40
0
0
ENDTAB
0
TABLE
2
LAYER
0
LAYER
2
DEFAULT_255_2_778
70
0
62
255
6
CONTINUOUS
0
ENDTAB
0
ENDSEC
0
SECTION
2
ENTITIES
0
ARC
8
DEFAULT_255_2_778
10
32.549543
20
152.8763078
40
19.1848495
50
279.0703158
51
287.0895639
0
ARC
8
DEFAULT_255_2_778
10
32.5634317
20
152.7933653
40
19.1007547
50
270.0012093
51
279.0683977
0
LINE
8
DEFAULT_255_2_778
10
32.5638349
20
133.6926105
11
32.5602432
21
133.6926108
0
ARC
8
DEFAULT_255_2_778
10
32.5648581
20
152.8044366
40
19.1118263
50
257.9885204
51
269.986165
0
ARC
8
DEFAULT_255_2_778
10
32.5847359
20
152.9031363
40
19.2125017
50
252.9144666
51
257.9917936
0
ARC
8
DEFAULT_255_2_778
10
30.8785178
20
129.7919599
40
0.6543133
50
0.295592
51
5.2152574
0
ARC
8
DEFAULT_255_2_778
10
30.9434707
20
129.7961922
40
0.588049
50
174.60949
51
180.0834688
0
ARC
8
DEFAULT_255_2_778
10
34.1909729
20
129.7965398
40
0.5805507
50
359.8811439
51
5.4258784
0
ARC
8
DEFAULT_255_2_778
10
34.1527238
20
129.7968669
40
0.5586027
50
174.3630539
51
180.1263105
0
ARC
8
DEFAULT_255_2_778
10
30.3074178
20
130.8911589
40
0.1932778
50
90.2061504
51
136.2407803
0
ARC
8
DEFAULT_255_2_778
10
30.3159866
20
130.8823386
40
0.2055675
50
136.1170254
51
179.9862468
0
ARC
8
DEFAULT_255_2_778
10
30.318048
20
130.8823882
40
0.2076289
50
180.0000532
51
180.3180844
0
ARC
8
DEFAULT_255_2_778
10
37.1959736
20
131.9011289
40
0.2199551
50
180.0092141
51
180.3369158
0
ARC
8
DEFAULT_255_2_778
10
37.179882
20
131.9011803
40
0.2038635
50
113.4293117
51
180.0243986
0
ARC
8
DEFAULT_255_2_778
10
32.5636854
20
152.8861431
40
18.0409568
50
278.5197616
51
287.6426354
0
ARC
8
DEFAULT_255_2_778
10
32.5635266
20
152.8881775
40
18.0429921
50
269.9998279
51
278.5193033
0
ARC
8
DEFAULT_255_2_778
10
32.5633187
20
152.8866188
40
18.0414333
50
256.860272
51
270.0004882
0
ARC
8
DEFAULT_255_2_778
10
32.5641781
20
152.8894872
40
18.044422
50
252.3578027
51
256.8596849
0
ARC
8
DEFAULT_255_2_778
10
27.9552872
20
131.9085032
40
0.1998636
50
359.034521
51
88.9864974
0
ARC
8
DEFAULT_255_2_778
10
27.9857218
20
131.9402333
40
0.1996329
50
358.9673618
51
88.9952667
0
ARC
8
DEFAULT_255_2_778
10
37.1401201
20
131.940043
40
0.1998267
50
91.0602889
51
180.9770624
0
ARC
8
DEFAULT_255_2_778
10
32.5619523
20
152.872949
40
18.1661503
50
277.7290031
51
287.1082147
0
ARC
8
DEFAULT_255_2_778
10
32.5616569
20
152.8758621
40
18.1690765
50
269.9998515
51
277.7286905
0
LINE
8
DEFAULT_255_2_778
10
32.5616099
20
134.7067855
11
32.5604921
21
134.7067855
0
ARC
8
DEFAULT_255_2_778
10
32.5614732
20
152.8745965
40
18.167811
50
256.9214187
51
269.9969061
0
ARC
8
DEFAULT_255_2_778
10
32.5622741
20
152.8773809
40
18.1707043
50
252.8926366
51
256.9209454
0
LINE
8
DEFAULT_255_2_778
10
27.9593224
20
132.1083355
11
27.6651224
21
132.1030355
0
LINE
8
DEFAULT_255_2_778
10
28.6821224
20
132.1551355
11
27.9897224
21
132.1398355
0
LINE
8
DEFAULT_255_2_778
10
37.1366224
20
132.1398355
11
36.4442224
21
132.1551355
0
LINE
8
DEFAULT_255_2_778
10
25.8262224
20
134.7227355
11
25.8289224
21
134.7962355
0
LINE
8
DEFAULT_255_2_778
10
25.8289224
20
134.7962355
11
25.8339224
21
134.8494355
0
LINE
8
DEFAULT_255_2_778
10
25.8339224
20
134.8494355
11
25.8389224
21
134.8859355
0
LINE
8
DEFAULT_255_2_778
10
25.8389224
20
134.8859355
11
25.8453224
21
134.9219355
0
LINE
8
DEFAULT_255_2_778
10
25.8453224
20
134.9219355
11
25.8527224
21
134.9576355
0
LINE
8
DEFAULT_255_2_778
10
25.8527224
20
134.9576355
11
25.8715224
21
135.0280355
0
LINE
8
DEFAULT_255_2_778
10
25.8715224
20
135.0280355
11
25.8887224
21
135.0796355
0
LINE
8
DEFAULT_255_2_778
10
25.8887224
20
135.0796355
11
25.9159224
21
135.1471355
0
LINE
8
DEFAULT_255_2_778
10
25.9159224
20
135.1471355
11
25.9479224
21
135.2124355
0
LINE
8
DEFAULT_255_2_778
10
25.9479224
20
135.2124355
11
25.9844224
21
135.2756355
0
LINE
8
DEFAULT_255_2_778
10
25.9844224
20
135.2756355
11
26.0456224
21
135.3627355
0
LINE
8
DEFAULT_255_2_778
10
26.0456224
20
135.3627355
11
26.1175224
21
135.4450355
0
LINE
8
DEFAULT_255_2_778
10
26.1175224
20
135.4450355
11
26.2242224
21
135.5397355
0
LINE
8
DEFAULT_255_2_778
10
26.2242224
20
135.5397355
11
26.3430224
21
135.6175355
0
LINE
8
DEFAULT_255_2_778
10
26.3430224
20
135.6175355
11
26.5044224
21
135.6887355
0
LINE
8
DEFAULT_255_2_778
10
26.5044224
20
135.6887355
11
26.6769224
21
135.7297355
0
LINE
8
DEFAULT_255_2_778
10
26.6769224
20
135.7297355
11
26.8353224
21
135.7384355
0
LINE
8
DEFAULT_255_2_778
10
26.8353224
20
135.7384355
11
27.0269224
21
135.7130355
0
LINE
8
DEFAULT_255_2_778
10
27.0269224
20
135.7130355
11
27.0954224
21
135.6940355
0
LINE
8
DEFAULT_255_2_778
10
38.0315224
20
135.6940355
11
38.1860224
21
135.7294355
0
LINE
8
DEFAULT_255_2_778
10
38.1860224
20
135.7294355
11
38.3445224
21
135.7384355
0
LINE
8
DEFAULT_255_2_778
10
38.3445224
20
135.7384355
11
38.5196224
21
135.7172355
0
LINE
8
DEFAULT_255_2_778
10
38.5196224
20
135.7172355
11
38.6535224
21
135.6778355
0
LINE
8
DEFAULT_255_2_778
10
38.6535224
20
135.6778355
11
38.7837224
21
135.6175355
0
LINE
8
DEFAULT_255_2_778
10
38.7837224
20
135.6175355
11
38.9027224
21
135.5397355
0
LINE
8
DEFAULT_255_2_778
10
38.9027224
20
135.5397355
11
39.0096224
21
135.4450355
0
LINE
8
DEFAULT_255_2_778
10
39.0096224
20
135.4450355
11
39.0813224
21
135.3627355
0
LINE
8
DEFAULT_255_2_778
10
39.0813224
20
135.3627355
11
39.1424224
21
135.2756355
0
LINE
8
DEFAULT_255_2_778
10
39.1424224
20
135.2756355
11
39.1956224
21
135.1801355
0
LINE
8
DEFAULT_255_2_778
10
39.1956224
20
135.1801355
11
39.2253224
21
135.1137355
0
LINE
8
DEFAULT_255_2_778
10
39.2253224
20
135.1137355
11
39.2443224
21
135.0629355
0
LINE
8
DEFAULT_255_2_778
10
39.2443224
20
135.0629355
11
39.2657224
21
134.9933355
0
LINE
8
DEFAULT_255_2_778
10
39.2657224
20
134.9933355
11
39.2819224
21
134.9222355
0
LINE
8
DEFAULT_255_2_778
10
39.2819224
20
134.9222355
11
39.2880224
21
134.8862355
0
LINE
8
DEFAULT_255_2_778
10
39.2880224
20
134.8862355
11
39.2930224
21
134.8497355
0
LINE
8
DEFAULT_255_2_778
10
39.2930224
20
134.8497355
11
39.2980224
21
134.7965355
0
LINE
8
DEFAULT_255_2_778
10
39.2980224
20
134.7965355
11
39.3001224
21
134.7597355
0
LINE
8
DEFAULT_255_2_778
10
39.3001224
20
134.7597355
11
39.3009224
21
134.7229355
0
LINE
8
DEFAULT_255_2_778
10
26.9399224
20
132.2419355
11
26.7539224
21
132.2605355
0
LINE
8
DEFAULT_255_2_778
10
26.7539224
20
132.2605355
11
26.5948224
21
132.3068355
0
LINE
8
DEFAULT_255_2_778
10
26.5948224
20
132.3068355
11
26.4467224
21
132.3795355
0
LINE
8
DEFAULT_255_2_778
10
26.4467224
20
132.3795355
11
26.3453224
21
132.4496355
0
LINE
8
DEFAULT_255_2_778
10
26.3453224
20
132.4496355
11
26.2461224
21
132.5396355
0
LINE
8
DEFAULT_255_2_778
10
26.2461224
20
132.5396355
11
26.1456224
21
132.6613355
0
LINE
8
DEFAULT_255_2_778
10
26.1456224
20
132.6613355
11
26.0916224
21
132.7473355
0
LINE
8
DEFAULT_255_2_778
10
26.0916224
20
132.7473355
11
26.0464224
21
132.8380355
0
LINE
8
DEFAULT_255_2_778
10
26.0464224
20
132.8380355
11
26.0212224
21
132.9005355
0
LINE
8
DEFAULT_255_2_778
10
26.0212224
20
132.9005355
11
26.0003224
21
132.9653355
0
LINE
8
DEFAULT_255_2_778
10
26.0003224
20
132.9653355
11
25.9834224
21
133.0314355
0
LINE
8
DEFAULT_255_2_778
10
25.9834224
20
133.0314355
11
25.9723224
21
133.0881355
0
LINE
8
DEFAULT_255_2_778
10
25.9723224
20
133.0881355
11
25.9673224
21
133.1219355
0
LINE
8
DEFAULT_255_2_778
10
25.9673224
20
133.1219355
11
25.9633224
21
133.1558355
0
LINE
8
DEFAULT_255_2_778
10
25.9633224
20
133.1558355
11
25.9604224
21
133.1897355
0
LINE
8
DEFAULT_255_2_778
10
25.9604224
20
133.1897355
11
25.9583224
21
133.2574355
0
LINE
8
DEFAULT_255_2_778
10
25.9583224
20
133.2574355
11
39.1681224
21
133.2574355
0
LINE
8
DEFAULT_255_2_778
10
39.1681224
20
133.2574355
11
39.1657224
21
133.1897355
0
LINE
8
DEFAULT_255_2_778
10
39.1657224
20
133.1897355
11
39.1631224
21
133.1558355
0
LINE
8
DEFAULT_255_2_778
10
39.1631224
20
133.1558355
11
39.1591224
21
133.1219355
0
LINE
8
DEFAULT_255_2_778
10
39.1591224
20
133.1219355
11
39.1504224
21
133.0651355
0
LINE
8
DEFAULT_255_2_778
10
39.1504224
20
133.0651355
11
39.1356224
21
132.9981355
0
LINE
8
DEFAULT_255_2_778
10
39.1356224
20
132.9981355
11
39.1165224
21
132.9328355
0
LINE
8
DEFAULT_255_2_778
10
39.1165224
20
132.9328355
11
39.0803224
21
132.8380355
0
LINE
8
DEFAULT_255_2_778
10
39.0803224
20
132.8380355
11
39.0512224
21
132.7769355
0
LINE
8
DEFAULT_255_2_778
10
39.0512224
20
132.7769355
11
38.9998224
21
132.6893355
0
LINE
8
DEFAULT_255_2_778
10
38.9998224
20
132.6893355
11
38.9255224
21
132.5893355
0
LINE
8
DEFAULT_255_2_778
10
38.9255224
20
132.5893355
11
38.8326224
21
132.4930355
0
LINE
8
DEFAULT_255_2_778
10
38.8326224
20
132.4930355
11
38.7085224
21
132.3972355
0
LINE
8
DEFAULT_255_2_778
10
38.7085224
20
132.3972355
11
38.5625224
21
132.3192355
0
LINE
8
DEFAULT_255_2_778
10
38.5625224
20
132.3192355
11
38.4056224
21
132.2676355
0
LINE
8
DEFAULT_255_2_778
10
38.4056224
20
132.2676355
11
38.2524224
21
132.2440355
0
LINE
8
DEFAULT_255_2_778
10
38.2524224
20
132.2440355
11
26.9399224
21
132.2419355
0
LINE
8
DEFAULT_255_2_778
10
39.3144224
20
131.9001355
11
39.3128224
21
132.6028355
0
LINE
8
DEFAULT_255_2_778
10
39.3128224
20
132.6028355
11
39.3107224
21
132.8216355
0
LINE
8
DEFAULT_255_2_778
10
39.3107224
20
132.8216355
11
39.3086224
21
132.9489355
0
LINE
8
DEFAULT_255_2_778
10
39.3086224
20
132.9489355
11
39.3062224
21
133.0579355
0
LINE
8
DEFAULT_255_2_778
10
39.3062224
20
133.0579355
11
39.3038224
21
133.1111355
0
LINE
8
DEFAULT_255_2_778
10
39.3038224
20
133.1111355
11
39.3025224
21
133.1190355
0
LINE
8
DEFAULT_255_2_778
10
39.3025224
20
133.1190355
11
39.1686224
21
133.2577355
0
LINE
8
DEFAULT_255_2_778
10
39.1686224
20
133.2577355
11
39.1686224
21
134.5385355
0
LINE
8
DEFAULT_255_2_778
10
39.1686224
20
134.5385355
11
38.1873224
21
134.5385355
0
LINE
8
DEFAULT_255_2_778
10
26.9401224
20
134.5385355
11
25.9590224
21
134.5385355
0
LINE
8
DEFAULT_255_2_778
10
25.9590224
20
134.5385355
11
25.9590224
21
133.2574355
0
LINE
8
DEFAULT_255_2_778
10
25.9590224
20
133.2574355
11
25.8244224
21
133.1161355
0
LINE
8
DEFAULT_255_2_778
10
25.8244224
20
133.1161355
11
25.8223224
21
133.0865355
0
LINE
8
DEFAULT_255_2_778
10
25.8223224
20
133.0865355
11
25.8199224
21
133.0037355
0
LINE
8
DEFAULT_255_2_778
10
25.8199224
20
133.0037355
11
25.8178224
21
132.8878355
0
LINE
8
DEFAULT_255_2_778
10
25.8178224
20
132.8878355
11
25.8151224
21
132.6520355
0
LINE
8
DEFAULT_255_2_778
10
25.8151224
20
132.6520355
11
25.8130224
21
131.8998355
0
LINE
8
DEFAULT_255_2_778
10
36.0122224
20
124.6841355
11
36.0122224
21
128.7907355
0
LINE
8
DEFAULT_255_2_778
10
36.0122224
20
128.7907355
11
35.8158224
21
128.7907355
0
LINE
8
DEFAULT_255_2_778
10
35.8158224
20
128.7907355
11
35.8137224
21
128.8793355
0
LINE
8
DEFAULT_255_2_778
10
35.8137224
20
128.8793355
11
35.8124224
21
128.9024355
0
LINE
8
DEFAULT_255_2_778
10
35.8124224
20
128.9024355
11
35.8087224
21
128.9476355
0
LINE
8
DEFAULT_255_2_778
10
35.8087224
20
128.9476355
11
35.8037224
21
128.9913355
0
LINE
8
DEFAULT_255_2_778
10
35.8037224
20
128.9913355
11
35.7878224
21
129.0825355
0
LINE
8
DEFAULT_255_2_778
10
35.7878224
20
129.0825355
11
35.7687224
21
129.1553355
0
LINE
8
DEFAULT_255_2_778
10
35.7687224
20
129.1553355
11
35.7330224
21
129.2442355
0
LINE
8
DEFAULT_255_2_778
10
35.7330224
20
129.2442355
11
35.6653224
21
129.3246355
0
LINE
8
DEFAULT_255_2_778
10
35.6653224
20
129.3246355
11
35.6251224
21
129.3365355
0
LINE
8
DEFAULT_255_2_778
10
35.8158224
20
124.6841355
11
35.8158224
21
128.7907355
0
LINE
8
DEFAULT_255_2_778
10
35.8158224
20
128.7907355
11
35.8063224
21
128.0499355
0
LINE
8
DEFAULT_255_2_778
10
35.8063224
20
128.0499355
11
35.8053224
21
127.8670355
0
LINE
8
DEFAULT_255_2_778
10
35.8063224
20
128.0499355
11
35.8063224
21
128.0544355
0
LINE
8
DEFAULT_255_2_778
10
35.8063224
20
128.0544355
11
35.8055224
21
128.0589355
0
LINE
8
DEFAULT_255_2_778
10
35.8055224
20
128.0589355
11
35.8047224
21
128.0634355
0
LINE
8
DEFAULT_255_2_778
10
35.8047224
20
128.0634355
11
35.8037224
21
128.0679355
0
LINE
8
DEFAULT_255_2_778
10
35.8037224
20
128.0679355
11
35.8023224
21
128.0724355
0
LINE
8
DEFAULT_255_2_778
10
35.8023224
20
128.0724355
11
35.8008224
21
128.0771355
0
LINE
8
DEFAULT_255_2_778
10
35.8008224
20
128.0771355
11
35.7986224
21
128.0819355
0
LINE
8
DEFAULT_255_2_778
10
35.7986224
20
128.0819355
11
35.7963224
21
128.0864355
0
LINE
8
DEFAULT_255_2_778
10
35.7963224
20
128.0864355
11
35.7936224
21
128.0911355
0
LINE
8
DEFAULT_255_2_778
10
35.7936224
20
128.0911355
11
35.7910224
21
128.0956355
0
LINE
8
DEFAULT_255_2_778
10
35.7910224
20
128.0956355
11
35.7907224
21
128.0962355
0
LINE
8
DEFAULT_255_2_778
10
35.7907224
20
128.0962355
11
35.7878224
21
128.1007355
0
LINE
8
DEFAULT_255_2_778
10
35.7878224
20
128.1007355
11
35.7843224
21
128.1052355
0
LINE
8
DEFAULT_255_2_778
10
35.7843224
20
128.1052355
11
35.7806224
21
128.1094355
0
LINE
8
DEFAULT_255_2_778
10
35.7806224
20
128.1094355
11
35.7767224
21
128.1136355
0
LINE
8
DEFAULT_255_2_778
10
35.7767224
20
128.1136355
11
35.7722224
21
128.1179355
0
LINE
8
DEFAULT_255_2_778
10
35.7722224
20
128.1179355
11
35.7674224
21
128.1218355
0
LINE
8
DEFAULT_255_2_778
10
35.7674224
20
128.1218355
11
35.7627224
21
128.1258355
0
LINE
8
DEFAULT_255_2_778
10
35.7627224
20
128.1258355
11
35.7574224
21
128.1298355
0
LINE
8
DEFAULT_255_2_778
10
35.7574224
20
128.1298355
11
35.7515224
21
128.1337355
0
LINE
8
DEFAULT_255_2_778
10
35.7515224
20
128.1337355
11
35.7481224
21
128.1361355
0
LINE
8
DEFAULT_255_2_778
10
35.7481224
20
128.1361355
11
35.7417224
21
128.1398355
0
LINE
8
DEFAULT_255_2_778
10
35.7417224
20
128.1398355
11
35.7349224
21
128.1435355
0
LINE
8
DEFAULT_255_2_778
10
35.7349224
20
128.1435355
11
35.7280224
21
128.1470355
0
LINE
8
DEFAULT_255_2_778
10
35.7280224
20
128.1470355
11
35.7206224
21
128.1502355
0
LINE
8
DEFAULT_255_2_778
10
35.7206224
20
128.1502355
11
35.7132224
21
128.1533355
0
LINE
8
DEFAULT_255_2_778
10
35.7132224
20
128.1533355
11
35.7058224
21
128.1562355
0
LINE
8
DEFAULT_255_2_778
10
35.7058224
20
128.1562355
11
35.6976224
21
128.1589355
0
LINE
8
DEFAULT_255_2_778
10
35.6976224
20
128.1589355
11
35.6891224
21
128.1615355
0
LINE
8
DEFAULT_255_2_778
10
35.6891224
20
128.1615355
11
35.6843224
21
128.1629355
0
LINE
8
DEFAULT_255_2_778
10
35.6843224
20
128.1629355
11
35.6756224
21
128.1652355
0
LINE
8
DEFAULT_255_2_778
10
35.6756224
20
128.1652355
11
35.6669224
21
128.1671355
0
LINE
8
DEFAULT_255_2_778
10
35.6669224
20
128.1671355
11
35.6576224
21
128.1689355
0
LINE
8
DEFAULT_255_2_778
10
35.6576224
20
128.1689355
11
35.6484224
21
128.1703355
0
LINE
8
DEFAULT_255_2_778
10
35.6484224
20
128.1703355
11
35.6388224
21
128.1713355
0
LINE
8
DEFAULT_255_2_778
10
35.6388224
20
128.1713355
11
35.6296224
21
128.1721355
0
LINE
8
DEFAULT_255_2_778
10
35.6296224
20
128.1721355
11
35.6200224
21
128.1729355
0
LINE
8
DEFAULT_255_2_778
10
35.6200224
20
128.1729355
11
35.6105224
21
128.1729355
0
LINE
8
DEFAULT_255_2_778
10
35.6105224
20
128.1729355
11
35.6095224
21
128.1729355
0
LINE
8
DEFAULT_255_2_778
10
35.6095224
20
128.1729355
11
35.6084224
21
127.8681355
0
LINE
8
DEFAULT_255_2_778
10
35.6084224
20
127.8681355
11
35.6084224
21
124.6852355
0
LINE
8
DEFAULT_255_2_778
10
30.3575224
20
129.8522355
11
30.3810224
21
129.9022355
0
LINE
8
DEFAULT_255_2_778
10
30.3810224
20
129.9022355
11
30.4797224
21
129.9742355
0
LINE
8
DEFAULT_255_2_778
10
30.4797224
20
129.9742355
11
30.5996224
21
129.9969355
0
LINE
8
DEFAULT_255_2_778
10
30.5996224
20
129.9969355
11
30.5975224
21
130.1192355
0
LINE
8
DEFAULT_255_2_778
10
30.5975224
20
130.1192355
11
30.5959224
21
130.4047355
0
LINE
8
DEFAULT_255_2_778
10
33.8645224
20
127.7575355
11
33.8624224
21
127.6927355
0
LINE
8
DEFAULT_255_2_778
10
33.8624224
20
127.6927355
11
33.8595224
21
127.6601355
0
LINE
8
DEFAULT_255_2_778
10
33.8595224
20
127.6601355
11
33.8500224
21
127.5969355
0
LINE
8
DEFAULT_255_2_778
10
33.8500224
20
127.5969355
11
33.8301224
21
127.5165355
0
LINE
8
DEFAULT_255_2_778
10
33.8301224
20
127.5165355
11
33.7926224
21
127.4207355
0
LINE
8
DEFAULT_255_2_778
10
33.7926224
20
127.4207355
11
33.7587224
21
127.3598355
0
LINE
8
DEFAULT_255_2_778
10
33.7587224
20
127.3598355
11
33.6560224
21
127.2540355
0
LINE
8
DEFAULT_255_2_778
10
33.6560224
20
127.2540355
11
33.4896224
21
127.1725355
0
LINE
8
DEFAULT_255_2_778
10
33.4896224
20
127.1725355
11
33.3777224
21
127.1580355
0
LINE
8
DEFAULT_255_2_778
10
31.7487224
20
127.1580355
11
31.5576224
21
127.2008355
0
LINE
8
DEFAULT_255_2_778
10
31.5576224
20
127.2008355
11
31.4206224
21
127.2974355
0
LINE
8
DEFAULT_255_2_778
10
31.4206224
20
127.2974355
11
31.3674224
21
127.3596355
0
LINE
8
DEFAULT_255_2_778
10
31.3674224
20
127.3596355
11
31.3161224
21
127.4601355
0
LINE
8
DEFAULT_255_2_778
10
31.3161224
20
127.4601355
11
31.2864224
21
127.5514355
0
LINE
8
DEFAULT_255_2_778
10
31.2864224
20
127.5514355
11
31.2735224
21
127.6125355
0
LINE
8
DEFAULT_255_2_778
10
31.2735224
20
127.6125355
11
31.2669224
21
127.6601355
0
LINE
8
DEFAULT_255_2_778
10
31.2669224
20
127.6601355
11
31.2637224
21
127.6927355
0
LINE
8
DEFAULT_255_2_778
10
31.2637224
20
127.6927355
11
31.2616224
21
127.7575355
0
LINE
8
DEFAULT_255_2_778
10
33.3499224
20
128.0012355
11
33.4883224
21
128.0485355
0
LINE
8
DEFAULT_255_2_778
10
33.4883224
20
128.0485355
11
33.5555224
21
128.1253355
0
LINE
8
DEFAULT_255_2_778
10
33.5555224
20
128.1253355
11
33.5791224
21
128.1782355
0
LINE
8
DEFAULT_255_2_778
10
33.5791224
20
128.1782355
11
33.5896224
21
128.2224355
0
LINE
8
DEFAULT_255_2_778
10
33.5896224
20
128.2224355
11
33.5923224
21
128.2422355
0
LINE
8
DEFAULT_255_2_778
10
33.5923224
20
128.2422355
11
33.5936224
21
128.2697355
0
LINE
8
DEFAULT_255_2_778
10
33.5962224
20
129.8522355
11
33.6198224
21
129.9022355
0
LINE
8
DEFAULT_255_2_778
10
33.6198224
20
129.9022355
11
33.7272224
21
129.9774355
0
LINE
8
DEFAULT_255_2_778
10
33.7272224
20
129.9774355
11
33.8383224
21
129.9967355
0
LINE
8
DEFAULT_255_2_778
10
33.8383224
20
129.9967355
11
33.8357224
21
130.1597355
0
LINE
8
DEFAULT_255_2_778
10
33.8357224
20
130.1597355
11
33.8346224
21
130.4044355
0
LINE
8
DEFAULT_255_2_778
10
30.3818224
20
126.6039355
11
30.3845224
21
126.5785355
0
LINE
8
DEFAULT_255_2_778
10
30.3845224
20
126.5785355
11
30.3951224
21
126.5343355
0
LINE
8
DEFAULT_255_2_778
10
30.3951224
20
126.5343355
11
30.4358224
21
126.4576355
0
LINE
8
DEFAULT_255_2_778
10
30.4358224
20
126.4576355
11
30.5437224
21
126.3777355
0
LINE
8
DEFAULT_255_2_778
10
30.5437224
20
126.3777355
11
30.6271224
21
126.3626355
0
LINE
8
DEFAULT_255_2_778
10
34.4993224
20
126.3626355
11
34.6429224
21
126.4108355
0
LINE
8
DEFAULT_255_2_778
10
34.6429224
20
126.4108355
11
34.7107224
21
126.4880355
0
LINE
8
DEFAULT_255_2_778
10
34.7107224
20
126.4880355
11
34.7361224
21
126.5507355
0
LINE
8
DEFAULT_255_2_778
10
34.7361224
20
126.5507355
11
34.7429224
21
126.5870355
0
LINE
8
DEFAULT_255_2_778
10
34.7429224
20
126.5870355
11
34.7443224
21
126.6039355
0
LINE
8
DEFAULT_255_2_778
10
31.5140224
20
128.5481355
11
31.5113224
21
128.5706355
0
LINE
8
DEFAULT_255_2_778
10
31.5113224
20
128.5706355
11
31.4910224
21
128.6182355
0
LINE
8
DEFAULT_255_2_778
10
31.4910224
20
128.6182355
11
31.3962224
21
128.6923355
0
LINE
8
DEFAULT_255_2_778
10
31.3962224
20
128.6923355
11
31.2684224
21
128.7182355
0
LINE
8
DEFAULT_255_2_778
10
31.2684224
20
128.7182355
11
31.2613224
21
127.7570355
0
LINE
8
DEFAULT_255_2_778
10
31.2613224
20
127.7570355
11
31.2658224
21
127.7570355
0
LINE
8
DEFAULT_255_2_778
10
31.2658224
20
127.7570355
11
31.5066224
21
127.7072355
0
LINE
8
DEFAULT_255_2_778
10
31.5066224
20
127.7072355
11
31.5137224
21
128.5481355
0
LINE
8
DEFAULT_255_2_778
10
31.5137224
20
128.5481355
11
31.5328224
21
129.7956355
0
LINE
8
DEFAULT_255_2_778
10
31.5328224
20
129.7956355
11
31.5328224
21
128.2692355
0
LINE
8
DEFAULT_255_2_778
10
31.5328224
20
128.2692355
11
31.5066224
21
127.7014355
0
LINE
8
DEFAULT_255_2_778
10
31.5066224
20
127.7014355
11
31.5087224
21
127.6572355
0
LINE
8
DEFAULT_255_2_778
10
31.5087224
20
127.6572355
11
31.5132224
21
127.6260355
0
LINE
8
DEFAULT_255_2_778
10
31.5132224
20
127.6260355
11
31.5269224
21
127.5726355
0
LINE
8
DEFAULT_255_2_778
10
31.5269224
20
127.5726355
11
31.5584224
21
127.5072355
0
LINE
8
DEFAULT_255_2_778
10
31.5301224
20
129.8514355
11
31.5283224
21
129.8681355
0
LINE
8
DEFAULT_255_2_778
10
31.5283224
20
129.8681355
11
31.5230224
21
129.9025355
0
LINE
8
DEFAULT_255_2_778
10
31.5230224
20
129.9025355
11
31.5113224
21
129.9559355
0
LINE
8
DEFAULT_255_2_778
10
31.5113224
20
129.9559355
11
31.4878224
21
130.0321355
0
LINE
8
DEFAULT_255_2_778
10
31.4878224
20
130.0321355
11
31.4417224
21
130.1411355
0
LINE
8
DEFAULT_255_2_778
10
31.4417224
20
130.1411355
11
31.3573224
21
130.2964355
0
LINE
8
DEFAULT_255_2_778
10
31.3573224
20
130.2964355
11
31.2915224
21
130.4039355
0
LINE
8
DEFAULT_255_2_778
10
31.2915224
20
130.4039355
11
30.5961224
21
130.4039355
0
LINE
8
DEFAULT_255_2_778
10
30.5961224
20
130.4039355
11
30.4694224
21
130.1882355
0
LINE
8
DEFAULT_255_2_778
10
30.4694224
20
130.1882355
11
30.4154224
21
130.0729355
0
LINE
8
DEFAULT_255_2_778
10
30.4154224
20
130.0729355
11
30.3871224
21
129.9935355
0
LINE
8
DEFAULT_255_2_778
10
30.3871224
20
129.9935355
11
30.3723224
21
129.9382355
0
LINE
8
DEFAULT_255_2_778
10
30.3723224
20
129.9382355
11
30.3622224
21
129.8853355
0
LINE
8
DEFAULT_255_2_778
10
30.3622224
20
129.8853355
11
30.3580224
21
129.8514355
0
LINE
8
DEFAULT_255_2_778
10
34.7689224
20
129.8514355
11
34.7670224
21
129.8681355
0
LINE
8
DEFAULT_255_2_778
10
34.7670224
20
129.8681355
11
34.7617224
21
129.9025355
0
LINE
8
DEFAULT_255_2_778
10
34.7617224
20
129.9025355
11
34.7501224
21
129.9559355
0
LINE
8
DEFAULT_255_2_778
10
34.7501224
20
129.9559355
11
34.7265224
21
130.0321355
0
LINE
8
DEFAULT_255_2_778
10
34.7265224
20
130.0321355
11
34.6808224
21
130.1411355
0
LINE
8
DEFAULT_255_2_778
10
34.6808224
20
130.1411355
11
34.6141224
21
130.2663355
0
LINE
8
DEFAULT_255_2_778
10
34.6141224
20
130.2663355
11
34.5305224
21
130.4039355
0
LINE
8
DEFAULT_255_2_778
10
34.5305224
20
130.4039355
11
33.8352224
21
130.4039355
0
LINE
8
DEFAULT_255_2_778
10
33.8352224
20
130.4039355
11
33.7084224
21
130.1882355
0
LINE
8
DEFAULT_255_2_778
10
33.7084224
20
130.1882355
11
33.6545224
21
130.0729355
0
LINE
8
DEFAULT_255_2_778
10
33.6545224
20
130.0729355
11
33.6206224
21
129.9750355
0
LINE
8
DEFAULT_255_2_778
10
33.6206224
20
129.9750355
11
33.6074224
21
129.9205355
0
LINE
8
DEFAULT_255_2_778
10
33.6074224
20
129.9205355
11
33.6010224
21
129.8856355
0
LINE
8
DEFAULT_255_2_778
10
33.6010224
20
129.8856355
11
33.5968224
21
129.8517355
0
LINE
8
DEFAULT_255_2_778
10
33.5682224
20
127.5075355
11
33.4737224
21
127.4194355
0
LINE
8
DEFAULT_255_2_778
10
33.4737224
20
127.4194355
11
33.3782224
21
127.3958355
0
LINE
8
DEFAULT_255_2_778
10
33.3782224
20
127.3958355
11
31.6748224
21
127.4098355
0
LINE
8
DEFAULT_255_2_778
10
31.6748224
20
127.4098355
11
31.5780224
21
127.4813355
0
LINE
8
DEFAULT_255_2_778
10
31.5780224
20
127.4813355
11
31.5590224
21
127.5075355
0
LINE
8
DEFAULT_255_2_778
10
31.5590224
20
127.5075355
11
31.3677224
21
127.3590355
0
LINE
8
DEFAULT_255_2_778
10
31.3677224
20
127.3590355
11
30.3821224
21
127.3590355
0
LINE
8
DEFAULT_255_2_778
10
30.3821224
20
127.3590355
11
30.3823224
21
126.6047355
0
LINE
8
DEFAULT_255_2_778
10
30.3823224
20
126.6047355
11
30.3630224
21
127.0220355
0
LINE
8
DEFAULT_255_2_778
10
30.3630224
20
127.0220355
11
30.3628224
21
127.0341355
0
LINE
8
DEFAULT_255_2_778
10
30.3628224
20
127.0341355
11
30.3821224
21
126.6166355
0
LINE
8
DEFAULT_255_2_778
10
30.3821224
20
126.6166355
11
34.7448224
21
126.6166355
0
LINE
8
DEFAULT_255_2_778
10
34.7448224
20
126.6166355
11
34.7445224
21
126.6045355
0
LINE
8
DEFAULT_255_2_778
10
34.7445224
20
126.6045355
11
34.7644224
21
127.0304355
0
LINE
8
DEFAULT_255_2_778
10
34.7641224
20
127.0220355
11
34.7641224
21
127.0333355
0
LINE
8
DEFAULT_255_2_778
10
34.7641224
20
127.0333355
11
34.7448224
21
126.6158355
0
LINE
8
DEFAULT_255_2_778
10
34.7448224
20
126.6158355
11
34.7448224
21
127.3580355
0
LINE
8
DEFAULT_255_2_778
10
34.7448224
20
127.3580355
11
33.7592224
21
127.3580355
0
LINE
8
DEFAULT_255_2_778
10
33.7592224
20
127.3580355
11
33.5679224
21
127.5064355
0
LINE
8
DEFAULT_255_2_778
10
33.5679224
20
127.5064355
11
33.6023224
21
127.5808355
0
LINE
8
DEFAULT_255_2_778
10
33.6023224
20
127.5808355
11
33.6132224
21
127.6250355
0
LINE
8
DEFAULT_255_2_778
10
33.6132224
20
127.6250355
11
33.6177224
21
127.6562355
0
LINE
8
DEFAULT_255_2_778
10
33.6177224
20
127.6562355
11
33.6201224
21
127.7075355
0
LINE
8
DEFAULT_255_2_778
10
33.6201224
20
127.7075355
11
33.6934224
21
127.7408355
0
LINE
8
DEFAULT_255_2_778
10
33.6934224
20
127.7408355
11
33.8653224
21
127.7557355
0
LINE
8
DEFAULT_255_2_778
10
33.8653224
20
127.7557355
11
33.8582224
21
128.7169355
0
LINE
8
DEFAULT_255_2_778
10
33.8582224
20
128.7169355
11
33.8524224
21
128.7169355
0
LINE
8
DEFAULT_255_2_778
10
33.8524224
20
128.7169355
11
33.6738224
21
128.6576355
0
LINE
8
DEFAULT_255_2_778
10
33.6738224
20
128.6576355
11
33.6227224
21
128.5923355
0
LINE
8
DEFAULT_255_2_778
10
33.6227224
20
128.5923355
11
33.6134224
21
128.5579355
0
LINE
8
DEFAULT_255_2_778
10
33.6134224
20
128.5579355
11
33.6126224
21
128.5468355
0
LINE
8
DEFAULT_255_2_778
10
33.6126224
20
128.5468355
11
33.6198224
21
127.7059355
0
LINE
8
DEFAULT_255_2_778
10
33.6198224
20
127.7059355
11
33.5939224
21
128.2679355
0
LINE
8
DEFAULT_255_2_778
10
33.5939224
20
128.2679355
11
33.5939224
21
129.7943355
0
LINE
8
DEFAULT_255_2_778
10
33.5939224
20
129.7943355
11
33.6129224
21
128.5468355
0
LINE
8
DEFAULT_255_2_778
10
34.7689224
20
129.8504355
11
34.7453224
21
129.9004355
0
LINE
8
DEFAULT_255_2_778
10
34.7453224
20
129.9004355
11
34.6379224
21
129.9755355
0
LINE
8
DEFAULT_255_2_778
10
34.6379224
20
129.9755355
11
34.5268224
21
129.9948355
0
LINE
8
DEFAULT_255_2_778
10
34.5268224
20
129.9948355
11
33.8389224
21
129.9948355
0
LINE
8
DEFAULT_255_2_778
10
33.8389224
20
129.9948355
11
33.8582224
21
128.7164355
0
LINE
8
DEFAULT_255_2_778
10
33.8582224
20
128.7164355
11
34.5072224
21
128.7164355
0
LINE
8
DEFAULT_255_2_778
10
34.5072224
20
128.7164355
11
34.5265224
21
129.9948355
0
LINE
8
DEFAULT_255_2_778
10
34.5265224
20
129.9948355
11
34.5292224
21
130.1578355
0
LINE
8
DEFAULT_255_2_778
10
34.5292224
20
130.1578355
11
34.5302224
21
130.4025355
0
LINE
8
DEFAULT_255_2_778
10
31.5330224
20
128.2676355
11
31.5354224
21
128.2293355
0
LINE
8
DEFAULT_255_2_778
10
31.5354224
20
128.2293355
11
31.5449224
21
128.1845355
0
LINE
8
DEFAULT_255_2_778
10
31.5449224
20
128.1845355
11
31.5756224
21
128.1155355
0
LINE
8
DEFAULT_255_2_778
10
31.5756224
20
128.1155355
11
31.6592224
21
128.0321355
0
LINE
8
DEFAULT_255_2_778
10
31.6592224
20
128.0321355
11
31.7770224
21
127.9988355
0
LINE
8
DEFAULT_255_2_778
10
31.7770224
20
127.9988355
11
33.3502224
21
127.9988355
0
LINE
8
DEFAULT_255_2_778
10
33.3502224
20
127.9988355
11
33.3782224
21
127.3940355
0
LINE
8
DEFAULT_255_2_778
10
33.3782224
20
127.3940355
11
33.3782224
21
127.1553355
0
LINE
8
DEFAULT_255_2_778
10
33.3782224
20
127.1553355
11
31.7492224
21
127.1553355
0
LINE
8
DEFAULT_255_2_778
10
31.7492224
20
127.1553355
11
31.7492224
21
127.3940355
0
LINE
8
DEFAULT_255_2_778
10
31.7492224
20
127.3940355
11
31.7770224
21
127.9988355
0
LINE
8
DEFAULT_255_2_778
10
31.5304224
20
129.8498355
11
31.5068224
21
129.8998355
0
LINE
8
DEFAULT_255_2_778
10
31.5068224
20
129.8998355
11
31.4081224
21
129.9718355
0
LINE
8
DEFAULT_255_2_778
10
31.4081224
20
129.9718355
11
31.2883224
21
129.9946355
0
LINE
8
DEFAULT_255_2_778
10
31.2883224
20
129.9946355
11
30.6004224
21
129.9946355
0
LINE
8
DEFAULT_255_2_778
10
30.6004224
20
129.9946355
11
30.6197224
21
128.7161355
0
LINE
8
DEFAULT_255_2_778
10
30.6197224
20
128.7161355
11
31.2687224
21
128.7161355
0
LINE
8
DEFAULT_255_2_778
10
31.2687224
20
128.7161355
11
31.2880224
21
129.9946355
0
LINE
8
DEFAULT_255_2_778
10
31.2880224
20
129.9946355
11
31.2907224
21
130.1575355
0
LINE
8
DEFAULT_255_2_778
10
31.2907224
20
130.1575355
11
31.2917224
21
130.4023355
0
LINE
8
DEFAULT_255_2_778
10
30.3625224
20
127.0333355
11
30.3622224
21
127.0384355
0
LINE
8
DEFAULT_255_2_778
10
30.3622224
20
127.0384355
11
30.3615224
21
127.0468355
0
LINE
8
DEFAULT_255_2_778
10
30.3615224
20
127.0468355
11
30.3607224
21
127.0550355
0
LINE
8
DEFAULT_255_2_778
10
30.3607224
20
127.0550355
11
30.3601224
21
127.0601355
0
LINE
8
DEFAULT_255_2_778
10
30.3601224
20
127.0601355
11
30.3596224
21
127.0624355
0
LINE
8
DEFAULT_255_2_778
10
30.3596224
20
127.0624355
11
30.3593224
21
127.0635355
0
LINE
8
DEFAULT_255_2_778
10
30.3593224
20
127.0635355
11
30.3591224
21
127.0638355
0
LINE
8
DEFAULT_255_2_778
10
30.3591224
20
127.0638355
11
30.3591224
21
127.0638355
0
LINE
8
DEFAULT_255_2_778
10
30.3591224
20
127.0638355
11
30.3591224
21
127.0635355
0
LINE
8
DEFAULT_255_2_778
10
30.3591224
20
127.0635355
11
30.3588224
21
127.0632355
0
LINE
8
DEFAULT_255_2_778
10
30.3588224
20
127.0632355
11
30.3585224
21
127.0619355
0
LINE
8
DEFAULT_255_2_778
10
30.3585224
20
127.0619355
11
30.3580224
21
127.0587355
0
LINE
8
DEFAULT_255_2_778
10
30.3580224
20
127.0587355
11
30.3575224
21
127.0529355
0
LINE
8
DEFAULT_255_2_778
10
30.3575224
20
127.0529355
11
30.3569224
21
127.0445355
0
LINE
8
DEFAULT_255_2_778
10
30.3569224
20
127.0445355
11
30.3564224
21
127.0355355
0
LINE
8
DEFAULT_255_2_778
10
30.3564224
20
127.0355355
11
30.3562224
21
127.0278355
0
LINE
8
DEFAULT_255_2_778
10
30.3562224
20
127.0278355
11
30.3559224
21
127.0238355
0
LINE
8
DEFAULT_255_2_778
10
30.3559224
20
127.0238355
11
30.3548224
21
126.9929355
0
LINE
8
DEFAULT_255_2_778
10
30.3548224
20
126.9929355
11
30.3548224
21
129.7948355
0
LINE
8
DEFAULT_255_2_778
10
30.3548224
20
129.7948355
11
30.3739224
21
128.5473355
0
LINE
8
DEFAULT_255_2_778
10
30.3739224
20
128.5473355
11
30.3741224
21
128.5528355
0
LINE
8
DEFAULT_255_2_778
10
30.3741224
20
128.5528355
11
30.3747224
21
128.5584355
0
LINE
8
DEFAULT_255_2_778
10
30.3747224
20
128.5584355
11
30.3755224
21
128.5640355
0
LINE
8
DEFAULT_255_2_778
10
30.3755224
20
128.5640355
11
30.3765224
21
128.5698355
0
LINE
8
DEFAULT_255_2_778
10
30.3765224
20
128.5698355
11
30.3779224
21
128.5753355
0
LINE
8
DEFAULT_255_2_778
10
30.3779224
20
128.5753355
11
30.3794224
21
128.5812355
0
LINE
8
DEFAULT_255_2_778
10
30.3794224
20
128.5812355
11
30.3813224
21
128.5870355
0
LINE
8
DEFAULT_255_2_778
10
30.3813224
20
128.5870355
11
30.3837224
21
128.5928355
0
LINE
8
DEFAULT_255_2_778
10
30.3837224
20
128.5928355
11
30.3861224
21
128.5986355
0
LINE
8
DEFAULT_255_2_778
10
30.3861224
20
128.5986355
11
30.3890224
21
128.6042355
0
LINE
8
DEFAULT_255_2_778
10
30.3890224
20
128.6042355
11
30.3919224
21
128.6097355
0
LINE
8
DEFAULT_255_2_778
10
30.3919224
20
128.6097355
11
30.3932224
21
128.6121355
0
LINE
8
DEFAULT_255_2_778
10
30.3932224
20
128.6121355
11
30.3966224
21
128.6177355
0
LINE
8
DEFAULT_255_2_778
10
30.3966224
20
128.6177355
11
30.4003224
21
128.6230355
0
LINE
8
DEFAULT_255_2_778
10
30.4003224
20
128.6230355
11
30.4043224
21
128.6283355
0
LINE
8
DEFAULT_255_2_778
10
30.4043224
20
128.6283355
11
30.4088224
21
128.6335355
0
LINE
8
DEFAULT_255_2_778
10
30.4088224
20
128.6335355
11
30.4133224
21
128.6386355
0
LINE
8
DEFAULT_255_2_778
10
30.4133224
20
128.6386355
11
30.4183224
21
128.6436355
0
LINE
8
DEFAULT_255_2_778
10
30.4183224
20
128.6436355
11
30.4234224
21
128.6486355
0
LINE
8
DEFAULT_255_2_778
10
30.4234224
20
128.6486355
11
30.4289224
21
128.6537355
0
LINE
8
DEFAULT_255_2_778
10
30.4289224
20
128.6537355
11
30.4347224
21
128.6587355
0
LINE
8
DEFAULT_255_2_778
10
30.4347224
20
128.6587355
11
30.4411224
21
128.6632355
0
LINE
8
DEFAULT_255_2_778
10
30.4411224
20
128.6632355
11
30.4469224
21
128.6674355
0
LINE
8
DEFAULT_255_2_778
10
30.4469224
20
128.6674355
11
30.4538224
21
128.6719355
0
LINE
8
DEFAULT_255_2_778
10
30.4538224
20
128.6719355
11
30.4609224
21
128.6764355
0
LINE
8
DEFAULT_255_2_778
10
30.4609224
20
128.6764355
11
30.4681224
21
128.6806355
0
LINE
8
DEFAULT_255_2_778
10
30.4681224
20
128.6806355
11
30.4758224
21
128.6846355
0
LINE
8
DEFAULT_255_2_778
10
30.4758224
20
128.6846355
11
30.4834224
21
128.6886355
0
LINE
8
DEFAULT_255_2_778
10
30.4834224
20
128.6886355
11
30.4916224
21
128.6923355
0
LINE
8
DEFAULT_255_2_778
10
30.4916224
20
128.6923355
11
30.4998224
21
128.6957355
0
LINE
8
DEFAULT_255_2_778
10
30.4998224
20
128.6957355
11
30.5083224
21
128.6992355
0
LINE
8
DEFAULT_255_2_778
10
30.5083224
20
128.6992355
11
30.5170224
21
128.7021355
0
LINE
8
DEFAULT_255_2_778
10
30.5170224
20
128.7021355
11
30.5260224
21
128.7050355
0
LINE
8
DEFAULT_255_2_778
10
30.5260224
20
128.7050355
11
30.5260224
21
128.7050355
0
LINE
8
DEFAULT_255_2_778
10
30.5260224
20
128.7050355
11
30.5353224
21
128.7074355
0
LINE
8
DEFAULT_255_2_778
10
30.5353224
20
128.7074355
11
30.5445224
21
128.7097355
0
LINE
8
DEFAULT_255_2_778
10
30.5445224
20
128.7097355
11
30.5541224
21
128.7116355
0
LINE
8
DEFAULT_255_2_778
10
30.5541224
20
128.7116355
11
30.5636224
21
128.7134355
0
LINE
8
DEFAULT_255_2_778
10
30.5636224
20
128.7134355
11
30.5731224
21
128.7150355
0
LINE
8
DEFAULT_255_2_778
10
30.5731224
20
128.7150355
11
30.5829224
21
128.7164355
0
LINE
8
DEFAULT_255_2_778
10
30.5829224
20
128.7164355
11
30.5930224
21
128.7172355
0
LINE
8
DEFAULT_255_2_778
10
30.5930224
20
128.7172355
11
30.6030224
21
128.7179355
0
LINE
8
DEFAULT_255_2_778
10
30.6030224
20
128.7179355
11
30.6131224
21
128.7185355
0
LINE
8
DEFAULT_255_2_778
10
30.6131224
20
128.7185355
11
30.6189224
21
128.7185355
0
LINE
8
DEFAULT_255_2_778
10
30.6189224
20
128.7185355
11
30.6266224
21
127.3593355
0
LINE
8
DEFAULT_255_2_778
10
30.6266224
20
127.3593355
11
30.6266224
21
126.3632355
0
LINE
8
DEFAULT_255_2_778
10
30.6266224
20
126.3632355
11
34.4987224
21
126.3632355
0
LINE
8
DEFAULT_255_2_778
10
34.4987224
20
126.3632355
11
34.4987224
21
127.3593355
0
LINE
8
DEFAULT_255_2_778
10
34.4987224
20
127.3593355
11
34.5064224
21
128.7185355
0
LINE
8
DEFAULT_255_2_778
10
34.5064224
20
128.7185355
11
34.5122224
21
128.7185355
0
LINE
8
DEFAULT_255_2_778
10
34.5122224
20
128.7185355
11
34.5223224
21
128.7179355
0
LINE
8
DEFAULT_255_2_778
10
34.5223224
20
128.7179355
11
34.5323224
21
128.7172355
0
LINE
8
DEFAULT_255_2_778
10
34.5323224
20
128.7172355
11
34.5424224
21
128.7164355
0
LINE
8
DEFAULT_255_2_778
10
34.5424224
20
128.7164355
11
34.5522224
21
128.7150355
0
LINE
8
DEFAULT_255_2_778
10
34.5522224
20
128.7150355
11
34.5620224
21
128.7134355
0
LINE
8
DEFAULT_255_2_778
10
34.5620224
20
128.7134355
11
34.5715224
21
128.7116355
0
LINE
8
DEFAULT_255_2_778
10
34.5715224
20
128.7116355
11
34.5810224
21
128.7097355
0
LINE
8
DEFAULT_255_2_778
10
34.5810224
20
128.7097355
11
34.5903224
21
128.7074355
0
LINE
8
DEFAULT_255_2_778
10
34.5903224
20
128.7074355
11
34.5995224
21
128.7050355
0
LINE
8
DEFAULT_255_2_778
10
34.5995224
20
128.7050355
11
34.5995224
21
128.7050355
0
LINE
8
DEFAULT_255_2_778
10
34.5995224
20
128.7050355
11
34.6085224
21
128.7021355
0
LINE
8
DEFAULT_255_2_778
10
34.6085224
20
128.7021355
11
34.6173224
21
128.6992355
0
LINE
8
DEFAULT_255_2_778
10
34.6173224
20
128.6992355
11
34.6260224
21
128.6957355
0
LINE
8
DEFAULT_255_2_778
10
34.6260224
20
128.6957355
11
34.6342224
21
128.6923355
0
LINE
8
DEFAULT_255_2_778
10
34.6342224
20
128.6923355
11
34.6421224
21
128.6886355
0
LINE
8
DEFAULT_255_2_778
10
34.6421224
20
128.6886355
11
34.6498224
21
128.6846355
0
LINE
8
DEFAULT_255_2_778
10
34.6498224
20
128.6846355
11
34.6575224
21
128.6806355
0
LINE
8
DEFAULT_255_2_778
10
34.6575224
20
128.6806355
11
34.6646224
21
128.6764355
0
LINE
8
DEFAULT_255_2_778
10
34.6646224
20
128.6764355
11
34.6718224
21
128.6719355
0
LINE
8
DEFAULT_255_2_778
10
34.6718224
20
128.6719355
11
34.6787224
21
128.6674355
0
LINE
8
DEFAULT_255_2_778
10
34.6787224
20
128.6674355
11
34.6845224
21
128.6632355
0
LINE
8
DEFAULT_255_2_778
10
34.6845224
20
128.6632355
11
34.6908224
21
128.6587355
0
LINE
8
DEFAULT_255_2_778
10
34.6908224
20
128.6587355
11
34.6967224
21
128.6537355
0
LINE
8
DEFAULT_255_2_778
10
34.6967224
20
128.6537355
11
34.7019224
21
128.6486355
0
LINE
8
DEFAULT_255_2_778
10
34.7019224
20
128.6486355
11
34.7072224
21
128.6436355
0
LINE
8
DEFAULT_255_2_778
10
34.7072224
20
128.6436355
11
34.7123224
21
128.6386355
0
LINE
8
DEFAULT_255_2_778
10
34.7123224
20
128.6386355
11
34.7168224
21
128.6335355
0
LINE
8
DEFAULT_255_2_778
10
34.7168224
20
128.6335355
11
34.7210224
21
128.6283355
0
LINE
8
DEFAULT_255_2_778
10
34.7210224
20
128.6283355
11
34.7250224
21
128.6230355
0
LINE
8
DEFAULT_255_2_778
10
34.7250224
20
128.6230355
11
34.7284224
21
128.6177355
0
LINE
8
DEFAULT_255_2_778
10
34.7284224
20
128.6177355
11
34.7318224
21
128.6121355
0
LINE
8
DEFAULT_255_2_778
10
34.7318224
20
128.6121355
11
34.7332224
21
128.6097355
0
LINE
8
DEFAULT_255_2_778
10
34.7332224
20
128.6097355
11
34.7363224
21
128.6042355
0
LINE
8
DEFAULT_255_2_778
10
34.7363224
20
128.6042355
11
34.7393224
21
128.5986355
0
LINE
8
DEFAULT_255_2_778
10
34.7393224
20
128.5986355
11
34.7419224
21
128.5928355
0
LINE
8
DEFAULT_255_2_778
10
34.7419224
20
128.5928355
11
34.7440224
21
128.5870355
0
LINE
8
DEFAULT_255_2_778
10
34.7440224
20
128.5870355
11
34.7461224
21
128.5812355
0
LINE
8
DEFAULT_255_2_778
10
34.7461224
20
128.5812355
11
34.7477224
21
128.5753355
0
LINE
8
DEFAULT_255_2_778
10
34.7477224
20
128.5753355
11
34.7490224
21
128.5698355
0
LINE
8
DEFAULT_255_2_778
10
34.7490224
20
128.5698355
11
34.7501224
21
128.5640355
0
LINE
8
DEFAULT_255_2_778
10
34.7501224
20
128.5640355
11
34.7509224
21
128.5584355
0
LINE
8
DEFAULT_255_2_778
10
34.7509224
20
128.5584355
11
34.7514224
21
128.5528355
0
LINE
8
DEFAULT_255_2_778
10
34.7514224
20
128.5528355
11
34.7514224
21
128.5473355
0
LINE
8
DEFAULT_255_2_778
10
34.7514224
20
128.5473355
11
34.7705224
21
129.7948355
0
LINE
8
DEFAULT_255_2_778
10
34.7705224
20
129.7948355
11
34.7705224
21
126.9934355
0
LINE
8
DEFAULT_255_2_778
10
34.7705224
20
126.9934355
11
34.7694224
21
127.0265355
0
LINE
8
DEFAULT_255_2_778
10
34.7694224
20
127.0265355
11
34.7691224
21
127.0333355
0
LINE
8
DEFAULT_255_2_778
10
34.7691224
20
127.0333355
11
34.7689224
21
127.0402355
0
LINE
8
DEFAULT_255_2_778
10
34.7689224
20
127.0402355
11
34.7686224
21
127.0421355
0
LINE
8
DEFAULT_255_2_778
10
34.7686224
20
127.0421355
11
34.7684224
21
127.0490355
0
LINE
8
DEFAULT_255_2_778
10
34.7684224
20
127.0490355
11
34.7681224
21
127.0537355
0
LINE
8
DEFAULT_255_2_778
10
34.7681224
20
127.0537355
11
34.7676224
21
127.0577355
0
LINE
8
DEFAULT_255_2_778
10
34.7676224
20
127.0577355
11
34.7676224
21
127.0590355
0
LINE
8
DEFAULT_255_2_778
10
34.7676224
20
127.0590355
11
34.7673224
21
127.0609355
0
LINE
8
DEFAULT_255_2_778
10
34.7673224
20
127.0609355
11
34.7673224
21
127.0614355
0
LINE
8
DEFAULT_255_2_778
10
34.7673224
20
127.0614355
11
34.7670224
21
127.0630355
0
LINE
8
DEFAULT_255_2_778
10
34.7670224
20
127.0630355
11
34.7668224
21
127.0632355
0
LINE
8
DEFAULT_255_2_778
10
34.7668224
20
127.0632355
11
34.7668224
21
127.0638355
0
LINE
8
DEFAULT_255_2_778
10
34.7668224
20
127.0638355
11
34.7665224
21
127.0638355
0
LINE
8
DEFAULT_255_2_778
10
34.7665224
20
127.0638355
11
34.7662224
21
127.0638355
0
LINE
8
DEFAULT_255_2_778
10
34.7662224
20
127.0638355
11
34.7660224
21
127.0638355
0
LINE
8
DEFAULT_255_2_778
10
34.7660224
20
127.0638355
11
34.7657224
21
127.0635355
0
LINE
8
DEFAULT_255_2_778
10
34.7657224
20
127.0635355
11
34.7654224
21
127.0630355
0
LINE
8
DEFAULT_255_2_778
10
34.7654224
20
127.0630355
11
34.7654224
21
127.0627355
0
LINE
8
DEFAULT_255_2_778
10
34.7654224
20
127.0627355
11
34.7652224
21
127.0614355
0
LINE
8
DEFAULT_255_2_778
10
34.7652224
20
127.0614355
11
34.7649224
21
127.0606355
0
LINE
8
DEFAULT_255_2_778
10
34.7649224
20
127.0606355
11
34.7649224
21
127.0585355
0
LINE
8
DEFAULT_255_2_778
10
34.7649224
20
127.0585355
11
34.7646224
21
127.0572355
0
LINE
8
DEFAULT_255_2_778
10
34.7646224
20
127.0572355
11
34.7641224
21
127.0503355
0
LINE
8
DEFAULT_255_2_778
10
34.7641224
20
127.0503355
11
34.7641224
21
127.0474355
0
LINE
8
DEFAULT_255_2_778
10
34.7641224
20
127.0474355
11
34.7636224
21
127.0405355
0
LINE
8
DEFAULT_255_2_778
10
34.7636224
20
127.0405355
11
34.7633224
21
127.0336355
0
LINE
8
DEFAULT_255_2_778
10
34.7633224
20
127.0336355
11
34.7633224
21
127.0333355
0
LINE
8
DEFAULT_255_2_778
10
35.5274224
20
126.6780355
11
35.5251224
21
126.6066355
0
LINE
8
DEFAULT_255_2_778
10
35.5251224
20
126.6066355
11
35.5224224
21
126.5709355
0
LINE
8
DEFAULT_255_2_778
10
35.5224224
20
126.5709355
11
35.5166224
21
126.5227355
0
LINE
8
DEFAULT_255_2_778
10
35.5166224
20
126.5227355
11
35.5113224
21
126.4872355
0
LINE
8
DEFAULT_255_2_778
10
35.5113224
20
126.4872355
11
35.4970224
21
126.4169355
0
LINE
8
DEFAULT_255_2_778
10
35.4970224
20
126.4169355
11
35.4785224
21
126.3483355
0
LINE
8
DEFAULT_255_2_778
10
35.4785224
20
126.3483355
11
35.4557224
21
126.2817355
0
LINE
8
DEFAULT_255_2_778
10
35.4557224
20
126.2817355
11
35.4290224
21
126.2168355
0
LINE
8
DEFAULT_255_2_778
10
35.4290224
20
126.2168355
11
35.3891224
21
126.1367355
0
LINE
8
DEFAULT_255_2_778
10
35.3891224
20
126.1367355
11
35.3340224
21
126.0480355
0
LINE
8
DEFAULT_255_2_778
10
35.3340224
20
126.0480355
11
35.2713224
21
125.9660355
0
LINE
8
DEFAULT_255_2_778
10
35.2713224
20
125.9660355
11
35.1808224
21
125.8724355
0
LINE
8
DEFAULT_255_2_778
10
35.1808224
20
125.8724355
11
35.0753224
21
125.7887355
0
LINE
8
DEFAULT_255_2_778
10
35.0753224
20
125.7887355
11
34.9319224
21
125.7075355
0
LINE
8
DEFAULT_255_2_778
10
34.9319224
20
125.7075355
11
34.7771224
21
125.6530355
0
LINE
8
DEFAULT_255_2_778
10
34.7771224
20
125.6530355
11
34.6157224
21
125.6268355
0
LINE
8
DEFAULT_255_2_778
10
34.6157224
20
125.6268355
11
34.5514224
21
125.6244355
0
LINE
8
DEFAULT_255_2_778
10
30.5752224
20
125.6244355
11
30.4136224
21
125.6393355
0
LINE
8
DEFAULT_255_2_778
10
30.4136224
20
125.6393355
11
30.2551224
21
125.6829355
0
LINE
8
DEFAULT_255_2_778
10
30.2551224
20
125.6829355
11
30.1072224
21
125.7533355
0
LINE
8
DEFAULT_255_2_778
10
30.1072224
20
125.7533355
11
29.9969224
21
125.8290355
0
LINE
8
DEFAULT_255_2_778
10
29.9969224
20
125.8290355
11
29.9003224
21
125.9163355
0
LINE
8
DEFAULT_255_2_778
10
29.9003224
20
125.9163355
11
29.8119224
21
126.0205355
0
LINE
8
DEFAULT_255_2_778
10
29.8119224
20
126.0205355
11
29.7542224
21
126.1070355
0
LINE
8
DEFAULT_255_2_778
10
29.7542224
20
126.1070355
11
29.7116224
21
126.1856355
0
LINE
8
DEFAULT_255_2_778
10
29.7116224
20
126.1856355
11
29.6828224
21
126.2494355
0
LINE
8
DEFAULT_255_2_778
10
29.6828224
20
126.2494355
11
29.6582224
21
126.3153355
0
LINE
8
DEFAULT_255_2_778
10
29.6582224
20
126.3153355
11
29.6375224
21
126.3830355
0
LINE
8
DEFAULT_255_2_778
10
29.6375224
20
126.3830355
11
29.6214224
21
126.4526355
0
LINE
8
DEFAULT_255_2_778
10
29.6214224
20
126.4526355
11
29.6148224
21
126.4880355
0
LINE
8
DEFAULT_255_2_778
10
29.6148224
20
126.4880355
11
29.6092224
21
126.5235355
0
LINE
8
DEFAULT_255_2_778
10
29.6092224
20
126.5235355
11
29.6037224
21
126.5716355
0
LINE
8
DEFAULT_255_2_778
10
29.6037224
20
126.5716355
11
29.6008224
21
126.6074355
0
LINE
8
DEFAULT_255_2_778
10
29.6008224
20
126.6074355
11
29.5987224
21
126.6788355
0
LINE
8
DEFAULT_255_2_778
10
35.5626224
20
130.6335355
11
35.3348224
21
130.6706355
0
LINE
8
DEFAULT_255_2_778
10
35.3348224
20
130.6706355
11
35.1755224
21
130.7542355
0
LINE
8
DEFAULT_255_2_778
10
35.1755224
20
130.7542355
11
35.1089224
21
130.8267355
0
LINE
8
DEFAULT_255_2_778
10
35.1089224
20
130.8267355
11
35.0816224
21
130.8833355
0
LINE
8
DEFAULT_255_2_778
10
35.0816224
20
130.8833355
11
35.0747224
21
130.9113355
0
LINE
8
DEFAULT_255_2_778
10
35.0747224
20
130.9113355
11
35.0718224
21
130.9616355
0
LINE
8
DEFAULT_255_2_778
10
35.0718224
20
130.9616355
11
35.0694224
21
130.9828355
0
LINE
8
DEFAULT_255_2_778
10
35.0694224
20
130.9828355
11
35.0602224
21
131.0209355
0
LINE
8
DEFAULT_255_2_778
10
35.0602224
20
131.0209355
11
35.0284224
21
131.0799355
0
LINE
8
DEFAULT_255_2_778
10
35.0284224
20
131.0799355
11
34.9271224
21
131.1458355
0
LINE
8
DEFAULT_255_2_778
10
34.9271224
20
131.1458355
11
34.8850224
21
131.1508355
0
LINE
8
DEFAULT_255_2_778
10
34.8850224
20
131.1508355
11
30.1744224
21
131.1370355
0
LINE
8
DEFAULT_255_2_778
10
30.1744224
20
131.1370355
11
30.0918224
21
131.0701355
0
LINE
8
DEFAULT_255_2_778
10
30.0918224
20
131.0701355
11
30.0625224
21
131.0055355
0
LINE
8
DEFAULT_255_2_778
10
30.0625224
20
131.0055355
11
30.0567224
21
130.9770355
0
LINE
8
DEFAULT_255_2_778
10
30.0567224
20
130.9770355
11
30.0545224
21
130.9291355
0
LINE
8
DEFAULT_255_2_778
10
30.0545224
20
130.9291355
11
30.0524224
21
130.9111355
0
LINE
8
DEFAULT_255_2_778
10
30.0524224
20
130.9111355
11
30.0455224
21
130.8830355
0
LINE
8
DEFAULT_255_2_778
10
30.0455224
20
130.8830355
11
30.0159224
21
130.8224355
0
LINE
8
DEFAULT_255_2_778
10
30.0159224
20
130.8224355
11
29.9519224
21
130.7539355
0
LINE
8
DEFAULT_255_2_778
10
29.9519224
20
130.7539355
11
29.8085224
21
130.6759355
0
LINE
8
DEFAULT_255_2_778
10
29.8085224
20
130.6759355
11
29.6031224
21
130.6349355
0
LINE
8
DEFAULT_255_2_778
10
29.6031224
20
130.6349355
11
29.5648224
21
130.6335355
0
LINE
8
DEFAULT_255_2_778
10
30.1106224
20
127.0400355
11
30.1125224
21
126.9934355
0
LINE
8
DEFAULT_255_2_778
10
30.1125224
20
126.9934355
11
30.1156224
21
126.9643355
0
LINE
8
DEFAULT_255_2_778
10
30.1156224
20
126.9643355
11
30.1239224
21
126.9180355
0
LINE
8
DEFAULT_255_2_778
10
30.1239224
20
126.9180355
11
30.1405224
21
126.8579355
0
LINE
8
DEFAULT_255_2_778
10
30.1405224
20
126.8579355
11
30.1770224
21
126.7741355
0
LINE
8
DEFAULT_255_2_778
10
30.1770224
20
126.7741355
11
30.2458224
21
126.6759355
0
LINE
8
DEFAULT_255_2_778
10
30.2458224
20
126.6759355
11
30.3633224
21
126.5783355
0
LINE
8
DEFAULT_255_2_778
10
30.3633224
20
126.5783355
11
30.3882224
21
126.5645355
0
LINE
8
DEFAULT_255_2_778
10
34.7395224
20
126.5642355
11
34.8573224
21
126.6497355
0
LINE
8
DEFAULT_255_2_778
10
34.8573224
20
126.6497355
11
34.9358224
21
126.7481355
0
LINE
8
DEFAULT_255_2_778
10
34.9358224
20
126.7481355
11
34.9766224
21
126.8291355
0
LINE
8
DEFAULT_255_2_778
10
34.9766224
20
126.8291355
11
35.0004224
21
126.9026355
0
LINE
8
DEFAULT_255_2_778
10
35.0004224
20
126.9026355
11
35.0099224
21
126.9487355
0
LINE
8
DEFAULT_255_2_778
10
35.0099224
20
126.9487355
11
35.0139224
21
126.9778355
0
LINE
8
DEFAULT_255_2_778
10
35.0139224
20
126.9778355
11
35.0165224
21
127.0090355
0
LINE
8
DEFAULT_255_2_778
10
35.0165224
20
127.0090355
11
35.0173224
21
127.0400355
0
LINE
8
DEFAULT_255_2_778
10
35.0411224
20
128.4772355
11
35.0425224
21
128.4594355
0
LINE
8
DEFAULT_255_2_778
10
35.0425224
20
128.4594355
11
35.0480224
21
128.4317355
0
LINE
8
DEFAULT_255_2_778
10
35.0480224
20
128.4317355
11
35.0671224
21
128.3843355
0
LINE
8
DEFAULT_255_2_778
10
35.0671224
20
128.3843355
11
35.1168224
21
128.3179355
0
LINE
8
DEFAULT_255_2_778
10
35.1168224
20
128.3179355
11
35.2279224
21
128.2406355
0
LINE
8
DEFAULT_255_2_778
10
35.2279224
20
128.2406355
11
35.4176224
21
128.1819355
0
LINE
8
DEFAULT_255_2_778
10
35.4176224
20
128.1819355
11
35.5317224
21
128.1726355
0
LINE
8
DEFAULT_255_2_778
10
35.5317224
20
128.1726355
11
35.5293224
21
128.0507355
0
LINE
8
DEFAULT_255_2_778
10
35.5293224
20
128.0507355
11
35.5282224
21
126.6791355
0
LINE
8
DEFAULT_255_2_778
10
35.5282224
20
126.6791355
11
35.0374224
21
126.6791355
0
LINE
8
DEFAULT_255_2_778
10
35.0374224
20
126.6791355
11
35.0356224
21
126.6272355
0
LINE
8
DEFAULT_255_2_778
10
35.0356224
20
126.6272355
11
35.0340224
21
126.6076355
0
LINE
8
DEFAULT_255_2_778
10
35.0340224
20
126.6076355
11
35.0287224
21
126.5687355
0
LINE
8
DEFAULT_255_2_778
10
35.0287224
20
126.5687355
11
35.0213224
21
126.5306355
0
LINE
8
DEFAULT_255_2_778
10
35.0213224
20
126.5306355
11
35.0046224
21
126.4708355
0
LINE
8
DEFAULT_255_2_778
10
35.0046224
20
126.4708355
11
34.9763224
21
126.4010355
0
LINE
8
DEFAULT_255_2_778
10
34.9763224
20
126.4010355
11
34.9303224
21
126.3216355
0
LINE
8
DEFAULT_255_2_778
10
34.9303224
20
126.3216355
11
34.8594224
21
126.2391355
0
LINE
8
DEFAULT_255_2_778
10
34.8594224
20
126.2391355
11
34.7506224
21
126.1613355
0
LINE
8
DEFAULT_255_2_778
10
34.7506224
20
126.1613355
11
34.6146224
21
126.1174355
0
LINE
8
DEFAULT_255_2_778
10
34.6146224
20
126.1174355
11
34.5517224
21
126.1129355
0
LINE
8
DEFAULT_255_2_778
10
34.5517224
20
126.1129355
11
30.4966224
21
126.1200355
0
LINE
8
DEFAULT_255_2_778
10
30.4966224
20
126.1200355
11
30.3620224
21
126.1690355
0
LINE
8
DEFAULT_255_2_778
10
30.3620224
20
126.1690355
11
30.2675224
21
126.2391355
0
LINE
8
DEFAULT_255_2_778
10
30.2675224
20
126.2391355
11
30.1966224
21
126.3219355
0
LINE
8
DEFAULT_255_2_778
10
30.1966224
20
126.3219355
11
30.1506224
21
126.4013355
0
LINE
8
DEFAULT_255_2_778
10
30.1506224
20
126.4013355
11
30.1209224
21
126.4753355
0
LINE
8
DEFAULT_255_2_778
10
30.1209224
20
126.4753355
11
30.1056224
21
126.5309355
0
LINE
8
DEFAULT_255_2_778
10
30.1056224
20
126.5309355
11
30.0979224
21
126.5690355
0
LINE
8
DEFAULT_255_2_778
10
30.0979224
20
126.5690355
11
30.0926224
21
126.6079355
0
LINE
8
DEFAULT_255_2_778
10
30.0926224
20
126.6079355
11
30.0911224
21
126.6275355
0
LINE
8
DEFAULT_255_2_778
10
30.0911224
20
126.6275355
11
30.0892224
21
126.6793355
0
LINE
8
DEFAULT_255_2_778
10
30.0892224
20
126.6793355
11
29.5987224
21
126.6793355
0
LINE
8
DEFAULT_255_2_778
10
29.5987224
20
126.6793355
11
29.5965224
21
128.1118355
0
LINE
8
DEFAULT_255_2_778
10
29.5965224
20
128.1118355
11
29.5952224
21
128.1726355
0
LINE
8
DEFAULT_255_2_778
10
29.5952224
20
128.1726355
11
29.8230224
21
128.2094355
0
LINE
8
DEFAULT_255_2_778
10
29.8230224
20
128.2094355
11
29.9823224
21
128.2933355
0
LINE
8
DEFAULT_255_2_778
10
29.9823224
20
128.2933355
11
30.0490224
21
128.3658355
0
LINE
8
DEFAULT_255_2_778
10
30.0490224
20
128.3658355
11
30.0728224
21
128.4131355
0
LINE
8
DEFAULT_255_2_778
10
30.0728224
20
128.4131355
11
30.0828224
21
128.4507355
0
LINE
8
DEFAULT_255_2_778
10
30.0828224
20
128.4507355
11
30.0852224
21
128.4687355
0
LINE
8
DEFAULT_255_2_778
10
30.0852224
20
128.4687355
11
30.0855224
21
128.4777355
0
LINE
8
DEFAULT_255_2_778
10
34.5366224
20
126.3655355
11
34.5511224
21
126.1131355
0
LINE
8
DEFAULT_255_2_778
10
34.5511224
20
126.1131355
11
34.5511224
21
125.6258355
0
LINE
8
DEFAULT_255_2_778
10
34.5511224
20
125.6258355
11
30.5750224
21
125.6258355
0
LINE
8
DEFAULT_255_2_778
10
30.5750224
20
125.6258355
11
30.5750224
21
126.1131355
0
LINE
8
DEFAULT_255_2_778
10
30.5750224
20
126.1131355
11
30.5893224
21
126.3655355
0
LINE
8
DEFAULT_255_2_778
10
36.7689224
20
129.5585355
11
36.6501224
21
129.4458355
0
LINE
8
DEFAULT_255_2_778
10
36.6501224
20
129.4458355
11
36.4781224
21
129.3918355
0
LINE
8
DEFAULT_255_2_778
10
27.6646224
20
129.5376355
11
27.6656224
21
129.4567355
0
LINE
8
DEFAULT_255_2_778
10
27.6656224
20
129.4567355
11
27.6683224
21
129.3908355
0
LINE
8
DEFAULT_255_2_778
10
27.6683224
20
129.3908355
11
27.6722224
21
129.3254355
0
LINE
8
DEFAULT_255_2_778
10
27.6722224
20
129.3254355
11
27.6778224
21
129.2606355
0
LINE
8
DEFAULT_255_2_778
10
27.6778224
20
129.2606355
11
27.6847224
21
129.1963355
0
LINE
8
DEFAULT_255_2_778
10
27.6847224
20
129.1963355
11
27.6929224
21
129.1325355
0
LINE
8
DEFAULT_255_2_778
10
27.6929224
20
129.1325355
11
27.7026224
21
129.0698355
0
LINE
8
DEFAULT_255_2_778
10
27.7026224
20
129.0698355
11
27.7169224
21
128.9926355
0
LINE
8
DEFAULT_255_2_778
10
27.7169224
20
128.9926355
11
27.7296224
21
128.9323355
0
LINE
8
DEFAULT_255_2_778
10
27.7296224
20
128.9323355
11
27.7434224
21
128.8733355
0
LINE
8
DEFAULT_255_2_778
10
27.7434224
20
128.8733355
11
27.7585224
21
128.8158355
0
LINE
8
DEFAULT_255_2_778
10
27.7585224
20
128.8158355
11
27.7921224
21
128.7052355
0
LINE
8
DEFAULT_255_2_778
10
27.7921224
20
128.7052355
11
27.8299224
21
128.6007355
0
LINE
8
DEFAULT_255_2_778
10
27.8299224
20
128.6007355
11
27.8807224
21
128.4822355
0
LINE
8
DEFAULT_255_2_778
10
27.8807224
20
128.4822355
11
27.9265224
21
128.3922355
0
LINE
8
DEFAULT_255_2_778
10
27.9265224
20
128.3922355
11
27.9749224
21
128.3097355
0
LINE
8
DEFAULT_255_2_778
10
27.9749224
20
128.3097355
11
28.0334224
21
128.2237355
0
LINE
8
DEFAULT_255_2_778
10
28.0334224
20
128.2237355
11
28.1133224
21
128.1263355
0
LINE
8
DEFAULT_255_2_778
10
28.1133224
20
128.1263355
11
28.2115224
21
128.0327355
0
LINE
8
DEFAULT_255_2_778
10
28.2115224
20
128.0327355
11
28.3252224
21
127.9533355
0
LINE
8
DEFAULT_255_2_778
10
28.3252224
20
127.9533355
11
28.4252224
21
127.9065355
0
LINE
8
DEFAULT_255_2_778
10
28.4252224
20
127.9065355
11
28.5448224
21
127.8750355
0
LINE
8
DEFAULT_255_2_778
10
28.5448224
20
127.8750355
11
28.6327224
21
127.8678355
0
LINE
8
DEFAULT_255_2_778
10
39.3139224
20
124.6849355
11
39.3139224
21
131.8998355
0
LINE
8
DEFAULT_255_2_778
10
39.3139224
20
131.8998355
11
36.9760224
21
131.8998355
0
LINE
8
DEFAULT_255_2_778
10
37.0988224
20
132.0882355
11
37.1440224
21
132.1009355
0
LINE
8
DEFAULT_255_2_778
10
37.1440224
20
132.1009355
11
37.1721224
21
132.1030355
0
LINE
8
DEFAULT_255_2_778
10
37.1721224
20
132.1030355
11
38.3209224
21
132.1030355
0
LINE
8
DEFAULT_255_2_778
10
38.3209224
20
132.1030355
11
38.1868224
21
132.2417355
0
LINE
8
DEFAULT_255_2_778
10
38.1868224
20
132.2417355
11
38.1868224
21
134.5385355
0
LINE
8
DEFAULT_255_2_778
10
38.1868224
20
134.5385355
11
37.9076224
21
135.5122355
0
LINE
8
DEFAULT_255_2_778
10
37.9076224
20
135.5122355
11
38.0315224
21
135.6937355
0
LINE
8
DEFAULT_255_2_778
10
27.0954224
20
135.6937355
11
27.2190224
21
135.5122355
0
LINE
8
DEFAULT_255_2_778
10
27.2190224
20
135.5122355
11
27.1854224
21
135.5217355
0
LINE
8
DEFAULT_255_2_778
10
27.1854224
20
135.5217355
11
27.1513224
21
135.5302355
0
LINE
8
DEFAULT_255_2_778
10
27.1513224
20
135.5302355
11
27.1166224
21
135.5373355
0
LINE
8
DEFAULT_255_2_778
10
27.1166224
20
135.5373355
11
27.0817224
21
135.5431355
0
LINE
8
DEFAULT_255_2_778
10
27.0817224
20
135.5431355
11
27.0462224
21
135.5476355
0
LINE
8
DEFAULT_255_2_778
10
27.0462224
20
135.5476355
11
27.0105224
21
135.5511355
0
LINE
8
DEFAULT_255_2_778
10
27.0105224
20
135.5511355
11
26.9790224
21
135.5529355
0
LINE
8
DEFAULT_255_2_778
10
26.9790224
20
135.5529355
11
26.9433224
21
135.5537355
0
LINE
8
DEFAULT_255_2_778
10
26.9433224
20
135.5537355
11
26.9076224
21
135.5532355
0
LINE
8
DEFAULT_255_2_778
10
26.9076224
20
135.5532355
11
26.8721224
21
135.5513355
0
LINE
8
DEFAULT_255_2_778
10
26.8721224
20
135.5513355
11
26.8367224
21
135.5482355
0
LINE
8
DEFAULT_255_2_778
10
26.8367224
20
135.5482355
11
26.8018224
21
135.5437355
0
LINE
8
DEFAULT_255_2_778
10
26.8018224
20
135.5437355
11
26.7671224
21
135.5378355
0
LINE
8
DEFAULT_255_2_778
10
26.7671224
20
135.5378355
11
26.7327224
21
135.5310355
0
LINE
8
DEFAULT_255_2_778
10
26.7327224
20
135.5310355
11
26.6986224
21
135.5228355
0
LINE
8
DEFAULT_255_2_778
10
26.6986224
20
135.5228355
11
26.6644224
21
135.5132355
0
LINE
8
DEFAULT_255_2_778
10
26.6644224
20
135.5132355
11
26.6308224
21
135.5024355
0
LINE
8
DEFAULT_255_2_778
10
26.6308224
20
135.5024355
11
26.5972224
21
135.4902355
0
LINE
8
DEFAULT_255_2_778
10
26.5972224
20
135.4902355
11
26.5642224
21
135.4770355
0
LINE
8
DEFAULT_255_2_778
10
26.5642224
20
135.4770355
11
26.5316224
21
135.4622355
0
LINE
8
DEFAULT_255_2_778
10
26.5316224
20
135.4622355
11
26.5028224
21
135.4479355
0
LINE
8
DEFAULT_255_2_778
10
26.5028224
20
135.4479355
11
26.4713224
21
135.4312355
0
LINE
8
DEFAULT_255_2_778
10
26.4713224
20
135.4312355
11
26.4403224
21
135.4130355
0
LINE
8
DEFAULT_255_2_778
10
26.4403224
20
135.4130355
11
26.4102224
21
135.3939355
0
LINE
8
DEFAULT_255_2_778
10
26.4102224
20
135.3939355
11
26.3808224
21
135.3735355
0
LINE
8
DEFAULT_255_2_778
10
26.3808224
20
135.3735355
11
26.3522224
21
135.3524355
0
LINE
8
DEFAULT_255_2_778
10
26.3522224
20
135.3524355
11
26.3244224
21
135.3299355
0
LINE
8
DEFAULT_255_2_778
10
26.3244224
20
135.3299355
11
26.2975224
21
135.3063355
0
LINE
8
DEFAULT_255_2_778
10
26.2975224
20
135.3063355
11
26.2710224
21
135.2817355
0
LINE
8
DEFAULT_255_2_778
10
26.2710224
20
135.2817355
11
26.2456224
21
135.2563355
0
LINE
8
DEFAULT_255_2_778
10
26.2456224
20
135.2563355
11
26.2210224
21
135.2299355
0
LINE
8
DEFAULT_255_2_778
10
26.2210224
20
135.2299355
11
26.1996224
21
135.2053355
0
LINE
8
DEFAULT_255_2_778
10
26.1996224
20
135.2053355
11
26.1768224
21
135.1772355
0
LINE
8
DEFAULT_255_2_778
10
26.1768224
20
135.1772355
11
26.1551224
21
135.1481355
0
LINE
8
DEFAULT_255_2_778
10
26.1551224
20
135.1481355
11
26.1342224
21
135.1185355
0
LINE
8
DEFAULT_255_2_778
10
26.1342224
20
135.1185355
11
26.1146224
21
135.0881355
0
LINE
8
DEFAULT_255_2_778
10
26.1146224
20
135.0881355
11
26.0961224
21
135.0571355
0
LINE
8
DEFAULT_255_2_778
10
26.0961224
20
135.0571355
11
26.0786224
21
135.0256355
0
LINE
8
DEFAULT_255_2_778
10
26.0786224
20
135.0256355
11
26.0625224
21
134.9933355
0
LINE
8
DEFAULT_255_2_778
10
26.0625224
20
134.9933355
11
26.0472224
21
134.9608355
0
LINE
8
DEFAULT_255_2_778
10
26.0472224
20
134.9608355
11
26.0331224
21
134.9272355
0
LINE
8
DEFAULT_255_2_778
10
26.0331224
20
134.9272355
11
26.0202224
21
134.8933355
0
LINE
8
DEFAULT_255_2_778
10
26.0202224
20
134.8933355
11
26.0083224
21
134.8584355
0
LINE
8
DEFAULT_255_2_778
10
26.0083224
20
134.8584355
11
25.9977224
21
134.8232355
0
LINE
8
DEFAULT_255_2_778
10
25.9977224
20
134.8232355
11
25.9884224
21
134.7875355
0
LINE
8
DEFAULT_255_2_778
10
25.9884224
20
134.7875355
11
25.9813224
21
134.7557355
0
LINE
8
DEFAULT_255_2_778
10
25.9813224
20
134.7557355
11
25.9741224
21
134.7198355
0
LINE
8
DEFAULT_255_2_778
10
25.9741224
20
134.7198355
11
25.9683224
21
134.6832355
0
LINE
8
DEFAULT_255_2_778
10
25.9683224
20
134.6832355
11
25.9638224
21
134.6467355
0
LINE
8
DEFAULT_255_2_778
10
25.9638224
20
134.6467355
11
25.9606224
21
134.6102355
0
LINE
8
DEFAULT_255_2_778
10
25.9606224
20
134.6102355
11
25.9588224
21
134.5740355
0
LINE
8
DEFAULT_255_2_778
10
25.9588224
20
134.5740355
11
25.9580224
21
134.5380355
0
LINE
8
DEFAULT_255_2_778
10
25.9580224
20
134.5380355
11
25.8257224
21
134.7221355
0
LINE
8
DEFAULT_255_2_778
10
25.8257224
20
134.7221355
11
25.8257224
21
133.9273355
0
LINE
8
DEFAULT_255_2_778
10
25.8257224
20
133.9273355
11
25.7916224
21
131.8993355
0
LINE
8
DEFAULT_255_2_778
10
25.7916224
20
131.8993355
11
25.7913224
21
131.6924355
0
LINE
8
DEFAULT_255_2_778
10
25.7913224
20
131.6924355
11
25.7913224
21
124.6833355
0
LINE
8
DEFAULT_255_2_778
10
38.8228224
20
124.6833355
11
38.8207224
21
131.9141355
0
LINE
8
DEFAULT_255_2_778
10
38.8207224
20
131.9141355
11
38.7990224
21
131.9525355
0
LINE
8
DEFAULT_255_2_778
10
38.7990224
20
131.9525355
11
38.7260224
21
132.0075355
0
LINE
8
DEFAULT_255_2_778
10
38.7260224
20
132.0075355
11
38.5254224
21
132.0731355
0
LINE
8
DEFAULT_255_2_778
10
38.5254224
20
132.0731355
11
38.3201224
21
132.1025355
0
LINE
8
DEFAULT_255_2_778
10
38.3201224
20
132.1025355
11
38.5061224
21
132.1213355
0
LINE
8
DEFAULT_255_2_778
10
38.5061224
20
132.1213355
11
38.6651224
21
132.1676355
0
LINE
8
DEFAULT_255_2_778
10
38.6651224
20
132.1676355
11
38.8133224
21
132.2403355
0
LINE
8
DEFAULT_255_2_778
10
38.8133224
20
132.2403355
11
38.9408224
21
132.3316355
0
LINE
8
DEFAULT_255_2_778
10
38.9408224
20
132.3316355
11
39.0369224
21
132.4248355
0
LINE
8
DEFAULT_255_2_778
10
39.0369224
20
132.4248355
11
39.1144224
21
132.5219355
0
LINE
8
DEFAULT_255_2_778
10
39.1144224
20
132.5219355
11
39.1684224
21
132.6078355
0
LINE
8
DEFAULT_255_2_778
10
39.1684224
20
132.6078355
11
39.1999224
21
132.6679355
0
LINE
8
DEFAULT_255_2_778
10
39.1999224
20
132.6679355
11
39.2268224
21
132.7296355
0
LINE
8
DEFAULT_255_2_778
10
39.2268224
20
132.7296355
11
39.2499224
21
132.7931355
0
LINE
8
DEFAULT_255_2_778
10
39.2499224
20
132.7931355
11
39.2689224
21
132.8587355
0
LINE
8
DEFAULT_255_2_778
10
39.2689224
20
132.8587355
11
39.2837224
21
132.9256355
0
LINE
8
DEFAULT_255_2_778
10
39.2837224
20
132.9256355
11
39.2930224
21
132.9825355
0
LINE
8
DEFAULT_255_2_778
10
39.2930224
20
132.9825355
11
39.2967224
21
133.0166355
0
LINE
8
DEFAULT_255_2_778
10
39.2967224
20
133.0166355
11
39.2993224
21
133.0505355
0
LINE
8
DEFAULT_255_2_778
10
39.2993224
20
133.0505355
11
39.3017224
21
133.1182355
0
LINE
8
DEFAULT_255_2_778
10
35.7947224
20
129.3900355
11
35.6301224
21
129.3405355
0
LINE
8
DEFAULT_255_2_778
10
35.6301224
20
129.3405355
11
35.6243224
21
129.3360355
0
LINE
8
DEFAULT_255_2_778
10
35.6243224
20
129.3360355
11
35.6095224
21
128.1711355
0
LINE
8
DEFAULT_255_2_778
10
35.6095224
20
128.1711355
11
35.5311224
21
128.1711355
0
LINE
8
DEFAULT_255_2_778
10
35.5311224
20
128.1711355
11
35.5624224
21
130.6322355
0
LINE
8
DEFAULT_255_2_778
10
35.5624224
20
130.6322355
11
35.5613224
21
130.6806355
0
LINE
8
DEFAULT_255_2_778
10
35.5613224
20
130.6806355
11
35.5587224
21
130.7179355
0
LINE
8
DEFAULT_255_2_778
10
35.5587224
20
130.7179355
11
35.5518224
21
130.7661355
0
LINE
8
DEFAULT_255_2_778
10
35.5518224
20
130.7661355
11
35.5478224
21
130.7899355
0
LINE
8
DEFAULT_255_2_778
10
35.5478224
20
130.7899355
11
35.5304224
21
130.8597355
0
LINE
8
DEFAULT_255_2_778
10
35.5304224
20
130.8597355
11
35.5063224
21
130.9270355
0
LINE
8
DEFAULT_255_2_778
10
35.5063224
20
130.9270355
11
35.4626224
21
131.0148355
0
LINE
8
DEFAULT_255_2_778
10
35.4626224
20
131.0148355
11
35.4100224
21
131.0928355
0
LINE
8
DEFAULT_255_2_778
10
35.4100224
20
131.0928355
11
35.3277224
21
131.1812355
0
LINE
8
DEFAULT_255_2_778
10
35.3277224
20
131.1812355
11
35.2160224
21
131.2632355
0
LINE
8
DEFAULT_255_2_778
10
35.2160224
20
131.2632355
11
35.0692224
21
131.3265355
0
LINE
8
DEFAULT_255_2_778
10
35.0692224
20
131.3265355
11
34.9075224
21
131.3527355
0
LINE
8
DEFAULT_255_2_778
10
34.9075224
20
131.3527355
11
30.2419224
21
131.3529355
0
LINE
8
DEFAULT_255_2_778
10
30.2419224
20
131.3529355
11
30.2419224
21
131.1500355
0
LINE
8
DEFAULT_255_2_778
10
30.2419224
20
131.1500355
11
30.3062224
21
131.0833355
0
LINE
8
DEFAULT_255_2_778
10
30.3062224
20
131.0833355
11
34.8205224
21
131.0833355
0
LINE
8
DEFAULT_255_2_778
10
34.8205224
20
131.0833355
11
34.8848224
21
131.1500355
0
LINE
8
DEFAULT_255_2_778
10
34.8848224
20
131.1500355
11
34.8848224
21
131.3529355
0
LINE
8
DEFAULT_255_2_778
10
36.9657224
20
124.6836355
11
36.9657224
21
129.9594355
0
LINE
8
DEFAULT_255_2_778
10
36.9657224
20
129.9594355
11
36.9406224
21
131.9366355
0
LINE
8
DEFAULT_255_2_778
10
36.9406224
20
131.9366355
11
36.9760224
21
131.8998355
0
LINE
8
DEFAULT_255_2_778
10
36.9760224
20
131.8998355
11
36.9760224
21
124.6841355
0
LINE
8
DEFAULT_255_2_778
10
36.7691224
20
124.6841355
11
36.7691224
21
129.5572355
0
LINE
8
DEFAULT_255_2_778
10
36.7691224
20
129.5572355
11
36.9004224
21
129.7435355
0
LINE
8
DEFAULT_255_2_778
10
36.9004224
20
129.7435355
11
36.9427224
21
129.8345355
0
LINE
8
DEFAULT_255_2_778
10
36.9427224
20
129.8345355
11
36.9586224
21
129.8922355
0
LINE
8
DEFAULT_255_2_778
10
36.9586224
20
129.8922355
11
36.9636224
21
129.9260355
0
LINE
8
DEFAULT_255_2_778
10
36.9636224
20
129.9260355
11
36.9657224
21
129.9591355
0
LINE
8
DEFAULT_255_2_778
10
35.0374224
20
127.8668355
11
35.0409224
21
128.4764355
0
LINE
8
DEFAULT_255_2_778
10
35.0409224
20
128.4764355
11
35.0721224
21
130.9375355
0
LINE
8
DEFAULT_255_2_778
10
35.0721224
20
130.9375355
11
35.0168224
21
127.0392355
0
LINE
8
DEFAULT_255_2_778
10
35.0168224
20
127.0392355
11
35.0374224
21
126.6780355
0
LINE
8
DEFAULT_255_2_778
10
35.0374224
20
126.6780355
11
35.0374224
21
127.8668355
0
LINE
8
DEFAULT_255_2_778
10
35.0374224
20
127.8668355
11
35.8050224
21
127.8668355
0
LINE
8
DEFAULT_255_2_778
10
35.8050224
20
127.8668355
11
35.8050224
21
124.6838355
0
LINE
8
DEFAULT_255_2_778
10
36.0119224
20
128.7904355
11
36.0116224
21
128.8135355
0
LINE
8
DEFAULT_255_2_778
10
36.0116224
20
128.8135355
11
36.0108224
21
128.8370355
0
LINE
8
DEFAULT_255_2_778
10
36.0108224
20
128.8370355
11
36.0098224
21
128.8603355
0
LINE
8
DEFAULT_255_2_778
10
36.0098224
20
128.8603355
11
36.0082224
21
128.8833355
0
LINE
8
DEFAULT_255_2_778
10
36.0082224
20
128.8833355
11
36.0061224
21
128.9061355
0
LINE
8
DEFAULT_255_2_778
10
36.0061224
20
128.9061355
11
36.0037224
21
128.9286355
0
LINE
8
DEFAULT_255_2_778
10
36.0037224
20
128.9286355
11
36.0005224
21
128.9508355
0
LINE
8
DEFAULT_255_2_778
10
36.0005224
20
128.9508355
11
35.9971224
21
128.9727355
0
LINE
8
DEFAULT_255_2_778
10
35.9971224
20
128.9727355
11
35.9934224
21
128.9947355
0
LINE
8
DEFAULT_255_2_778
10
35.9934224
20
128.9947355
11
35.9889224
21
129.0161355
0
LINE
8
DEFAULT_255_2_778
10
35.9889224
20
129.0161355
11
35.9841224
21
129.0373355
0
LINE
8
DEFAULT_255_2_778
10
35.9841224
20
129.0373355
11
35.9791224
21
129.0582355
0
LINE
8
DEFAULT_255_2_778
10
35.9791224
20
129.0582355
11
35.9738224
21
129.0791355
0
LINE
8
DEFAULT_255_2_778
10
35.9738224
20
129.0791355
11
35.9680224
21
129.0995355
0
LINE
8
DEFAULT_255_2_778
10
35.9680224
20
129.0995355
11
35.9677224
21
129.1000355
0
LINE
8
DEFAULT_255_2_778
10
35.9677224
20
129.1000355
11
35.9616224
21
129.1198355
0
LINE
8
DEFAULT_255_2_778
10
35.9616224
20
129.1198355
11
35.9547224
21
129.1392355
0
LINE
8
DEFAULT_255_2_778
10
35.9547224
20
129.1392355
11
35.9479224
21
129.1577355
0
LINE
8
DEFAULT_255_2_778
10
35.9479224
20
129.1577355
11
35.9407224
21
129.1759355
0
LINE
8
DEFAULT_255_2_778
10
35.9407224
20
129.1759355
11
35.9336224
21
129.1931355
0
LINE
8
DEFAULT_255_2_778
10
35.9336224
20
129.1931355
11
35.9259224
21
129.2098355
0
LINE
8
DEFAULT_255_2_778
10
35.9259224
20
129.2098355
11
35.9182224
21
129.2262355
0
LINE
8
DEFAULT_255_2_778
10
35.9182224
20
129.2262355
11
35.9106224
21
129.2421355
0
LINE
8
DEFAULT_255_2_778
10
35.9106224
20
129.2421355
11
35.9021224
21
129.2572355
0
LINE
8
DEFAULT_255_2_778
10
35.9021224
20
129.2572355
11
35.8936224
21
129.2717355
0
LINE
8
DEFAULT_255_2_778
10
35.8936224
20
129.2717355
11
35.8852224
21
129.2857355
0
LINE
8
DEFAULT_255_2_778
10
35.8852224
20
129.2857355
11
35.8759224
21
129.2990355
0
LINE
8
DEFAULT_255_2_778
10
35.8759224
20
129.2990355
11
35.8666224
21
129.3119355
0
LINE
8
DEFAULT_255_2_778
10
35.8666224
20
129.3119355
11
35.8574224
21
129.3244355
0
LINE
8
DEFAULT_255_2_778
10
35.8574224
20
129.3244355
11
35.8478224
21
129.3360355
0
LINE
8
DEFAULT_255_2_778
10
35.8478224
20
129.3360355
11
35.8381224
21
129.3474355
0
LINE
8
DEFAULT_255_2_778
10
35.8381224
20
129.3474355
11
35.8283224
21
129.3582355
0
LINE
8
DEFAULT_255_2_778
10
35.8283224
20
129.3582355
11
35.8182224
21
129.3686355
0
LINE
8
DEFAULT_255_2_778
10
35.8182224
20
129.3686355
11
35.7947224
21
129.3905355
0
LINE
8
DEFAULT_255_2_778
10
35.7947224
20
129.3905355
11
36.4778224
21
129.3903355
0
LINE
8
DEFAULT_255_2_778
10
36.4778224
20
129.3903355
11
36.4437224
21
132.0737355
0
LINE
8
DEFAULT_255_2_778
10
36.4437224
20
132.0737355
11
36.4437224
21
132.1549355
0
LINE
8
DEFAULT_255_2_778
10
36.4437224
20
132.1549355
11
28.6816224
21
132.1549355
0
LINE
8
DEFAULT_255_2_778
10
28.6816224
20
132.1549355
11
28.6816224
21
132.0737355
0
LINE
8
DEFAULT_255_2_778
10
28.6816224
20
132.0737355
11
28.6321224
21
128.1713355
0
LINE
8
DEFAULT_255_2_778
10
28.6321224
20
128.1713355
11
28.6321224
21
127.8665355
0
LINE
8
DEFAULT_255_2_778
10
28.6321224
20
127.8665355
11
30.0884224
21
127.8665355
0
LINE
8
DEFAULT_255_2_778
10
30.0884224
20
127.8665355
11
30.0884224
21
126.6780355
0
LINE
8
DEFAULT_255_2_778
10
30.0884224
20
126.6780355
11
30.1093224
21
127.0392355
0
LINE
8
DEFAULT_255_2_778
10
30.1093224
20
127.0392355
11
30.1093224
21
130.8806355
0
LINE
8
DEFAULT_255_2_778
10
30.1093224
20
130.8806355
11
30.0852224
21
128.4766355
0
LINE
8
DEFAULT_255_2_778
10
30.0852224
20
128.4766355
11
30.0887224
21
127.8670355
0
LINE
8
DEFAULT_255_2_778
10
26.3033224
20
124.6841355
11
26.3051224
21
131.9149355
0
LINE
8
DEFAULT_255_2_778
10
26.3051224
20
131.9149355
11
26.3268224
21
131.9533355
0
LINE
8
DEFAULT_255_2_778
10
26.3268224
20
131.9533355
11
26.4125224
21
132.0147355
0
LINE
8
DEFAULT_255_2_778
10
26.4125224
20
132.0147355
11
26.6237224
21
132.0784355
0
LINE
8
DEFAULT_255_2_778
10
26.6237224
20
132.0784355
11
26.8054224
21
132.1033355
0
LINE
8
DEFAULT_255_2_778
10
26.8054224
20
132.1033355
11
26.6194224
21
132.1221355
0
LINE
8
DEFAULT_255_2_778
10
26.6194224
20
132.1221355
11
26.4604224
21
132.1684355
0
LINE
8
DEFAULT_255_2_778
10
26.4604224
20
132.1684355
11
26.3123224
21
132.2411355
0
LINE
8
DEFAULT_255_2_778
10
26.3123224
20
132.2411355
11
26.1850224
21
132.3324355
0
LINE
8
DEFAULT_255_2_778
10
26.1850224
20
132.3324355
11
26.0887224
21
132.4256355
0
LINE
8
DEFAULT_255_2_778
10
26.0887224
20
132.4256355
11
26.0112224
21
132.5227355
0
LINE
8
DEFAULT_255_2_778
10
26.0112224
20
132.5227355
11
25.9572224
21
132.6086355
0
LINE
8
DEFAULT_255_2_778
10
25.9572224
20
132.6086355
11
25.9119224
21
132.6994355
0
LINE
8
DEFAULT_255_2_778
10
25.9119224
20
132.6994355
11
25.8868224
21
132.7621355
0
LINE
8
DEFAULT_255_2_778
10
25.8868224
20
132.7621355
11
25.8656224
21
132.8267355
0
LINE
8
DEFAULT_255_2_778
10
25.8656224
20
132.8267355
11
25.8487224
21
132.8931355
0
LINE
8
DEFAULT_255_2_778
10
25.8487224
20
132.8931355
11
25.8379224
21
132.9497355
0
LINE
8
DEFAULT_255_2_778
10
25.8379224
20
132.9497355
11
25.8328224
21
132.9836355
0
LINE
8
DEFAULT_255_2_778
10
25.8328224
20
132.9836355
11
25.8289224
21
133.0177355
0
LINE
8
DEFAULT_255_2_778
10
25.8289224
20
133.0177355
11
25.8262224
21
133.0516355
0
LINE
8
DEFAULT_255_2_778
10
25.8262224
20
133.0516355
11
25.8238224
21
133.1193355
0
LINE
8
DEFAULT_255_2_778
10
25.8122224
20
124.6846355
11
25.8122224
21
131.8998355
0
LINE
8
DEFAULT_255_2_778
10
25.8122224
20
131.8998355
11
28.1551224
21
131.9051355
0
LINE
8
DEFAULT_255_2_778
10
28.1551224
20
131.9051355
11
28.1853224
21
131.9366355
0
LINE
8
DEFAULT_255_2_778
10
28.1853224
20
131.9366355
11
28.1551224
21
129.5363355
0
LINE
8
DEFAULT_255_2_778
10
28.1551224
20
129.5363355
11
28.1551224
21
131.9051355
0
LINE
8
DEFAULT_255_2_778
10
27.9588224
20
132.1083355
11
27.9892224
21
132.1398355
0
LINE
8
DEFAULT_255_2_778
10
28.1853224
20
131.9366355
11
28.1861224
21
131.9406355
0
LINE
8
DEFAULT_255_2_778
10
28.1861224
20
131.9406355
11
28.2072224
21
131.9739355
0
LINE
8
DEFAULT_255_2_778
10
28.2072224
20
131.9739355
11
28.3199224
21
132.0287355
0
LINE
8
DEFAULT_255_2_778
10
28.3199224
20
132.0287355
11
28.6136224
21
132.0723355
0
LINE
8
DEFAULT_255_2_778
10
28.6136224
20
132.0723355
11
36.6162224
21
132.0647355
0
LINE
8
DEFAULT_255_2_778
10
36.6162224
20
132.0647355
11
36.9030224
21
131.9863355
0
LINE
8
DEFAULT_255_2_778
10
36.9030224
20
131.9863355
11
36.9387224
21
131.9445355
0
LINE
8
DEFAULT_255_2_778
10
36.9387224
20
131.9445355
11
36.9403224
21
131.9366355
0
LINE
8
DEFAULT_255_2_778
10
37.1364224
20
132.1398355
11
37.1718224
21
132.1030355
0
LINE
8
DEFAULT_255_2_778
10
37.1718224
20
132.1030355
11
37.1718224
21
124.6841355
0
LINE
8
DEFAULT_255_2_778
10
39.3343224
20
124.6817355
11
39.3343224
21
131.8977355
0
LINE
8
DEFAULT_255_2_778
10
39.3343224
20
131.8977355
11
39.3001224
21
133.9257355
0
LINE
8
DEFAULT_255_2_778
10
39.3001224
20
133.9257355
11
39.3001224
21
134.7205355
0
LINE
8
DEFAULT_255_2_778
10
39.3001224
20
134.7205355
11
39.1678224
21
134.5364355
0
LINE
8
DEFAULT_255_2_778
10
39.1678224
20
134.5364355
11
39.1670224
21
134.5724355
0
LINE
8
DEFAULT_255_2_778
10
39.1670224
20
134.5724355
11
39.1649224
21
134.6086355
0
LINE
8
DEFAULT_255_2_778
10
39.1649224
20
134.6086355
11
39.1618224
21
134.6451355
0
LINE
8
DEFAULT_255_2_778
10
39.1618224
20
134.6451355
11
39.1570224
21
134.6817355
0
LINE
8
DEFAULT_255_2_778
10
39.1570224
20
134.6817355
11
39.1512224
21
134.7182355
0
LINE
8
DEFAULT_255_2_778
10
39.1512224
20
134.7182355
11
39.1440224
21
134.7541355
0
LINE
8
DEFAULT_255_2_778
10
39.1440224
20
134.7541355
11
39.1369224
21
134.7859355
0
LINE
8
DEFAULT_255_2_778
10
39.1369224
20
134.7859355
11
39.1274224
21
134.8216355
0
LINE
8
DEFAULT_255_2_778
10
39.1274224
20
134.8216355
11
39.1168224
21
134.8568355
0
LINE
8
DEFAULT_255_2_778
10
39.1168224
20
134.8568355
11
39.1049224
21
134.8917355
0
LINE
8
DEFAULT_255_2_778
10
39.1049224
20
134.8917355
11
39.0919224
21
134.9256355
0
LINE
8
DEFAULT_255_2_778
10
39.0919224
20
134.9256355
11
39.0776224
21
134.9592355
0
LINE
8
DEFAULT_255_2_778
10
39.0776224
20
134.9592355
11
39.0623224
21
134.9917355
0
LINE
8
DEFAULT_255_2_778
10
39.0623224
20
134.9917355
11
39.0461224
21
135.0240355
0
LINE
8
DEFAULT_255_2_778
10
39.0461224
20
135.0240355
11
39.0289224
21
135.0555355
0
LINE
8
DEFAULT_255_2_778
10
39.0289224
20
135.0555355
11
39.0104224
21
135.0865355
0
LINE
8
DEFAULT_255_2_778
10
39.0104224
20
135.0865355
11
38.9908224
21
135.1169355
0
LINE
8
DEFAULT_255_2_778
10
38.9908224
20
135.1169355
11
38.9699224
21
135.1465355
0
LINE
8
DEFAULT_255_2_778
10
38.9699224
20
135.1465355
11
38.9482224
21
135.1756355
0
LINE
8
DEFAULT_255_2_778
10
38.9482224
20
135.1756355
11
38.9252224
21
135.2037355
0
LINE
8
DEFAULT_255_2_778
10
38.9252224
20
135.2037355
11
38.9038224
21
135.2283355
0
LINE
8
DEFAULT_255_2_778
10
38.9038224
20
135.2283355
11
38.8792224
21
135.2547355
0
LINE
8
DEFAULT_255_2_778
10
38.8792224
20
135.2547355
11
38.8535224
21
135.2801355
0
LINE
8
DEFAULT_255_2_778
10
38.8535224
20
135.2801355
11
38.8271224
21
135.3047355
0
LINE
8
DEFAULT_255_2_778
10
38.8271224
20
135.3047355
11
38.8001224
21
135.3283355
0
LINE
8
DEFAULT_255_2_778
10
38.8001224
20
135.3283355
11
38.7723224
21
135.3508355
0
LINE
8
DEFAULT_255_2_778
10
38.7723224
20
135.3508355
11
38.7434224
21
135.3720355
0
LINE
8
DEFAULT_255_2_778
10
38.7434224
20
135.3720355
11
38.7141224
21
135.3923355
0
LINE
8
DEFAULT_255_2_778
10
38.7141224
20
135.3923355
11
38.6839224
21
135.4114355
0
LINE
8
DEFAULT_255_2_778
10
38.6839224
20
135.4114355
11
38.6532224
21
135.4296355
0
LINE
8
DEFAULT_255_2_778
10
38.6532224
20
135.4296355
11
38.6217224
21
135.4463355
0
LINE
8
DEFAULT_255_2_778
10
38.6217224
20
135.4463355
11
38.5926224
21
135.4606355
0
LINE
8
DEFAULT_255_2_778
10
38.5926224
20
135.4606355
11
38.5601224
21
135.4754355
0
LINE
8
DEFAULT_255_2_778
10
38.5601224
20
135.4754355
11
38.5270224
21
135.4886355
0
LINE
8
DEFAULT_255_2_778
10
38.5270224
20
135.4886355
11
38.4934224
21
135.5008355
0
LINE
8
DEFAULT_255_2_778
10
38.4934224
20
135.5008355
11
38.4596224
21
135.5117355
0
LINE
8
DEFAULT_255_2_778
10
38.4596224
20
135.5117355
11
38.4257224
21
135.5212355
0
LINE
8
DEFAULT_255_2_778
10
38.4257224
20
135.5212355
11
38.3915224
21
135.5294355
0
LINE
8
DEFAULT_255_2_778
10
38.3915224
20
135.5294355
11
38.3572224
21
135.5363355
0
LINE
8
DEFAULT_255_2_778
10
38.3572224
20
135.5363355
11
38.3228224
21
135.5421355
0
LINE
8
DEFAULT_255_2_778
10
38.3228224
20
135.5421355
11
38.2876224
21
135.5466355
0
LINE
8
DEFAULT_255_2_778
10
38.2876224
20
135.5466355
11
38.2524224
21
135.5498355
0
LINE
8
DEFAULT_255_2_778
10
38.2524224
20
135.5498355
11
38.2169224
21
135.5516355
0
LINE
8
DEFAULT_255_2_778
10
38.2169224
20
135.5516355
11
38.1815224
21
135.5521355
0
LINE
8
DEFAULT_255_2_778
10
38.1815224
20
135.5521355
11
38.1458224
21
135.5513355
0
LINE
8
DEFAULT_255_2_778
10
38.1458224
20
135.5513355
11
38.1143224
21
135.5495355
0
LINE
8
DEFAULT_255_2_778
10
38.1143224
20
135.5495355
11
38.0788224
21
135.5460355
0
LINE
8
DEFAULT_255_2_778
10
38.0788224
20
135.5460355
11
38.0434224
21
135.5416355
0
LINE
8
DEFAULT_255_2_778
10
38.0434224
20
135.5416355
11
38.0084224
21
135.5357355
0
LINE
8
DEFAULT_255_2_778
10
38.0084224
20
135.5357355
11
37.9740224
21
135.5286355
0
LINE
8
DEFAULT_255_2_778
10
37.9740224
20
135.5286355
11
37.9399224
21
135.5201355
0
LINE
8
DEFAULT_255_2_778
10
37.9399224
20
135.5201355
11
37.9060224
21
135.5106355
0
LINE
8
DEFAULT_255_2_778
10
27.2171224
20
135.5106355
11
26.9380224
21
134.5369355
0
LINE
8
DEFAULT_255_2_778
10
26.9380224
20
134.5369355
11
26.9380224
21
132.2401355
0
LINE
8
DEFAULT_255_2_778
10
26.9380224
20
132.2401355
11
26.8041224
21
132.1014355
0
LINE
8
DEFAULT_255_2_778
10
26.8041224
20
132.1014355
11
27.6635224
21
132.1014355
0
LINE
8
DEFAULT_255_2_778
10
27.6635224
20
132.1014355
11
27.6635224
21
129.5347355
0
LINE
8
DEFAULT_255_2_778
10
27.6635224
20
129.5347355
11
28.1540224
21
129.5347355
0
LINE
8
DEFAULT_255_2_778
10
28.1540224
20
129.5347355
11
28.1540224
21
129.4731355
0
LINE
8
DEFAULT_255_2_778
10
28.1540224
20
129.4731355
11
28.1551224
21
129.4074355
0
LINE
8
DEFAULT_255_2_778
10
28.1551224
20
129.4074355
11
28.1575224
21
129.3424355
0
LINE
8
DEFAULT_255_2_778
10
28.1575224
20
129.3424355
11
28.1609224
21
129.2783355
0
LINE
8
DEFAULT_255_2_778
10
28.1609224
20
129.2783355
11
28.1654224
21
129.2148355
0
LINE
8
DEFAULT_255_2_778
10
28.1654224
20
129.2148355
11
28.1710224
21
129.1521355
0
LINE
8
DEFAULT_255_2_778
10
28.1710224
20
129.1521355
11
28.1720224
21
129.1394355
0
LINE
8
DEFAULT_255_2_778
10
28.1720224
20
129.1394355
11
28.1789224
21
129.0788355
0
LINE
8
DEFAULT_255_2_778
10
28.1789224
20
129.0788355
11
28.1866224
21
129.0196355
0
LINE
8
DEFAULT_255_2_778
10
28.1866224
20
129.0196355
11
28.1950224
21
128.9619355
0
LINE
8
DEFAULT_255_2_778
10
28.1950224
20
128.9619355
11
28.2001224
21
128.9317355
0
LINE
8
DEFAULT_255_2_778
10
28.2001224
20
128.9317355
11
28.2096224
21
128.8772355
0
LINE
8
DEFAULT_255_2_778
10
28.2096224
20
128.8772355
11
28.2202224
21
128.8248355
0
LINE
8
DEFAULT_255_2_778
10
28.2202224
20
128.8248355
11
28.2313224
21
128.7740355
0
LINE
8
DEFAULT_255_2_778
10
28.2313224
20
128.7740355
11
28.2323224
21
128.7695355
0
LINE
8
DEFAULT_255_2_778
10
28.2323224
20
128.7695355
11
28.2443224
21
128.7214355
0
LINE
8
DEFAULT_255_2_778
10
28.2443224
20
128.7214355
11
28.2567224
21
128.6756355
0
LINE
8
DEFAULT_255_2_778
10
28.2567224
20
128.6756355
11
28.2697224
21
128.6314355
0
LINE
8
DEFAULT_255_2_778
10
28.2697224
20
128.6314355
11
28.2832224
21
128.5894355
0
LINE
8
DEFAULT_255_2_778
10
28.2832224
20
128.5894355
11
28.2847224
21
128.5843355
0
LINE
8
DEFAULT_255_2_778
10
28.2847224
20
128.5843355
11
28.2982224
21
128.5454355
0
LINE
8
DEFAULT_255_2_778
10
28.2982224
20
128.5454355
11
28.3120224
21
128.5089355
0
LINE
8
DEFAULT_255_2_778
10
28.3120224
20
128.5089355
11
28.3263224
21
128.4748355
0
LINE
8
DEFAULT_255_2_778
10
28.3263224
20
128.4748355
11
28.3408224
21
128.4425355
0
LINE
8
DEFAULT_255_2_778
10
28.3408224
20
128.4425355
11
28.3556224
21
128.4118355
0
LINE
8
DEFAULT_255_2_778
10
28.3556224
20
128.4118355
11
28.3591224
21
128.4049355
0
LINE
8
DEFAULT_255_2_778
10
28.3591224
20
128.4049355
11
28.3739224
21
128.3774355
0
LINE
8
DEFAULT_255_2_778
10
28.3739224
20
128.3774355
11
28.3887224
21
128.3523355
0
LINE
8
DEFAULT_255_2_778
10
28.3887224
20
128.3523355
11
28.4035224
21
128.3287355
0
LINE
8
DEFAULT_255_2_778
10
28.4035224
20
128.3287355
11
28.4184224
21
128.3076355
0
LINE
8
DEFAULT_255_2_778
10
28.4184224
20
128.3076355
11
28.4332224
21
128.2880355
0
LINE
8
DEFAULT_255_2_778
10
28.4332224
20
128.2880355
11
28.4482224
21
128.2700355
0
LINE
8
DEFAULT_255_2_778
10
28.4482224
20
128.2700355
11
28.4633224
21
128.2536355
0
LINE
8
DEFAULT_255_2_778
10
28.4633224
20
128.2536355
11
28.4678224
21
128.2491355
0
LINE
8
DEFAULT_255_2_778
10
28.4678224
20
128.2491355
11
28.4824224
21
128.2351355
0
LINE
8
DEFAULT_255_2_778
10
28.4824224
20
128.2351355
11
28.4967224
21
128.2229355
0
LINE
8
DEFAULT_255_2_778
10
28.4967224
20
128.2229355
11
28.5109224
21
128.2121355
0
LINE
8
DEFAULT_255_2_778
10
28.5109224
20
128.2121355
11
28.5250224
21
128.2025355
0
LINE
8
DEFAULT_255_2_778
10
28.5250224
20
128.2025355
11
28.5390224
21
128.1946355
0
LINE
8
DEFAULT_255_2_778
10
28.5390224
20
128.1946355
11
28.5461224
21
128.1909355
0
LINE
8
DEFAULT_255_2_778
10
28.5461224
20
128.1909355
11
28.5607224
21
128.1845355
0
LINE
8
DEFAULT_255_2_778
10
28.5607224
20
128.1845355
11
28.5753224
21
128.1793355
0
LINE
8
DEFAULT_255_2_778
10
28.5753224
20
128.1793355
11
28.5895224
21
128.1753355
0
LINE
8
DEFAULT_255_2_778
10
28.5895224
20
128.1753355
11
28.6038224
21
128.1724355
0
LINE
8
DEFAULT_255_2_778
10
28.6038224
20
128.1724355
11
28.6178224
21
128.1708355
0
LINE
8
DEFAULT_255_2_778
10
28.6178224
20
128.1708355
11
28.6313224
21
128.1703355
0
LINE
8
DEFAULT_255_2_778
10
28.6313224
20
128.1703355
11
29.5936224
21
128.1703355
0
LINE
8
DEFAULT_255_2_778
10
29.5936224
20
128.1703355
11
29.5624224
21
130.6314355
0
LINE
8
DEFAULT_255_2_778
10
29.5624224
20
130.6314355
11
29.5624224
21
130.6555355
0
LINE
8
DEFAULT_255_2_778
10
29.5624224
20
130.6555355
11
29.5632224
21
130.6796355
0
LINE
8
DEFAULT_255_2_778
10
29.5632224
20
130.6796355
11
29.5648224
21
130.7036355
0
LINE
8
DEFAULT_255_2_778
10
29.5648224
20
130.7036355
11
29.5661224
21
130.7174355
0
LINE
8
DEFAULT_255_2_778
10
29.5661224
20
130.7174355
11
29.5688224
21
130.7415355
0
LINE
8
DEFAULT_255_2_778
10
29.5688224
20
130.7415355
11
29.5725224
21
130.7656355
0
LINE
8
DEFAULT_255_2_778
10
29.5725224
20
130.7656355
11
29.5770224
21
130.7894355
0
LINE
8
DEFAULT_255_2_778
10
29.5770224
20
130.7894355
11
29.5820224
21
130.8129355
0
LINE
8
DEFAULT_255_2_778
10
29.5820224
20
130.8129355
11
29.5878224
21
130.8362355
0
LINE
8
DEFAULT_255_2_778
10
29.5878224
20
130.8362355
11
29.5944224
21
130.8592355
0
LINE
8
DEFAULT_255_2_778
10
29.5944224
20
130.8592355
11
29.6016224
21
130.8817355
0
LINE
8
DEFAULT_255_2_778
10
29.6016224
20
130.8817355
11
29.6095224
21
130.9042355
0
LINE
8
DEFAULT_255_2_778
10
29.6095224
20
130.9042355
11
29.6182224
21
130.9264355
0
LINE
8
DEFAULT_255_2_778
10
29.6182224
20
130.9264355
11
29.6278224
21
130.9481355
0
LINE
8
DEFAULT_255_2_778
10
29.6278224
20
130.9481355
11
29.6378224
21
130.9695355
0
LINE
8
DEFAULT_255_2_778
10
29.6378224
20
130.9695355
11
29.6394224
21
130.9725355
0
LINE
8
DEFAULT_255_2_778
10
29.6394224
20
130.9725355
11
29.6505224
21
130.9936355
0
LINE
8
DEFAULT_255_2_778
10
29.6505224
20
130.9936355
11
29.6622224
21
131.0143355
0
LINE
8
DEFAULT_255_2_778
10
29.6622224
20
131.0143355
11
29.6743224
21
131.0346355
0
LINE
8
DEFAULT_255_2_778
10
29.6743224
20
131.0346355
11
29.6873224
21
131.0545355
0
LINE
8
DEFAULT_255_2_778
10
29.6873224
20
131.0545355
11
29.7008224
21
131.0738355
0
LINE
8
DEFAULT_255_2_778
10
29.7008224
20
131.0738355
11
29.7148224
21
131.0926355
0
LINE
8
DEFAULT_255_2_778
10
29.7148224
20
131.0926355
11
29.7296224
21
131.1108355
0
LINE
8
DEFAULT_255_2_778
10
29.7296224
20
131.1108355
11
29.7450224
21
131.1286355
0
LINE
8
DEFAULT_255_2_778
10
29.7450224
20
131.1286355
11
29.7608224
21
131.1458355
0
LINE
8
DEFAULT_255_2_778
10
29.7608224
20
131.1458355
11
29.7772224
21
131.1622355
0
LINE
8
DEFAULT_255_2_778
10
29.7772224
20
131.1622355
11
29.7944224
21
131.1783355
0
LINE
8
DEFAULT_255_2_778
10
29.7944224
20
131.1783355
11
29.7974224
21
131.1810355
0
LINE
8
DEFAULT_255_2_778
10
29.7974224
20
131.1810355
11
29.8148224
21
131.1963355
0
LINE
8
DEFAULT_255_2_778
10
29.8148224
20
131.1963355
11
29.8328224
21
131.2109355
0
LINE
8
DEFAULT_255_2_778
10
29.8328224
20
131.2109355
11
29.8513224
21
131.2249355
0
LINE
8
DEFAULT_255_2_778
10
29.8513224
20
131.2249355
11
29.8704224
21
131.2384355
0
LINE
8
DEFAULT_255_2_778
10
29.8704224
20
131.2384355
11
29.8897224
21
131.2511355
0
LINE
8
DEFAULT_255_2_778
10
29.8897224
20
131.2511355
11
29.9093224
21
131.2630355
0
LINE
8
DEFAULT_255_2_778
10
29.9093224
20
131.2630355
11
29.9291224
21
131.2741355
0
LINE
8
DEFAULT_255_2_778
10
29.9291224
20
131.2741355
11
29.9492224
21
131.2844355
0
LINE
8
DEFAULT_255_2_778
10
29.9492224
20
131.2844355
11
29.9699224
21
131.2942355
0
LINE
8
DEFAULT_255_2_778
10
29.9699224
20
131.2942355
11
29.9908224
21
131.3032355
0
LINE
8
DEFAULT_255_2_778
10
29.9908224
20
131.3032355
11
30.0122224
21
131.3117355
0
LINE
8
DEFAULT_255_2_778
10
30.0122224
20
131.3117355
11
30.0339224
21
131.3191355
0
LINE
8
DEFAULT_255_2_778
10
30.0339224
20
131.3191355
11
30.0561224
21
131.3259355
0
LINE
8
DEFAULT_255_2_778
10
30.0561224
20
131.3259355
11
30.0783224
21
131.3320355
0
LINE
8
DEFAULT_255_2_778
10
30.0783224
20
131.3320355
11
30.1008224
21
131.3376355
0
LINE
8
DEFAULT_255_2_778
10
30.1008224
20
131.3376355
11
30.1037224
21
131.3384355
0
LINE
8
DEFAULT_255_2_778
10
30.1037224
20
131.3384355
11
30.1265224
21
131.3429355
0
LINE
8
DEFAULT_255_2_778
10
30.1265224
20
131.3429355
11
30.1493224
21
131.3466355
0
LINE
8
DEFAULT_255_2_778
10
30.1493224
20
131.3466355
11
30.1720224
21
131.3495355
0
LINE
8
DEFAULT_255_2_778
10
30.1720224
20
131.3495355
11
30.1948224
21
131.3513355
0
LINE
8
DEFAULT_255_2_778
10
30.1948224
20
131.3513355
11
30.2175224
21
131.3527355
0
LINE
8
DEFAULT_255_2_778
10
30.2175224
20
131.3527355
11
30.2403224
21
131.3529355
0
ARC
8
DEFAULT_255_2_778
10
12.8383018
20
74.7146222
40
1.431031
50
269.9933249
51
305.8163627
0
ARC
8
DEFAULT_255_2_778
10
12.7811654
20
74.7917997
40
1.5270501
50
305.8601991
51
346.3372388
0
ARC
8
DEFAULT_255_2_778
10
12.7335146
20
74.8060523
40
1.5767211
50
346.2429784
51
0.0450182
0
ARC
8
DEFAULT_255_2_778
10
12.7499266
20
105.793209
40
1.5603119
50
359.8818398
51
26.2618566
0
ARC
8
DEFAULT_255_2_778
10
12.8269886
20
105.8458754
40
1.4679592
50
25.7492836
51
89.0425143
0
ARC
8
DEFAULT_255_2_778
10
12.838142
20
105.86121
40
1.4524811
50
89.4723155
51
90.000272
0
ARC
8
DEFAULT_255_2_778
10
3.0242684
20
105.8826602
40
1.431031
50
89.9933249
51
125.8163627
0
ARC
8
DEFAULT_255_2_778
10
3.0814048
20
105.8054827
40
1.5270501
50
125.8601991
51
166.3372388
0
ARC
8
DEFAULT_255_2_778
10
3.1290556
20
105.79123
40
1.5767211
50
166.2429784
51
180.0450182
0
ARC
8
DEFAULT_255_2_778
10
3.1126437
20
74.8040734
40
1.5603119
50
179.8818398
51
206.2618566
0
ARC
8
DEFAULT_255_2_778
10
3.0355816
20
74.7514069
40
1.4679592
50
205.7492836
51
269.0425143
0
ARC
8
DEFAULT_255_2_778
10
3.0244282
20
74.7360724
40
1.4524811
50
269.4723155
51
270.000272
0
ARC
8
DEFAULT_255_2_778
10
10.4845589
20
112.5662344
40
6.0735401
50
297.9532323
51
305.0511105
0
ARC
8
DEFAULT_255_2_778
10
12.8089557
20
105.8814196
40
1.9006694
50
24.0494956
51
30.9597219
0
ARC
8
DEFAULT_255_2_778
10
12.860587
20
74.9942704
40
1.8423816
50
328.8444988
51
337.6066546
0
ARC
8
DEFAULT_255_2_778
10
0.3781046
20
108.1233601
40
0.199799
50
179.0160337
51
269.0050055
0
ARC
8
DEFAULT_255_2_778
10
12.9376314
20
106.0228815
40
1.9007103
50
62.3744786
51
90.0481207
0
ARC
8
DEFAULT_255_2_778
10
12.8760519
20
105.9239461
40
2.0169395
50
18.9976137
51
62.1277935
0
ARC
8
DEFAULT_255_2_778
10
12.8065122
20
105.894679
40
2.0922248
50
359.9236562
51
19.1355192
0
ARC
8
DEFAULT_255_2_778
10
12.8120304
20
75.0075366
40
2.0867075
50
337.8750092
51
0.0948546
0
ARC
8
DEFAULT_255_2_778
10
12.9114995
20
74.9501202
40
1.973001
50
276.73917
51
338.3316838
0
ARC
8
DEFAULT_255_2_778
10
12.9363616
20
74.8987573
40
1.9191661
50
269.9902539
51
276.1819912
0
ARC
8
DEFAULT_255_2_778
10
0.3781695
20
72.7797597
40
0.1998628
50
91.0132684
51
180.9657124
0
LINE
8
DEFAULT_255_2_778
10
11.8435351
20
73.2774912
11
11.8499351
21
72.9676912
0
LINE
8
DEFAULT_255_2_778
10
10.9013351
20
73.2800912
11
10.9077351
21
72.9662912
0
LINE
8
DEFAULT_255_2_778
10
11.5295351
20
73.2708912
11
11.5355351
21
72.9760912
0
LINE
8
DEFAULT_255_2_778
10
12.4716351
20
73.2710912
11
12.4780351
21
72.9726912
0
LINE
8
DEFAULT_255_2_778
10
10.2735351
20
73.2721912
11
10.2798351
21
72.9676912
0
LINE
8
DEFAULT_255_2_778
10
11.2157351
20
73.2734912
11
11.2220351
21
72.9662912
0
LINE
8
DEFAULT_255_2_778
10
12.1576351
20
73.2771912
11
12.1639351
21
72.9646912
0
LINE
8
DEFAULT_255_2_778
10
9.9592351
20
73.2821912
11
9.9658351
21
72.9654912
0
LINE
8
DEFAULT_255_2_778
10
10.5875351
20
73.2723912
11
10.5936351
21
72.9750912
0
LINE
8
DEFAULT_255_2_778
10
12.5925351
20
72.9792912
11
12.5925351
21
73.2837912
0
LINE
8
DEFAULT_255_2_778
10
9.6485351
20
72.9789912
11
9.6485351
21
73.2835912
0
LINE
8
DEFAULT_255_2_778
10
9.6485351
20
73.2835912
11
12.8381351
21
73.2835912
0
LINE
8
DEFAULT_255_2_778
10
14.3102351
20
74.8072912
11
14.3102351
21
105.7899912
0
LINE
8
DEFAULT_255_2_778
10
12.8381351
20
107.3136912
11
9.6485351
21
107.3136912
0
LINE
8
DEFAULT_255_2_778
10
9.6485351
20
107.3136912
11
9.6485351
21
107.9230912
0
LINE
8
DEFAULT_255_2_778
10
6.2137351
20
107.9230912
11
6.2137351
21
107.3136912
0
LINE
8
DEFAULT_255_2_778
10
6.2137351
20
107.3136912
11
3.0244351
21
107.3136912
0
LINE
8
DEFAULT_255_2_778
10
1.5523351
20
105.7899912
11
1.5523351
21
74.8072912
0
LINE
8
DEFAULT_255_2_778
10
3.0244351
20
73.2835912
11
6.2137351
21
73.2835912
0
LINE
8
DEFAULT_255_2_778
10
6.2137351
20
73.2835912
11
6.2137351
21
72.9789912
0
LINE
8
DEFAULT_255_2_778
10
12.9360351
20
72.9789912
11
12.9328351
21
72.9591912
0
LINE
8
DEFAULT_255_2_778
10
12.9328351
20
72.9591912
11
12.9304351
21
72.9019912
0
LINE
8
DEFAULT_255_2_778
10
12.9304351
20
72.9019912
11
12.9291351
21
72.7757912
0
LINE
8
DEFAULT_255_2_778
10
12.9360351
20
107.9232912
11
12.9328351
21
107.9431912
0
LINE
8
DEFAULT_255_2_778
10
12.9328351
20
107.9431912
11
12.9304351
21
108.0002912
0
LINE
8
DEFAULT_255_2_778
10
12.9304351
20
108.0002912
11
12.9291351
21
108.1264912
0
LINE
8
DEFAULT_255_2_778
10
14.7060351
20
105.8915912
11
14.7058351
21
105.9248912
0
LINE
8
DEFAULT_255_2_778
10
14.7058351
20
105.9248912
11
14.7050351
21
105.9582912
0
LINE
8
DEFAULT_255_2_778
10
14.7050351
20
105.9582912
11
14.7034351
21
105.9915912
0
LINE
8
DEFAULT_255_2_778
10
14.7034351
20
105.9915912
11
14.7013351
21
106.0248912
0
LINE
8
DEFAULT_255_2_778
10
14.7013351
20
106.0248912
11
14.6986351
21
106.0587912
0
LINE
8
DEFAULT_255_2_778
10
14.6986351
20
106.0587912
11
14.6952351
21
106.0923912
0
LINE
8
DEFAULT_255_2_778
10
14.6952351
20
106.0923912
11
14.6912351
21
106.1262912
0
LINE
8
DEFAULT_255_2_778
10
14.6912351
20
106.1262912
11
14.6867351
21
106.1598912
0
LINE
8
DEFAULT_255_2_778
10
14.6867351
20
106.1598912
11
14.6814351
21
106.1937912
0
LINE
8
DEFAULT_255_2_778
10
14.6814351
20
106.1937912
11
14.6756351
21
106.2273912
0
LINE
8
DEFAULT_255_2_778
10
14.6756351
20
106.2273912
11
14.6693351
21
106.2609912
0
LINE
8
DEFAULT_255_2_778
10
14.6693351
20
106.2609912
11
14.6671351
21
106.2717912
0
LINE
8
DEFAULT_255_2_778
10
14.6671351
20
106.2717912
11
14.6600351
21
106.3050912
0
LINE
8
DEFAULT_255_2_778
10
14.6600351
20
106.3050912
11
14.6523351
21
106.3384912
0
LINE
8
DEFAULT_255_2_778
10
14.6523351
20
106.3384912
11
14.6441351
21
106.3715912
0
LINE
8
DEFAULT_255_2_778
10
14.6441351
20
106.3715912
11
14.6351351
21
106.4043912
0
LINE
8
DEFAULT_255_2_778
10
14.6351351
20
106.4043912
11
14.6256351
21
106.4368912
0
LINE
8
DEFAULT_255_2_778
10
14.6256351
20
106.4368912
11
14.6156351
21
106.4691912
0
LINE
8
DEFAULT_255_2_778
10
14.6156351
20
106.4691912
11
14.6050351
21
106.5011912
0
LINE
8
DEFAULT_255_2_778
10
14.6050351
20
106.5011912
11
14.5939351
21
106.5328912
0
LINE
8
DEFAULT_255_2_778
10
14.5939351
20
106.5328912
11
14.5822351
21
106.5641912
0
LINE
8
DEFAULT_255_2_778
10
14.5822351
20
106.5641912
11
14.5703351
21
106.5950912
0
LINE
8
DEFAULT_255_2_778
10
14.5703351
20
106.5950912
11
14.5576351
21
106.6257912
0
LINE
8
DEFAULT_255_2_778
10
14.5576351
20
106.6257912
11
14.5446351
21
106.6559912
0
LINE
8
DEFAULT_255_2_778
10
14.4388351
20
106.8591912
11
14.3706351
21
106.9641912
0
LINE
8
DEFAULT_255_2_778
10
14.3706351
20
73.9380912
11
14.4372351
21
74.0410912
0
LINE
8
DEFAULT_255_2_778
10
14.5640351
20
74.2923912
11
14.5759351
21
74.3217912
0
LINE
8
DEFAULT_255_2_778
10
14.5759351
20
74.3217912
11
14.5872351
21
74.3518912
0
LINE
8
DEFAULT_255_2_778
10
14.5872351
20
74.3518912
11
14.5984351
21
74.3823912
0
LINE
8
DEFAULT_255_2_778
10
14.5984351
20
74.3823912
11
14.6089351
21
74.4127912
0
LINE
8
DEFAULT_255_2_778
10
14.6089351
20
74.4127912
11
14.6190351
21
74.4439912
0
LINE
8
DEFAULT_255_2_778
10
14.6190351
20
74.4439912
11
14.6285351
21
74.4751912
0
LINE
8
DEFAULT_255_2_778
10
14.6285351
20
74.4751912
11
14.6375351
21
74.5066912
0
LINE
8
DEFAULT_255_2_778
10
14.6375351
20
74.5066912
11
14.6460351
21
74.5384912
0
LINE
8
DEFAULT_255_2_778
10
14.6460351
20
74.5384912
11
14.6539351
21
74.5701912
0
LINE
8
DEFAULT_255_2_778
10
14.6539351
20
74.5701912
11
14.6613351
21
74.6024912
0
LINE
8
DEFAULT_255_2_778
10
14.6613351
20
74.6024912
11
14.6682351
21
74.6347912
0
LINE
8
DEFAULT_255_2_778
10
14.6682351
20
74.6347912
11
14.6719351
21
74.6532912
0
LINE
8
DEFAULT_255_2_778
10
14.6719351
20
74.6532912
11
14.6777351
21
74.6858912
0
LINE
8
DEFAULT_255_2_778
10
14.6777351
20
74.6858912
11
14.6830351
21
74.7183912
0
LINE
8
DEFAULT_255_2_778
10
14.6830351
20
74.7183912
11
14.6880351
21
74.7508912
0
LINE
8
DEFAULT_255_2_778
10
14.6880351
20
74.7508912
11
14.6923351
21
74.7834912
0
LINE
8
DEFAULT_255_2_778
10
14.6923351
20
74.7834912
11
14.6960351
21
74.8162912
0
LINE
8
DEFAULT_255_2_778
10
14.6960351
20
74.8162912
11
14.6992351
21
74.8487912
0
LINE
8
DEFAULT_255_2_778
10
14.6992351
20
74.8487912
11
14.7018351
21
74.8813912
0
LINE
8
DEFAULT_255_2_778
10
14.7018351
20
74.8813912
11
14.7039351
21
74.9138912
0
LINE
8
DEFAULT_255_2_778
10
14.7039351
20
74.9138912
11
14.7052351
21
74.9464912
0
LINE
8
DEFAULT_255_2_778
10
14.7052351
20
74.9464912
11
14.7060351
21
74.9786912
0
LINE
8
DEFAULT_255_2_778
10
14.7060351
20
74.9786912
11
14.7063351
21
75.0109912
0
LINE
8
DEFAULT_255_2_778
10
15.0886351
20
105.8918912
11
15.0886351
21
75.0109912
0
LINE
8
DEFAULT_255_2_778
10
15.0886351
20
75.0109912
11
14.7063351
21
75.0109912
0
LINE
8
DEFAULT_255_2_778
10
14.7063351
20
75.0109912
11
14.7063351
21
105.8912912
0
LINE
8
DEFAULT_255_2_778
10
14.7063351
20
105.8912912
11
15.0886351
21
105.8912912
0
LINE
8
DEFAULT_255_2_778
10
15.0886351
20
105.8912912
11
15.0884351
21
105.9188912
0
LINE
8
DEFAULT_255_2_778
10
15.0884351
20
105.9188912
11
15.0862351
21
105.9926912
0
LINE
8
DEFAULT_255_2_778
10
15.0862351
20
105.9926912
11
15.0818351
21
106.0667912
0
LINE
8
DEFAULT_255_2_778
10
15.0818351
20
106.0667912
11
15.0749351
21
106.1407912
0
LINE
8
DEFAULT_255_2_778
10
15.0749351
20
106.1407912
11
15.0656351
21
106.2148912
0
LINE
8
DEFAULT_255_2_778
10
15.0656351
20
106.2148912
11
15.0540351
21
106.2889912
0
LINE
8
DEFAULT_255_2_778
10
15.0540351
20
106.2889912
11
15.0463351
21
106.3304912
0
LINE
8
DEFAULT_255_2_778
10
15.0463351
20
106.3304912
11
15.0309351
21
106.4040912
0
LINE
8
DEFAULT_255_2_778
10
15.0309351
20
106.4040912
11
15.0132351
21
106.4765912
0
LINE
8
DEFAULT_255_2_778
10
15.0132351
20
106.4765912
11
14.9931351
21
106.5485912
0
LINE
8
DEFAULT_255_2_778
10
14.9931351
20
106.5485912
11
14.9709351
21
106.6194912
0
LINE
8
DEFAULT_255_2_778
10
14.9709351
20
106.6194912
11
14.9463351
21
106.6895912
0
LINE
8
DEFAULT_255_2_778
10
14.9463351
20
106.6895912
11
14.9198351
21
106.7583912
0
LINE
8
DEFAULT_255_2_778
10
14.9198351
20
106.7583912
11
14.8910351
21
106.8260912
0
LINE
8
DEFAULT_255_2_778
10
14.8910351
20
106.8260912
11
14.8600351
21
106.8929912
0
LINE
8
DEFAULT_255_2_778
10
14.8600351
20
106.8929912
11
14.8267351
21
106.9588912
0
LINE
8
DEFAULT_255_2_778
10
14.8267351
20
106.9588912
11
14.7912351
21
107.0237912
0
LINE
8
DEFAULT_255_2_778
10
14.7912351
20
107.0237912
11
14.7537351
21
107.0874912
0
LINE
8
DEFAULT_255_2_778
10
14.7537351
20
107.0874912
11
14.7140351
21
107.1499912
0
LINE
8
DEFAULT_255_2_778
10
14.7140351
20
107.1499912
11
14.6724351
21
107.2110912
0
LINE
8
DEFAULT_255_2_778
10
14.6724351
20
107.2110912
11
14.6478351
21
107.2454912
0
LINE
8
DEFAULT_255_2_778
10
14.6478351
20
107.2454912
11
14.6031351
21
107.3041912
0
LINE
8
DEFAULT_255_2_778
10
14.6031351
20
107.3041912
11
14.5565351
21
107.3613912
0
LINE
8
DEFAULT_255_2_778
10
14.5565351
20
107.3613912
11
14.5084351
21
107.4166912
0
LINE
8
DEFAULT_255_2_778
10
14.5084351
20
107.4166912
11
14.4587351
21
107.4700912
0
LINE
8
DEFAULT_255_2_778
10
14.4587351
20
107.4700912
11
14.4068351
21
107.5219912
0
LINE
8
DEFAULT_255_2_778
10
14.4068351
20
107.5219912
11
14.3536351
21
107.5719912
0
LINE
8
DEFAULT_255_2_778
10
14.3536351
20
107.5719912
11
14.2986351
21
107.6203912
0
LINE
8
DEFAULT_255_2_778
10
14.2986351
20
107.6203912
11
14.2420351
21
107.6666912
0
LINE
8
DEFAULT_255_2_778
10
14.2420351
20
107.6666912
11
14.2094351
21
107.6917912
0
LINE
8
DEFAULT_255_2_778
10
14.2094351
20
107.6917912
11
14.1507351
21
107.7349912
0
LINE
8
DEFAULT_255_2_778
10
14.1507351
20
107.7349912
11
14.0906351
21
107.7761912
0
LINE
8
DEFAULT_255_2_778
10
14.0906351
20
107.7761912
11
14.0290351
21
107.8150912
0
LINE
8
DEFAULT_255_2_778
10
14.0290351
20
107.8150912
11
13.9665351
21
107.8521912
0
LINE
8
DEFAULT_255_2_778
10
13.9665351
20
107.8521912
11
13.9028351
21
107.8867912
0
LINE
8
DEFAULT_255_2_778
10
13.9028351
20
107.8867912
11
13.8382351
21
107.9190912
0
LINE
8
DEFAULT_255_2_778
10
13.8382351
20
107.9190912
11
13.7729351
21
107.9492912
0
LINE
8
DEFAULT_255_2_778
10
13.7729351
20
107.9492912
11
13.7064351
21
107.9767912
0
LINE
8
DEFAULT_255_2_778
10
13.7064351
20
107.9767912
11
13.6390351
21
108.0023912
0
LINE
8
DEFAULT_255_2_778
10
13.6390351
20
108.0023912
11
13.5704351
21
108.0256912
0
LINE
8
DEFAULT_255_2_778
10
13.5704351
20
108.0256912
11
13.5009351
21
108.0465912
0
LINE
8
DEFAULT_255_2_778
10
13.5009351
20
108.0465912
11
13.4305351
21
108.0651912
0
LINE
8
DEFAULT_255_2_778
10
13.4305351
20
108.0651912
11
13.3596351
21
108.0815912
0
LINE
8
DEFAULT_255_2_778
10
13.3596351
20
108.0815912
11
13.3204351
21
108.0894912
0
LINE
8
DEFAULT_255_2_778
10
13.3204351
20
108.0894912
11
13.2490351
21
108.1016912
0
LINE
8
DEFAULT_255_2_778
10
13.2490351
20
108.1016912
11
13.1773351
21
108.1116912
0
LINE
8
DEFAULT_255_2_778
10
13.1773351
20
108.1116912
11
13.1056351
21
108.1190912
0
LINE
8
DEFAULT_255_2_778
10
13.1056351
20
108.1190912
11
13.0339351
21
108.1241912
0
LINE
8
DEFAULT_255_2_778
10
13.0339351
20
108.1241912
11
12.9624351
21
108.1264912
0
LINE
8
DEFAULT_255_2_778
10
12.9624351
20
108.1264912
11
12.9299351
21
108.1267912
0
LINE
8
DEFAULT_255_2_778
10
12.9299351
20
108.1267912
11
0.1783351
21
108.1267912
0
LINE
8
DEFAULT_255_2_778
10
0.3746351
20
107.9235912
11
12.9360351
21
107.9235912
0
LINE
8
DEFAULT_255_2_778
10
14.8987351
20
105.8918912
11
14.8987351
21
75.0109912
0
LINE
8
DEFAULT_255_2_778
10
12.9360351
20
72.9795912
11
0.3746351
21
72.9795912
0
LINE
8
DEFAULT_255_2_778
10
0.1783351
20
72.7763912
11
12.9294351
21
72.7763912
0
LINE
8
DEFAULT_255_2_778
10
12.9294351
20
72.7763912
11
12.9635351
21
72.7765912
0
LINE
8
DEFAULT_255_2_778
10
12.9635351
20
72.7765912
11
13.0349351
21
72.7789912
0
LINE
8
DEFAULT_255_2_778
10
13.0349351
20
72.7789912
11
13.1066351
21
72.7839912
0
LINE
8
DEFAULT_255_2_778
10
13.1066351
20
72.7839912
11
13.1783351
21
72.7913912
0
LINE
8
DEFAULT_255_2_778
10
13.1783351
20
72.7913912
11
13.2500351
21
72.8014912
0
LINE
8
DEFAULT_255_2_778
10
13.2500351
20
72.8014912
11
13.3215351
21
72.8136912
0
LINE
8
DEFAULT_255_2_778
10
13.3215351
20
72.8136912
11
13.3612351
21
72.8215912
0
LINE
8
DEFAULT_255_2_778
10
13.3612351
20
72.8215912
11
13.4321351
21
72.8376912
0
LINE
8
DEFAULT_255_2_778
10
13.4321351
20
72.8376912
11
13.5022351
21
72.8564912
0
LINE
8
DEFAULT_255_2_778
10
13.5022351
20
72.8564912
11
13.5718351
21
72.8773912
0
LINE
8
DEFAULT_255_2_778
10
13.5718351
20
72.8773912
11
13.6403351
21
72.9003912
0
LINE
8
DEFAULT_255_2_778
10
13.6403351
20
72.9003912
11
13.7078351
21
72.9260912
0
LINE
8
DEFAULT_255_2_778
10
13.7078351
20
72.9260912
11
13.7742351
21
72.9540912
0
LINE
8
DEFAULT_255_2_778
10
13.7742351
20
72.9540912
11
13.8395351
21
72.9842912
0
LINE
8
DEFAULT_255_2_778
10
13.8395351
20
72.9842912
11
13.9041351
21
73.0165912
0
LINE
8
DEFAULT_255_2_778
10
13.9041351
20
73.0165912
11
13.9676351
21
73.0512912
0
LINE
8
DEFAULT_255_2_778
10
13.9676351
20
73.0512912
11
14.0300351
21
73.0882912
0
LINE
8
DEFAULT_255_2_778
10
14.0300351
20
73.0882912
11
14.0914351
21
73.1274912
0
LINE
8
DEFAULT_255_2_778
10
14.0914351
20
73.1274912
11
14.1517351
21
73.1686912
0
LINE
8
DEFAULT_255_2_778
10
14.1517351
20
73.1686912
11
14.2105351
21
73.2120912
0
LINE
8
DEFAULT_255_2_778
10
14.2105351
20
73.2120912
11
14.2433351
21
73.2377912
0
LINE
8
DEFAULT_255_2_778
10
14.2433351
20
73.2377912
11
14.2999351
21
73.2840912
0
LINE
8
DEFAULT_255_2_778
10
14.2999351
20
73.2840912
11
14.3549351
21
73.3327912
0
LINE
8
DEFAULT_255_2_778
10
14.3549351
20
73.3327912
11
14.4081351
21
73.3827912
0
LINE
8
DEFAULT_255_2_778
10
14.4081351
20
73.3827912
11
14.4597351
21
73.4345912
0
LINE
8
DEFAULT_255_2_778
10
14.4597351
20
73.4345912
11
14.5095351
21
73.4880912
0
LINE
8
DEFAULT_255_2_778
10
14.5095351
20
73.4880912
11
14.5576351
21
73.5433912
0
LINE
8
DEFAULT_255_2_778
10
14.5576351
20
73.5433912
11
14.6039351
21
73.6004912
0
LINE
8
DEFAULT_255_2_778
10
14.6039351
20
73.6004912
11
14.6486351
21
73.6592912
0
LINE
8
DEFAULT_255_2_778
10
14.6486351
20
73.6592912
11
14.6730351
21
73.6930912
0
LINE
8
DEFAULT_255_2_778
10
14.6730351
20
73.6930912
11
14.7148351
21
73.7539912
0
LINE
8
DEFAULT_255_2_778
10
14.7148351
20
73.7539912
11
14.7545351
21
73.8166912
0
LINE
8
DEFAULT_255_2_778
10
14.7545351
20
73.8166912
11
14.7920351
21
73.8804912
0
LINE
8
DEFAULT_255_2_778
10
14.7920351
20
73.8804912
11
14.8275351
21
73.9454912
0
LINE
8
DEFAULT_255_2_778
10
14.8275351
20
73.9454912
11
14.8606351
21
74.0113912
0
LINE
8
DEFAULT_255_2_778
10
14.8606351
20
74.0113912
11
14.8918351
21
74.0783912
0
LINE
8
DEFAULT_255_2_778
10
14.8918351
20
74.0783912
11
14.9206351
21
74.1463912
0
LINE
8
DEFAULT_255_2_778
10
14.9206351
20
74.1463912
11
14.9471351
21
74.2153912
0
LINE
8
DEFAULT_255_2_778
10
14.9471351
20
74.2153912
11
14.9714351
21
74.2849912
0
LINE
8
DEFAULT_255_2_778
10
14.9714351
20
74.2849912
11
14.9936351
21
74.3561912
0
LINE
8
DEFAULT_255_2_778
10
14.9936351
20
74.3561912
11
15.0135351
21
74.4280912
0
LINE
8
DEFAULT_255_2_778
10
15.0135351
20
74.4280912
11
15.0312351
21
74.5008912
0
LINE
8
DEFAULT_255_2_778
10
15.0312351
20
74.5008912
11
15.0466351
21
74.5744912
0
LINE
8
DEFAULT_255_2_778
10
15.0466351
20
74.5744912
11
15.0540351
21
74.6154912
0
LINE
8
DEFAULT_255_2_778
10
15.0540351
20
74.6154912
11
15.0656351
21
74.6892912
0
LINE
8
DEFAULT_255_2_778
10
15.0656351
20
74.6892912
11
15.0749351
21
74.7633912
0
LINE
8
DEFAULT_255_2_778
10
15.0749351
20
74.7633912
11
15.0818351
21
74.8379912
0
LINE
8
DEFAULT_255_2_778
10
15.0818351
20
74.8379912
11
15.0862351
21
74.9117912
0
LINE
8
DEFAULT_255_2_778
10
15.0862351
20
74.9117912
11
15.0884351
21
74.9855912
0
LINE
8
DEFAULT_255_2_778
10
15.0884351
20
74.9855912
11
15.0886351
21
75.0114912
0
LINE
8
DEFAULT_255_2_778
10
0.3746351
20
107.9230912
11
0.2550351
21
107.8650912
0
LINE
8
DEFAULT_255_2_778
10
0.2550351
20
107.8650912
11
0.1929351
21
107.7822912
0
LINE
8
DEFAULT_255_2_778
10
0.1929351
20
107.7822912
11
0.1807351
21
107.7439912
0
LINE
8
DEFAULT_255_2_778
10
0.1807351
20
107.7439912
11
0.1783351
21
107.7198912
0
LINE
8
DEFAULT_255_2_778
10
0.1783351
20
107.7198912
11
6.2137351
21
107.7198912
0
LINE
8
DEFAULT_255_2_778
10
13.7617351
20
106.9747912
11
14.6055351
21
106.9594912
0
LINE
8
DEFAULT_255_2_778
10
6.2137351
20
73.1819912
11
0.1783351
21
73.1819912
0
LINE
8
DEFAULT_255_2_778
10
0.1783351
20
73.1819912
11
0.1807351
21
73.1580912
0
LINE
8
DEFAULT_255_2_778
10
0.1807351
20
73.1580912
11
0.1960351
21
73.1128912
0
LINE
8
DEFAULT_255_2_778
10
0.1960351
20
73.1128912
11
0.2688351
21
73.0250912
0
LINE
8
DEFAULT_255_2_778
10
0.2688351
20
73.0250912
11
0.3749351
21
72.9787912
0
LINE
8
DEFAULT_255_2_778
10
14.6055351
20
73.9417912
11
14.0343351
21
73.9317912
0
LINE
8
DEFAULT_255_2_778
10
14.0255351
20
73.3276912
11
14.0255351
21
73.9169912
0
LINE
8
DEFAULT_255_2_778
10
14.0157351
20
73.9007912
11
14.0157351
21
73.3192912
0
LINE
8
DEFAULT_255_2_778
10
13.6720351
20
73.5615912
11
13.6720351
21
73.1472912
0
LINE
8
DEFAULT_255_2_778
10
1.1393351
20
72.9789912
11
1.1393351
21
107.9230912
0
ARC
8
DEFAULT_255_2_778
10
37.2497687
20
68.617942
40
0.989633
50
28.4770664
51
35.9837014
0
ARC
8
DEFAULT_255_2_778
10
23.0935947
20
62.8374727
40
0.4471671
50
257.3232754
51
270.04731
0
LINE
8
DEFAULT_255_2_778
10
23.849864
20
69.3221058
11
37.929864
21
69.3221058
0
LINE
8
DEFAULT_255_2_778
10
38.107964
20
68.8956058
11
38.200564
21
68.8956058
0
LINE
8
DEFAULT_255_2_778
10
38.107964
20
68.5366058
11
38.255064
21
68.5366058
0
LINE
8
DEFAULT_255_2_778
10
38.252464
20
68.6329058
11
38.251364
21
68.6493058
0
LINE
8
DEFAULT_255_2_778
10
38.251364
20
68.6493058
11
38.247364
21
68.6895058
0
LINE
8
DEFAULT_255_2_778
10
38.247364
20
68.6895058
11
38.238664
21
68.7498058
0
LINE
8
DEFAULT_255_2_778
10
38.238664
20
68.7498058
11
38.221764
21
68.8292058
0
LINE
8
DEFAULT_255_2_778
10
38.221764
20
68.8292058
11
38.192864
21
68.9255058
0
LINE
8
DEFAULT_255_2_778
10
38.192864
20
68.9255058
11
38.138164
21
69.0549058
0
LINE
8
DEFAULT_255_2_778
10
38.138164
20
69.0549058
11
38.119664
21
69.0898058
0
LINE
8
DEFAULT_255_2_778
10
38.050564
20
69.1994058
11
38.034664
21
69.2211058
0
LINE
8
DEFAULT_255_2_778
10
38.034664
20
69.2211058
11
37.927564
21
69.3415058
0
LINE
8
DEFAULT_255_2_778
10
37.927564
20
69.3415058
11
37.782564
21
69.4568058
0
LINE
8
DEFAULT_255_2_778
10
37.782564
20
69.4568058
11
37.621664
21
69.5407058
0
LINE
8
DEFAULT_255_2_778
10
37.621664
20
69.5407058
11
37.426164
21
69.5963058
0
LINE
8
DEFAULT_255_2_778
10
37.426164
20
69.5963058
11
37.273764
21
69.6092058
0
LINE
8
DEFAULT_255_2_778
10
23.536864
20
68.6324058
11
23.539464
21
68.6670058
0
LINE
8
DEFAULT_255_2_778
10
23.539464
20
68.6670058
11
23.542964
21
68.7020058
0
LINE
8
DEFAULT_255_2_778
10
23.542964
20
68.7020058
11
23.547664
21
68.7366058
0
LINE
8
DEFAULT_255_2_778
10
23.547664
20
68.7366058
11
23.557964
21
68.7932058
0
LINE
8
DEFAULT_255_2_778
10
23.557964
20
68.7932058
11
23.574164
21
68.8615058
0
LINE
8
DEFAULT_255_2_778
10
23.574164
20
68.8615058
11
23.594564
21
68.9279058
0
LINE
8
DEFAULT_255_2_778
10
23.594564
20
68.9279058
11
23.618864
21
68.9927058
0
LINE
8
DEFAULT_255_2_778
10
23.618864
20
68.9927058
11
23.652964
21
69.0676058
0
LINE
8
DEFAULT_255_2_778
10
23.652964
20
69.0676058
11
23.703764
21
69.1573058
0
LINE
8
DEFAULT_255_2_778
10
23.703764
20
69.1573058
11
23.762564
21
69.2409058
0
LINE
8
DEFAULT_255_2_778
10
23.762564
20
69.2409058
11
23.850364
21
69.3396058
0
LINE
8
DEFAULT_255_2_778
10
23.850364
20
69.3396058
11
23.950864
21
69.4272058
0
LINE
8
DEFAULT_255_2_778
10
23.950864
20
69.4272058
11
24.060464
21
69.4989058
0
LINE
8
DEFAULT_255_2_778
10
24.060464
20
69.4989058
11
24.208064
21
69.5653058
0
LINE
8
DEFAULT_255_2_778
10
24.208064
20
69.5653058
11
24.388764
21
69.6097058
0
LINE
8
DEFAULT_255_2_778
10
24.388764
20
69.6097058
11
24.515764
21
69.6185058
0
LINE
8
DEFAULT_255_2_778
10
24.515764
20
69.6185058
11
37.273164
21
69.6089058
0
LINE
8
DEFAULT_255_2_778
10
37.273164
20
69.6089058
11
37.273164
21
69.6870058
0
LINE
8
DEFAULT_255_2_778
10
37.273164
20
69.6870058
11
24.516064
21
69.6870058
0
LINE
8
DEFAULT_255_2_778
10
24.516064
20
69.6870058
11
24.516064
21
69.6185058
0
LINE
8
DEFAULT_255_2_778
10
31.434664
20
59.2394058
11
31.481464
21
59.2868058
0
LINE
8
DEFAULT_255_2_778
10
31.481464
20
59.2868058
11
31.483564
21
59.3018058
0
LINE
8
DEFAULT_255_2_778
10
28.539564
20
59.4815058
11
28.537464
21
59.4966058
0
LINE
8
DEFAULT_255_2_778
10
28.537464
20
59.4966058
11
28.502264
21
59.5378058
0
LINE
8
DEFAULT_255_2_778
10
28.502264
20
59.5378058
11
28.441664
21
59.5532058
0
LINE
8
DEFAULT_255_2_778
10
28.539864
20
59.3018058
11
28.541964
21
59.2868058
0
LINE
8
DEFAULT_255_2_778
10
28.541964
20
59.2868058
11
28.577164
21
59.2452058
0
LINE
8
DEFAULT_255_2_778
10
28.577164
20
59.2452058
11
28.638064
21
59.2299058
0
LINE
8
DEFAULT_255_2_778
10
31.582064
20
59.5532058
11
31.490764
21
59.5077058
0
LINE
8
DEFAULT_255_2_778
10
31.490764
20
59.5077058
11
31.483864
21
59.4849058
0
LINE
8
DEFAULT_255_2_778
10
31.483864
20
59.4849058
11
31.483864
21
59.4815058
0
LINE
8
DEFAULT_255_2_778
10
30.993364
20
59.3018058
11
30.995464
21
59.2868058
0
LINE
8
DEFAULT_255_2_778
10
30.995464
20
59.2868058
11
31.026164
21
59.2479058
0
LINE
8
DEFAULT_255_2_778
10
31.026164
20
59.2479058
11
31.091464
21
59.2296058
0
LINE
8
DEFAULT_255_2_778
10
28.932464
20
59.2296058
11
29.022964
21
59.2741058
0
LINE
8
DEFAULT_255_2_778
10
29.030664
20
64.4734058
11
29.032764
21
64.4972058
0
LINE
8
DEFAULT_255_2_778
10
29.032764
20
64.4972058
11
29.049164
21
64.5419058
0
LINE
8
DEFAULT_255_2_778
10
29.049164
20
64.5419058
11
29.122764
21
64.6136058
0
LINE
8
DEFAULT_255_2_778
10
29.122764
20
64.6136058
11
29.275864
21
64.6528058
0
LINE
8
DEFAULT_255_2_778
10
29.275864
20
64.6528058
11
30.845464
21
64.6380058
0
LINE
8
DEFAULT_255_2_778
10
30.845464
20
64.6380058
11
30.959464
21
64.5641058
0
LINE
8
DEFAULT_255_2_778
10
30.959464
20
64.5641058
11
30.988864
21
64.5080058
0
LINE
8
DEFAULT_255_2_778
10
30.988864
20
64.5080058
11
30.992764
21
64.4850058
0
LINE
8
DEFAULT_255_2_778
10
30.992764
20
64.4850058
11
30.993564
21
64.4731058
0
LINE
8
DEFAULT_255_2_778
10
30.993564
20
62.8785058
11
29.030964
21
62.8785058
0
LINE
8
DEFAULT_255_2_778
10
29.030964
20
62.7838058
11
30.993564
21
62.7838058
0
LINE
8
DEFAULT_255_2_778
10
31.497364
20
59.6969058
11
31.484364
21
59.6646058
0
LINE
8
DEFAULT_255_2_778
10
31.484364
20
59.6646058
11
31.481964
21
59.1071058
0
LINE
8
DEFAULT_255_2_778
10
31.481964
20
59.1071058
11
31.446864
21
59.0656058
0
LINE
8
DEFAULT_255_2_778
10
31.446864
20
59.0656058
11
31.386264
21
59.0502058
0
LINE
8
DEFAULT_255_2_778
10
31.386264
20
59.0502058
11
31.386264
21
59.2299058
0
LINE
8
DEFAULT_255_2_778
10
31.386264
20
59.2299058
11
31.091764
21
59.2299058
0
LINE
8
DEFAULT_255_2_778
10
31.091764
20
59.2299058
11
31.091764
21
59.0502058
0
LINE
8
DEFAULT_255_2_778
10
31.091764
20
59.0502058
11
31.386264
21
59.0502058
0
LINE
8
DEFAULT_255_2_778
10
31.091764
20
59.0502058
11
31.000464
21
59.0957058
0
LINE
8
DEFAULT_255_2_778
10
31.000464
20
59.0957058
11
30.993564
21
59.1185058
0
LINE
8
DEFAULT_255_2_778
10
30.993564
20
59.1185058
11
30.993564
21
64.4736058
0
LINE
8
DEFAULT_255_2_778
10
30.993564
20
64.4736058
11
31.435164
21
64.4736058
0
LINE
8
DEFAULT_255_2_778
10
28.785664
20
59.2299058
11
28.785664
21
64.9404058
0
LINE
8
DEFAULT_255_2_778
10
28.785664
20
64.9404058
11
31.435164
21
64.9404058
0
LINE
8
DEFAULT_255_2_778
10
31.435164
20
64.9404058
11
31.435164
21
59.2397058
0
LINE
8
DEFAULT_255_2_778
10
31.435164
20
59.2397058
11
31.386264
21
59.2299058
0
LINE
8
DEFAULT_255_2_778
10
28.638564
20
59.0502058
11
28.547264
21
59.0957058
0
LINE
8
DEFAULT_255_2_778
10
28.547264
20
59.0957058
11
28.540864
21
59.1145058
0
LINE
8
DEFAULT_255_2_778
10
28.540864
20
59.1145058
11
28.539264
21
59.6720058
0
LINE
8
DEFAULT_255_2_778
10
28.539264
20
59.6720058
11
28.527364
21
59.6969058
0
LINE
8
DEFAULT_255_2_778
10
29.031464
20
59.8765058
11
28.786164
21
59.8765058
0
LINE
8
DEFAULT_255_2_778
10
31.435664
20
59.8765058
11
30.994164
21
59.8765058
0
LINE
8
DEFAULT_255_2_778
10
30.994164
20
59.8559058
11
29.031464
21
59.8559058
0
LINE
8
DEFAULT_255_2_778
10
31.435664
20
59.6971058
11
31.497864
21
59.6971058
0
LINE
8
DEFAULT_255_2_778
10
31.497864
20
59.6971058
11
31.582764
21
59.7328058
0
LINE
8
DEFAULT_255_2_778
10
29.031164
20
59.5172058
11
28.785864
21
59.5172058
0
LINE
8
DEFAULT_255_2_778
10
31.435464
20
59.5172058
11
30.993864
21
59.5172058
0
LINE
8
DEFAULT_255_2_778
10
29.031164
20
59.2328058
11
30.993864
21
59.2328058
0
LINE
8
DEFAULT_255_2_778
10
28.785864
20
64.4736058
11
29.031164
21
64.4736058
0
LINE
8
DEFAULT_255_2_778
10
29.031164
20
64.4736058
11
29.029064
21
59.1074058
0
LINE
8
DEFAULT_255_2_778
10
29.029064
20
59.1074058
11
28.993864
21
59.0658058
0
LINE
8
DEFAULT_255_2_778
10
28.993864
20
59.0658058
11
28.933064
21
59.0505058
0
LINE
8
DEFAULT_255_2_778
10
28.933064
20
59.0505058
11
28.933064
21
59.2301058
0
LINE
8
DEFAULT_255_2_778
10
28.933064
20
59.2301058
11
28.638764
21
59.2301058
0
LINE
8
DEFAULT_255_2_778
10
28.638764
20
59.2301058
11
28.638764
21
59.0505058
0
LINE
8
DEFAULT_255_2_778
10
28.638764
20
59.0505058
11
28.933064
21
59.0505058
0
LINE
8
DEFAULT_255_2_778
10
24.958664
20
61.4212058
11
24.956564
21
61.4421058
0
LINE
8
DEFAULT_255_2_778
10
24.956564
20
61.4421058
11
24.937564
21
61.4857058
0
LINE
8
DEFAULT_255_2_778
10
24.937564
20
61.4857058
11
24.847364
21
61.5505058
0
LINE
8
DEFAULT_255_2_778
10
24.847364
20
61.5505058
11
24.762364
21
61.5646058
0
LINE
8
DEFAULT_255_2_778
10
23.781064
20
62.2469058
11
23.778964
21
62.2678058
0
LINE
8
DEFAULT_255_2_778
10
23.778964
20
62.2678058
11
23.759864
21
62.3120058
0
LINE
8
DEFAULT_255_2_778
10
23.759864
20
62.3120058
11
23.669664
21
62.3763058
0
LINE
8
DEFAULT_255_2_778
10
23.669664
20
62.3763058
11
23.584764
21
62.3903058
0
LINE
8
DEFAULT_255_2_778
10
25.940064
20
60.6308058
11
25.937964
21
60.6517058
0
LINE
8
DEFAULT_255_2_778
10
25.937964
20
60.6517058
11
25.918864
21
60.6954058
0
LINE
8
DEFAULT_255_2_778
10
25.918864
20
60.6954058
11
25.828664
21
60.7602058
0
LINE
8
DEFAULT_255_2_778
10
25.828664
20
60.7602058
11
25.743764
21
60.7742058
0
LINE
8
DEFAULT_255_2_778
10
22.996064
20
62.9650058
11
22.998164
21
62.9391058
0
LINE
8
DEFAULT_255_2_778
10
22.998164
20
62.9391058
11
23.010364
21
62.8986058
0
LINE
8
DEFAULT_255_2_778
10
23.010364
20
62.8986058
11
23.064264
21
62.8271058
0
LINE
8
DEFAULT_255_2_778
10
23.064264
20
62.8271058
11
23.217464
21
62.7565058
0
LINE
8
DEFAULT_255_2_778
10
23.217464
20
62.7565058
11
23.290264
21
62.7499058
0
LINE
8
DEFAULT_255_2_778
10
23.093964
20
65.6230058
11
22.881764
21
65.6764058
0
LINE
8
DEFAULT_255_2_778
10
22.881764
20
65.6764058
11
22.815564
21
65.7267058
0
LINE
8
DEFAULT_255_2_778
10
25.940064
20
59.8765058
11
25.942164
21
59.8551058
0
LINE
8
DEFAULT_255_2_778
10
25.942164
20
59.8551058
11
25.961264
21
59.8114058
0
LINE
8
DEFAULT_255_2_778
10
25.961264
20
59.8114058
11
26.061264
21
59.7434058
0
LINE
8
DEFAULT_255_2_778
10
26.061264
20
59.7434058
11
26.136364
21
59.7326058
0
LINE
8
DEFAULT_255_2_778
10
24.762664
20
61.7437058
11
24.912164
21
61.6934058
0
LINE
8
DEFAULT_255_2_778
10
24.912164
20
61.6934058
11
24.952064
21
61.6378058
0
LINE
8
DEFAULT_255_2_778
10
24.952064
20
61.6378058
11
24.958464
21
61.6106058
0
LINE
8
DEFAULT_255_2_778
10
24.958464
20
61.6106058
11
24.959264
21
61.6005058
0
LINE
8
DEFAULT_255_2_778
10
24.959264
20
61.3849058
11
24.959264
21
61.3846058
0
LINE
8
DEFAULT_255_2_778
10
24.959264
20
61.3846058
11
24.959264
21
61.3751058
0
LINE
8
DEFAULT_255_2_778
10
24.959264
20
61.3751058
11
24.959464
21
61.3661058
0
LINE
8
DEFAULT_255_2_778
10
24.959464
20
61.3661058
11
24.960264
21
61.3566058
0
LINE
8
DEFAULT_255_2_778
10
24.960264
20
61.3566058
11
24.961364
21
61.3476058
0
LINE
8
DEFAULT_255_2_778
10
24.961364
20
61.3476058
11
24.962464
21
61.3381058
0
LINE
8
DEFAULT_255_2_778
10
24.962464
20
61.3381058
11
24.963964
21
61.3291058
0
LINE
8
DEFAULT_255_2_778
10
24.963964
20
61.3291058
11
24.965564
21
61.3196058
0
LINE
8
DEFAULT_255_2_778
10
24.965564
20
61.3196058
11
24.967664
21
61.3100058
0
LINE
8
DEFAULT_255_2_778
10
24.967664
20
61.3100058
11
24.970064
21
61.3010058
0
LINE
8
DEFAULT_255_2_778
10
24.970064
20
61.3010058
11
24.972764
21
61.2915058
0
LINE
8
DEFAULT_255_2_778
10
24.972764
20
61.2915058
11
24.975664
21
61.2825058
0
LINE
8
DEFAULT_255_2_778
10
24.975664
20
61.2825058
11
24.978864
21
61.2735058
0
LINE
8
DEFAULT_255_2_778
10
24.978864
20
61.2735058
11
24.979064
21
61.2733058
0
LINE
8
DEFAULT_255_2_778
10
24.979064
20
61.2733058
11
24.979864
21
61.2711058
0
LINE
8
DEFAULT_255_2_778
10
24.979864
20
61.2711058
11
24.981464
21
61.2669058
0
LINE
8
DEFAULT_255_2_778
10
24.981464
20
61.2669058
11
24.983364
21
61.2627058
0
LINE
8
DEFAULT_255_2_778
10
24.983364
20
61.2627058
11
24.984064
21
61.2603058
0
LINE
8
DEFAULT_255_2_778
10
24.984064
20
61.2603058
11
24.985964
21
61.2561058
0
LINE
8
DEFAULT_255_2_778
10
24.985964
20
61.2561058
11
24.987864
21
61.2518058
0
LINE
8
DEFAULT_255_2_778
10
24.987864
20
61.2518058
11
24.989664
21
61.2476058
0
LINE
8
DEFAULT_255_2_778
10
24.989664
20
61.2476058
11
24.991764
21
61.2434058
0
LINE
8
DEFAULT_255_2_778
10
24.991764
20
61.2434058
11
24.993864
21
61.2391058
0
LINE
8
DEFAULT_255_2_778
10
24.993864
20
61.2391058
11
24.996064
21
61.2349058
0
LINE
8
DEFAULT_255_2_778
10
24.996064
20
61.2349058
11
24.998164
21
61.2307058
0
LINE
8
DEFAULT_255_2_778
10
24.998164
20
61.2307058
11
25.013764
21
61.2037058
0
LINE
8
DEFAULT_255_2_778
10
25.013764
20
61.2037058
11
25.021164
21
61.1925058
0
LINE
8
DEFAULT_255_2_778
10
25.021164
20
61.1925058
11
25.029064
21
61.1814058
0
LINE
8
DEFAULT_255_2_778
10
25.029064
20
61.1814058
11
25.037564
21
61.1703058
0
LINE
8
DEFAULT_255_2_778
10
25.037564
20
61.1703058
11
25.046264
21
61.1595058
0
LINE
8
DEFAULT_255_2_778
10
25.046264
20
61.1595058
11
25.055764
21
61.1486058
0
LINE
8
DEFAULT_255_2_778
10
25.055764
20
61.1486058
11
25.065864
21
61.1378058
0
LINE
8
DEFAULT_255_2_778
10
25.065864
20
61.1378058
11
25.076464
21
61.1272058
0
LINE
8
DEFAULT_255_2_778
10
25.076464
20
61.1272058
11
25.087564
21
61.1166058
0
LINE
8
DEFAULT_255_2_778
10
25.087564
20
61.1166058
11
25.098964
21
61.1066058
0
LINE
8
DEFAULT_255_2_778
10
25.098964
20
61.1066058
11
25.104764
21
61.1015058
0
LINE
8
DEFAULT_255_2_778
10
25.104764
20
61.1015058
11
25.116964
21
61.0915058
0
LINE
8
DEFAULT_255_2_778
10
25.116964
20
61.0915058
11
25.129364
21
61.0820058
0
LINE
8
DEFAULT_255_2_778
10
25.129364
20
61.0820058
11
25.142364
21
61.0724058
0
LINE
8
DEFAULT_255_2_778
10
25.142364
20
61.0724058
11
25.155564
21
61.0634058
0
LINE
8
DEFAULT_255_2_778
10
25.155564
20
61.0634058
11
25.169364
21
61.0547058
0
LINE
8
DEFAULT_255_2_778
10
25.169364
20
61.0547058
11
25.183564
21
61.0462058
0
LINE
8
DEFAULT_255_2_778
10
25.183564
20
61.0462058
11
25.198464
21
61.0378058
0
LINE
8
DEFAULT_255_2_778
10
25.198464
20
61.0378058
11
25.213764
21
61.0301058
0
LINE
8
DEFAULT_255_2_778
10
25.213764
20
61.0301058
11
25.229364
21
61.0224058
0
LINE
8
DEFAULT_255_2_778
10
25.229364
20
61.0224058
11
25.230664
21
61.0216058
0
LINE
8
DEFAULT_255_2_778
10
25.230664
20
61.0216058
11
25.246864
21
61.0142058
0
LINE
8
DEFAULT_255_2_778
10
25.246864
20
61.0142058
11
25.263464
21
61.0073058
0
LINE
8
DEFAULT_255_2_778
10
25.263464
20
61.0073058
11
25.280464
21
61.0010058
0
LINE
8
DEFAULT_255_2_778
10
25.280464
20
61.0010058
11
25.297664
21
60.9946058
0
LINE
8
DEFAULT_255_2_778
10
25.297664
20
60.9946058
11
25.315064
21
60.9891058
0
LINE
8
DEFAULT_255_2_778
10
25.315064
20
60.9891058
11
25.332864
21
60.9835058
0
LINE
8
DEFAULT_255_2_778
10
25.332864
20
60.9835058
11
25.351064
21
60.9785058
0
LINE
8
DEFAULT_255_2_778
10
25.351064
20
60.9785058
11
25.369364
21
60.9740058
0
LINE
8
DEFAULT_255_2_778
10
25.369364
20
60.9740058
11
25.382564
21
60.9711058
0
LINE
8
DEFAULT_255_2_778
10
25.382564
20
60.9711058
11
25.401664
21
60.9671058
0
LINE
8
DEFAULT_255_2_778
10
25.401664
20
60.9671058
11
25.420664
21
60.9640058
0
LINE
8
DEFAULT_255_2_778
10
25.420664
20
60.9640058
11
25.439964
21
60.9608058
0
LINE
8
DEFAULT_255_2_778
10
25.439964
20
60.9608058
11
25.459264
21
60.9584058
0
LINE
8
DEFAULT_255_2_778
10
25.459264
20
60.9584058
11
25.478664
21
60.9565058
0
LINE
8
DEFAULT_255_2_778
10
25.478664
20
60.9565058
11
25.498164
21
60.9552058
0
LINE
8
DEFAULT_255_2_778
10
25.498164
20
60.9552058
11
25.517764
21
60.9542058
0
LINE
8
DEFAULT_255_2_778
10
25.517764
20
60.9542058
11
25.537664
21
60.9539058
0
LINE
8
DEFAULT_255_2_778
10
25.537664
20
60.9539058
11
25.547664
21
60.9536058
0
LINE
8
DEFAULT_255_2_778
10
25.547664
20
60.9536058
11
25.743964
21
60.9536058
0
LINE
8
DEFAULT_255_2_778
10
25.743964
20
60.9536058
11
25.743964
21
60.7740058
0
LINE
8
DEFAULT_255_2_778
10
25.743964
20
60.7740058
11
25.547664
21
60.7740058
0
LINE
8
DEFAULT_255_2_778
10
25.547664
20
60.7740058
11
25.547664
21
60.9536058
0
LINE
8
DEFAULT_255_2_778
10
22.750764
20
62.6419058
11
22.752864
21
62.6136058
0
LINE
8
DEFAULT_255_2_778
10
22.752864
20
62.6136058
11
22.764564
21
62.5710058
0
LINE
8
DEFAULT_255_2_778
10
22.764564
20
62.5710058
11
22.818464
21
62.4919058
0
LINE
8
DEFAULT_255_2_778
10
22.818464
20
62.4919058
11
22.955064
21
62.4120058
0
LINE
8
DEFAULT_255_2_778
10
22.955064
20
62.4120058
11
22.995464
21
62.4012058
0
LINE
8
DEFAULT_255_2_778
10
25.940064
20
67.6008058
11
25.957464
21
67.5907058
0
LINE
8
DEFAULT_255_2_778
10
25.957464
20
67.5907058
11
25.962564
21
67.5878058
0
LINE
8
DEFAULT_255_2_778
10
25.962564
20
67.5878058
11
25.973164
21
67.5822058
0
LINE
8
DEFAULT_255_2_778
10
25.973164
20
67.5822058
11
25.983464
21
67.5769058
0
LINE
8
DEFAULT_255_2_778
10
25.983464
20
67.5769058
11
25.993464
21
67.5724058
0
LINE
8
DEFAULT_255_2_778
10
25.993464
20
67.5724058
11
26.003264
21
67.5680058
0
LINE
8
DEFAULT_255_2_778
10
26.003264
20
67.5680058
11
26.012764
21
67.5640058
0
LINE
8
DEFAULT_255_2_778
10
26.012764
20
67.5640058
11
26.022364
21
67.5600058
0
LINE
8
DEFAULT_255_2_778
10
26.022364
20
67.5600058
11
26.031564
21
67.5568058
0
LINE
8
DEFAULT_255_2_778
10
26.031564
20
67.5568058
11
26.040364
21
67.5539058
0
LINE
8
DEFAULT_255_2_778
10
26.040364
20
67.5539058
11
26.048764
21
67.5515058
0
LINE
8
DEFAULT_255_2_778
10
26.048764
20
67.5515058
11
26.056764
21
67.5497058
0
LINE
8
DEFAULT_255_2_778
10
26.056764
20
67.5497058
11
26.064364
21
67.5478058
0
LINE
8
DEFAULT_255_2_778
10
26.064364
20
67.5478058
11
26.071564
21
67.5465058
0
LINE
8
DEFAULT_255_2_778
10
26.071564
20
67.5465058
11
26.078664
21
67.5455058
0
LINE
8
DEFAULT_255_2_778
10
26.078664
20
67.5455058
11
26.085564
21
67.5447058
0
LINE
8
DEFAULT_255_2_778
10
26.085564
20
67.5447058
11
26.092464
21
67.5444058
0
LINE
8
DEFAULT_255_2_778
10
26.092464
20
67.5444058
11
26.099064
21
67.5444058
0
LINE
8
DEFAULT_255_2_778
10
26.099064
20
67.5444058
11
26.100664
21
67.5444058
0
LINE
8
DEFAULT_255_2_778
10
26.100664
20
67.5444058
11
26.106464
21
67.5444058
0
LINE
8
DEFAULT_255_2_778
10
26.106464
20
67.5444058
11
26.112264
21
67.5452058
0
LINE
8
DEFAULT_255_2_778
10
26.112264
20
67.5452058
11
26.117564
21
67.5460058
0
LINE
8
DEFAULT_255_2_778
10
26.117564
20
67.5460058
11
26.122864
21
67.5468058
0
LINE
8
DEFAULT_255_2_778
10
26.122864
20
67.5468058
11
26.127864
21
67.5481058
0
LINE
8
DEFAULT_255_2_778
10
26.127864
20
67.5481058
11
26.132664
21
67.5494058
0
LINE
8
DEFAULT_255_2_778
10
26.132664
20
67.5494058
11
26.132964
21
67.5494058
0
LINE
8
DEFAULT_255_2_778
10
26.132964
20
67.5494058
11
26.137464
21
67.5513058
0
LINE
8
DEFAULT_255_2_778
10
26.137464
20
67.5513058
11
26.141664
21
67.5531058
0
LINE
8
DEFAULT_255_2_778
10
26.141664
20
67.5531058
11
26.145864
21
67.5553058
0
LINE
8
DEFAULT_255_2_778
10
26.145864
20
67.5553058
11
26.149864
21
67.5576058
0
LINE
8
DEFAULT_255_2_778
10
26.149864
20
67.5576058
11
26.153264
21
67.5600058
0
LINE
8
DEFAULT_255_2_778
10
26.153264
20
67.5600058
11
26.156764
21
67.5624058
0
LINE
8
DEFAULT_255_2_778
10
26.156764
20
67.5624058
11
26.159964
21
67.5653058
0
LINE
8
DEFAULT_255_2_778
10
26.159964
20
67.5653058
11
26.162864
21
67.5682058
0
LINE
8
DEFAULT_255_2_778
10
26.162864
20
67.5682058
11
26.165464
21
67.5717058
0
LINE
8
DEFAULT_255_2_778
10
26.165464
20
67.5717058
11
26.168164
21
67.5751058
0
LINE
8
DEFAULT_255_2_778
10
26.168164
20
67.5751058
11
26.170764
21
67.5785058
0
LINE
8
DEFAULT_255_2_778
10
26.170764
20
67.5785058
11
26.173164
21
67.5828058
0
LINE
8
DEFAULT_255_2_778
10
26.173164
20
67.5828058
11
26.175264
21
67.5870058
0
LINE
8
DEFAULT_255_2_778
10
26.175264
20
67.5870058
11
26.177164
21
67.5912058
0
LINE
8
DEFAULT_255_2_778
10
26.177164
20
67.5912058
11
26.178164
21
67.5934058
0
LINE
8
DEFAULT_255_2_778
10
26.178164
20
67.5934058
11
26.179764
21
67.5979058
0
LINE
8
DEFAULT_255_2_778
10
26.179764
20
67.5979058
11
26.181064
21
67.6029058
0
LINE
8
DEFAULT_255_2_778
10
26.181064
20
67.6029058
11
26.182164
21
67.6082058
0
LINE
8
DEFAULT_255_2_778
10
26.182164
20
67.6082058
11
26.183164
21
67.6135058
0
LINE
8
DEFAULT_255_2_778
10
26.183164
20
67.6135058
11
26.183964
21
67.6190058
0
LINE
8
DEFAULT_255_2_778
10
26.183964
20
67.6190058
11
26.184564
21
67.6246058
0
LINE
8
DEFAULT_255_2_778
10
26.184564
20
67.6246058
11
26.184764
21
67.6309058
0
LINE
8
DEFAULT_255_2_778
10
26.184764
20
67.6309058
11
26.184764
21
67.6341058
0
LINE
8
DEFAULT_255_2_778
10
25.939764
20
60.7777058
11
25.954064
21
60.7904058
0
LINE
8
DEFAULT_255_2_778
10
25.954064
20
60.7904058
11
25.967264
21
60.8023058
0
LINE
8
DEFAULT_255_2_778
10
25.967264
20
60.8023058
11
25.980264
21
60.8150058
0
LINE
8
DEFAULT_255_2_778
10
25.980264
20
60.8150058
11
25.993264
21
60.8277058
0
LINE
8
DEFAULT_255_2_778
10
25.993264
20
60.8277058
11
26.005964
21
60.8409058
0
LINE
8
DEFAULT_255_2_778
10
26.005964
20
60.8409058
11
26.018364
21
60.8539058
0
LINE
8
DEFAULT_255_2_778
10
26.018364
20
60.8539058
11
26.030564
21
60.8676058
0
LINE
8
DEFAULT_255_2_778
10
26.030564
20
60.8676058
11
26.033964
21
60.8719058
0
LINE
8
DEFAULT_255_2_778
10
26.033964
20
60.8719058
11
26.044564
21
60.8840058
0
LINE
8
DEFAULT_255_2_778
10
26.044564
20
60.8840058
11
26.055964
21
60.8978058
0
LINE
8
DEFAULT_255_2_778
10
26.055964
20
60.8978058
11
26.066764
21
60.9116058
0
LINE
8
DEFAULT_255_2_778
10
26.066764
20
60.9116058
11
26.077364
21
60.9256058
0
LINE
8
DEFAULT_255_2_778
10
26.077364
20
60.9256058
11
26.087464
21
60.9393058
0
LINE
8
DEFAULT_255_2_778
10
26.087464
20
60.9393058
11
26.097164
21
60.9534058
0
LINE
8
DEFAULT_255_2_778
10
26.097164
20
60.9534058
11
26.106464
21
60.9671058
0
LINE
8
DEFAULT_255_2_778
10
26.106464
20
60.9671058
11
26.109964
21
60.9724058
0
LINE
8
DEFAULT_255_2_778
10
26.109964
20
60.9724058
11
26.118364
21
60.9856058
0
LINE
8
DEFAULT_255_2_778
10
26.118364
20
60.9856058
11
26.126064
21
60.9986058
0
LINE
8
DEFAULT_255_2_778
10
26.126064
20
60.9986058
11
26.133164
21
61.0113058
0
LINE
8
DEFAULT_255_2_778
10
26.133164
20
61.0113058
11
26.140064
21
61.0240058
0
LINE
8
DEFAULT_255_2_778
10
26.140064
20
61.0240058
11
26.146464
21
61.0362058
0
LINE
8
DEFAULT_255_2_778
10
26.146464
20
61.0362058
11
26.151964
21
61.0481058
0
LINE
8
DEFAULT_255_2_778
10
26.151964
20
61.0481058
11
26.157264
21
61.0600058
0
LINE
8
DEFAULT_255_2_778
10
26.157264
20
61.0600058
11
26.162064
21
61.0716058
0
LINE
8
DEFAULT_255_2_778
10
26.162064
20
61.0716058
11
26.166564
21
61.0828058
0
LINE
8
DEFAULT_255_2_778
10
26.166564
20
61.0828058
11
26.170264
21
61.0936058
0
LINE
8
DEFAULT_255_2_778
10
26.170264
20
61.0936058
11
26.173464
21
61.1036058
0
LINE
8
DEFAULT_255_2_778
10
26.173464
20
61.1036058
11
26.176364
21
61.1134058
0
LINE
8
DEFAULT_255_2_778
10
26.176364
20
61.1134058
11
26.178664
21
61.1232058
0
LINE
8
DEFAULT_255_2_778
10
26.178664
20
61.1232058
11
26.180064
21
61.1296058
0
LINE
8
DEFAULT_255_2_778
10
26.180064
20
61.1296058
11
26.181664
21
61.1383058
0
LINE
8
DEFAULT_255_2_778
10
26.181664
20
61.1383058
11
26.182664
21
61.1468058
0
LINE
8
DEFAULT_255_2_778
10
26.182664
20
61.1468058
11
26.183464
21
61.1552058
0
LINE
8
DEFAULT_255_2_778
10
26.183464
20
61.1552058
11
26.183964
21
61.1629058
0
LINE
8
DEFAULT_255_2_778
10
26.183964
20
61.1629058
11
26.184264
21
61.1703058
0
LINE
8
DEFAULT_255_2_778
10
26.184264
20
61.1703058
11
25.036464
21
61.1703058
0
LINE
8
DEFAULT_255_2_778
10
24.706064
20
61.7429058
11
24.739364
21
61.7723058
0
LINE
8
DEFAULT_255_2_778
10
24.739364
20
61.7723058
11
24.742264
21
61.7752058
0
LINE
8
DEFAULT_255_2_778
10
24.742264
20
61.7752058
11
24.755264
21
61.7873058
0
LINE
8
DEFAULT_255_2_778
10
24.755264
20
61.7873058
11
24.767964
21
61.8000058
0
LINE
8
DEFAULT_255_2_778
10
24.767964
20
61.8000058
11
24.780364
21
61.8127058
0
LINE
8
DEFAULT_255_2_778
10
24.780364
20
61.8127058
11
24.792564
21
61.8257058
0
LINE
8
DEFAULT_255_2_778
10
24.792564
20
61.8257058
11
24.804464
21
61.8389058
0
LINE
8
DEFAULT_255_2_778
10
24.804464
20
61.8389058
11
24.816064
21
61.8527058
0
LINE
8
DEFAULT_255_2_778
10
24.816064
20
61.8527058
11
24.825864
21
61.8643058
0
LINE
8
DEFAULT_255_2_778
10
24.825864
20
61.8643058
11
24.836764
21
61.8776058
0
LINE
8
DEFAULT_255_2_778
10
24.836764
20
61.8776058
11
24.847064
21
61.8913058
0
LINE
8
DEFAULT_255_2_778
10
24.847064
20
61.8913058
11
24.857064
21
61.9045058
0
LINE
8
DEFAULT_255_2_778
10
24.857064
20
61.9045058
11
24.866664
21
61.9183058
0
LINE
8
DEFAULT_255_2_778
10
24.866664
20
61.9183058
11
24.875864
21
61.9315058
0
LINE
8
DEFAULT_255_2_778
10
24.875864
20
61.9315058
11
24.884864
21
61.9453058
0
LINE
8
DEFAULT_255_2_778
10
24.884864
20
61.9453058
11
24.887564
21
61.9495058
0
LINE
8
DEFAULT_255_2_778
10
24.887564
20
61.9495058
11
24.895464
21
61.9625058
0
LINE
8
DEFAULT_255_2_778
10
24.895464
20
61.9625058
11
24.902864
21
61.9752058
0
LINE
8
DEFAULT_255_2_778
10
24.902864
20
61.9752058
11
24.909764
21
61.9879058
0
LINE
8
DEFAULT_255_2_778
10
24.909764
20
61.9879058
11
24.916164
21
61.9998058
0
LINE
8
DEFAULT_255_2_778
10
24.916164
20
61.9998058
11
24.921964
21
62.0117058
0
LINE
8
DEFAULT_255_2_778
10
24.921964
20
62.0117058
11
24.927464
21
62.0233058
0
LINE
8
DEFAULT_255_2_778
10
24.927464
20
62.0233058
11
24.932564
21
62.0350058
0
LINE
8
DEFAULT_255_2_778
10
24.932564
20
62.0350058
11
24.936964
21
62.0466058
0
LINE
8
DEFAULT_255_2_778
10
24.936964
20
62.0466058
11
24.940764
21
62.0564058
0
LINE
8
DEFAULT_255_2_778
10
24.940764
20
62.0564058
11
24.944164
21
62.0670058
0
LINE
8
DEFAULT_255_2_778
10
24.944164
20
62.0670058
11
24.947364
21
62.0771058
0
LINE
8
DEFAULT_255_2_778
10
24.947364
20
62.0771058
11
24.949964
21
62.0866058
0
LINE
8
DEFAULT_255_2_778
10
24.949964
20
62.0866058
11
24.952364
21
62.0961058
0
LINE
8
DEFAULT_255_2_778
10
24.952364
20
62.0961058
11
24.953464
21
62.1014058
0
LINE
8
DEFAULT_255_2_778
10
24.953464
20
62.1014058
11
24.954964
21
62.1101058
0
LINE
8
DEFAULT_255_2_778
10
24.954964
20
62.1101058
11
24.956064
21
62.1186058
0
LINE
8
DEFAULT_255_2_778
10
24.956064
20
62.1186058
11
24.956864
21
62.1263058
0
LINE
8
DEFAULT_255_2_778
10
24.956864
20
62.1263058
11
24.957364
21
62.1339058
0
LINE
8
DEFAULT_255_2_778
10
24.957364
20
62.1339058
11
24.957664
21
62.1413058
0
LINE
8
DEFAULT_255_2_778
10
24.957664
20
62.1413058
11
24.467064
21
62.1413058
0
LINE
8
DEFAULT_255_2_778
10
25.989264
20
59.7844058
11
26.010664
21
59.8061058
0
LINE
8
DEFAULT_255_2_778
10
26.010664
20
59.8061058
11
26.019164
21
59.8151058
0
LINE
8
DEFAULT_255_2_778
10
26.019164
20
59.8151058
11
26.030264
21
59.8273058
0
LINE
8
DEFAULT_255_2_778
10
26.030264
20
59.8273058
11
26.041164
21
59.8400058
0
LINE
8
DEFAULT_255_2_778
10
26.041164
20
59.8400058
11
26.051664
21
59.8522058
0
LINE
8
DEFAULT_255_2_778
10
26.051664
20
59.8522058
11
26.061764
21
59.8643058
0
LINE
8
DEFAULT_255_2_778
10
26.061764
20
59.8643058
11
26.071264
21
59.8770058
0
LINE
8
DEFAULT_255_2_778
10
26.071264
20
59.8770058
11
26.080564
21
59.8892058
0
LINE
8
DEFAULT_255_2_778
10
26.080564
20
59.8892058
11
26.089564
21
59.9014058
0
LINE
8
DEFAULT_255_2_778
10
26.089564
20
59.9014058
11
26.098264
21
59.9136058
0
LINE
8
DEFAULT_255_2_778
10
26.098264
20
59.9136058
11
26.106464
21
59.9257058
0
LINE
8
DEFAULT_255_2_778
10
26.106464
20
59.9257058
11
26.114164
21
59.9384058
0
LINE
8
DEFAULT_255_2_778
10
26.114164
20
59.9384058
11
26.121864
21
59.9506058
0
LINE
8
DEFAULT_255_2_778
10
26.121864
20
59.9506058
11
26.128964
21
59.9628058
0
LINE
8
DEFAULT_255_2_778
10
26.128964
20
59.9628058
11
26.135564
21
59.9744058
0
LINE
8
DEFAULT_255_2_778
10
26.135564
20
59.9744058
11
26.141664
21
59.9861058
0
LINE
8
DEFAULT_255_2_778
10
26.141664
20
59.9861058
11
26.147264
21
59.9972058
0
LINE
8
DEFAULT_255_2_778
10
26.147264
20
59.9972058
11
26.152464
21
60.0080058
0
LINE
8
DEFAULT_255_2_778
10
26.152464
20
60.0080058
11
26.157264
21
60.0186058
0
LINE
8
DEFAULT_255_2_778
10
26.157264
20
60.0186058
11
26.161764
21
60.0292058
0
LINE
8
DEFAULT_255_2_778
10
26.161764
20
60.0292058
11
26.165764
21
60.0398058
0
LINE
8
DEFAULT_255_2_778
10
26.165764
20
60.0398058
11
26.169464
21
60.0498058
0
LINE
8
DEFAULT_255_2_778
10
26.169464
20
60.0498058
11
26.172364
21
60.0586058
0
LINE
8
DEFAULT_255_2_778
10
26.172364
20
60.0586058
11
26.175264
21
60.0675058
0
LINE
8
DEFAULT_255_2_778
10
26.175264
20
60.0675058
11
26.177664
21
60.0763058
0
LINE
8
DEFAULT_255_2_778
10
26.177664
20
60.0763058
11
26.179764
21
60.0847058
0
LINE
8
DEFAULT_255_2_778
10
26.179764
20
60.0847058
11
26.181364
21
60.0927058
0
LINE
8
DEFAULT_255_2_778
10
26.181364
20
60.0927058
11
26.182664
21
60.1006058
0
LINE
8
DEFAULT_255_2_778
10
26.182664
20
60.1006058
11
26.183764
21
60.1080058
0
LINE
8
DEFAULT_255_2_778
10
26.183764
20
60.1080058
11
26.184564
21
60.1157058
0
LINE
8
DEFAULT_255_2_778
10
26.184564
20
60.1157058
11
26.185064
21
60.1226058
0
LINE
8
DEFAULT_255_2_778
10
26.185064
20
60.1226058
11
26.185064
21
60.1295058
0
LINE
8
DEFAULT_255_2_778
10
33.389964
20
60.0559058
11
33.411364
21
60.0279058
0
LINE
8
DEFAULT_255_2_778
10
33.411364
20
60.0279058
11
33.422764
21
60.0136058
0
LINE
8
DEFAULT_255_2_778
10
33.422764
20
60.0136058
11
33.434664
21
59.9993058
0
LINE
8
DEFAULT_255_2_778
10
33.434664
20
59.9993058
11
33.447064
21
59.9850058
0
LINE
8
DEFAULT_255_2_778
10
33.447064
20
59.9850058
11
33.459464
21
59.9707058
0
LINE
8
DEFAULT_255_2_778
10
33.459464
20
59.9707058
11
33.472464
21
59.9564058
0
LINE
8
DEFAULT_255_2_778
10
33.472464
20
59.9564058
11
33.485664
21
59.9421058
0
LINE
8
DEFAULT_255_2_778
10
33.485664
20
59.9421058
11
33.499464
21
59.9278058
0
LINE
8
DEFAULT_255_2_778
10
33.499464
20
59.9278058
11
33.511364
21
59.9159058
0
LINE
8
DEFAULT_255_2_778
10
33.511364
20
59.9159058
11
33.519064
21
59.9083058
0
LINE
8
DEFAULT_255_2_778
10
33.519064
20
59.9083058
11
33.533364
21
59.8942058
0
LINE
8
DEFAULT_255_2_778
10
33.533364
20
59.8942058
11
33.547864
21
59.8802058
0
LINE
8
DEFAULT_255_2_778
10
33.547864
20
59.8802058
11
33.562664
21
59.8670058
0
LINE
8
DEFAULT_255_2_778
10
33.562664
20
59.8670058
11
33.577564
21
59.8532058
0
LINE
8
DEFAULT_255_2_778
10
33.577564
20
59.8532058
11
33.592564
21
59.8403058
0
LINE
8
DEFAULT_255_2_778
10
33.592564
20
59.8403058
11
33.607964
21
59.8273058
0
LINE
8
DEFAULT_255_2_778
10
33.607964
20
59.8273058
11
33.623264
21
59.8146058
0
LINE
8
DEFAULT_255_2_778
10
33.623264
20
59.8146058
11
33.634164
21
59.8059058
0
LINE
8
DEFAULT_255_2_778
10
25.551664
20
60.7758058
11
25.546664
21
60.7758058
0
LINE
8
DEFAULT_255_2_778
10
25.546664
20
60.7758058
11
25.524964
21
60.7766058
0
LINE
8
DEFAULT_255_2_778
10
25.524964
20
60.7766058
11
25.503464
21
60.7774058
0
LINE
8
DEFAULT_255_2_778
10
25.503464
20
60.7774058
11
25.482064
21
60.7793058
0
LINE
8
DEFAULT_255_2_778
10
25.482064
20
60.7793058
11
25.460664
21
60.7814058
0
LINE
8
DEFAULT_255_2_778
10
25.460664
20
60.7814058
11
25.439464
21
60.7843058
0
LINE
8
DEFAULT_255_2_778
10
25.439464
20
60.7843058
11
25.418564
21
60.7875058
0
LINE
8
DEFAULT_255_2_778
10
25.418564
20
60.7875058
11
25.397664
21
60.7914058
0
LINE
8
DEFAULT_255_2_778
10
25.397664
20
60.7914058
11
25.377264
21
60.7957058
0
LINE
8
DEFAULT_255_2_778
10
25.377264
20
60.7957058
11
25.357164
21
60.8007058
0
LINE
8
DEFAULT_255_2_778
10
25.357164
20
60.8007058
11
25.337364
21
60.8063058
0
LINE
8
DEFAULT_255_2_778
10
25.337364
20
60.8063058
11
25.324864
21
60.8097058
0
LINE
8
DEFAULT_255_2_778
10
25.324864
20
60.8097058
11
25.305564
21
60.8160058
0
LINE
8
DEFAULT_255_2_778
10
25.305564
20
60.8160058
11
25.286564
21
60.8227058
0
LINE
8
DEFAULT_255_2_778
10
25.286564
20
60.8227058
11
25.267964
21
60.8295058
0
LINE
8
DEFAULT_255_2_778
10
25.267964
20
60.8295058
11
25.250064
21
60.8372058
0
LINE
8
DEFAULT_255_2_778
10
25.250064
20
60.8372058
11
25.232564
21
60.8449058
0
LINE
8
DEFAULT_255_2_778
10
25.232564
20
60.8449058
11
25.215664
21
60.8534058
0
LINE
8
DEFAULT_255_2_778
10
25.215664
20
60.8534058
11
25.198964
21
60.8621058
0
LINE
8
DEFAULT_255_2_778
10
25.198964
20
60.8621058
11
25.182864
21
60.8711058
0
LINE
8
DEFAULT_255_2_778
10
25.182864
20
60.8711058
11
25.167164
21
60.8806058
0
LINE
8
DEFAULT_255_2_778
10
25.167164
20
60.8806058
11
25.152164
21
60.8904058
0
LINE
8
DEFAULT_255_2_778
10
25.152164
20
60.8904058
11
25.144164
21
60.8960058
0
LINE
8
DEFAULT_255_2_778
10
25.144164
20
60.8960058
11
25.129864
21
60.9060058
0
LINE
8
DEFAULT_255_2_778
10
25.129864
20
60.9060058
11
25.116164
21
60.9169058
0
LINE
8
DEFAULT_255_2_778
10
25.116164
20
60.9169058
11
25.103164
21
60.9277058
0
LINE
8
DEFAULT_255_2_778
10
25.103164
20
60.9277058
11
25.090764
21
60.9386058
0
LINE
8
DEFAULT_255_2_778
10
25.090764
20
60.9386058
11
25.078864
21
60.9502058
0
LINE
8
DEFAULT_255_2_778
10
25.078864
20
60.9502058
11
25.070664
21
60.9587058
0
LINE
8
DEFAULT_255_2_778
10
25.070664
20
60.9587058
11
25.059564
21
60.9703058
0
LINE
8
DEFAULT_255_2_778
10
25.059564
20
60.9703058
11
25.049164
21
60.9822058
0
LINE
8
DEFAULT_255_2_778
10
25.049164
20
60.9822058
11
25.039664
21
60.9941058
0
LINE
8
DEFAULT_255_2_778
10
25.039664
20
60.9941058
11
25.030464
21
61.0063058
0
LINE
8
DEFAULT_255_2_778
10
25.030464
20
61.0063058
11
25.021664
21
61.0185058
0
LINE
8
DEFAULT_255_2_778
10
25.021664
20
61.0185058
11
25.014564
21
61.0296058
0
LINE
8
DEFAULT_255_2_778
10
25.014564
20
61.0296058
11
25.007164
21
61.0423058
0
LINE
8
DEFAULT_255_2_778
10
25.007164
20
61.0423058
11
25.000264
21
61.0552058
0
LINE
8
DEFAULT_255_2_778
10
25.000264
20
61.0552058
11
24.993864
21
61.0679058
0
LINE
8
DEFAULT_255_2_778
10
24.993864
20
61.0679058
11
24.988364
21
61.0809058
0
LINE
8
DEFAULT_255_2_778
10
24.988364
20
61.0809058
11
24.983364
21
61.0936058
0
LINE
8
DEFAULT_255_2_778
10
24.983364
20
61.0936058
11
24.978864
21
61.1066058
0
LINE
8
DEFAULT_255_2_778
10
24.978864
20
61.1066058
11
24.974864
21
61.1198058
0
LINE
8
DEFAULT_255_2_778
10
24.974864
20
61.1198058
11
24.971364
21
61.1330058
0
LINE
8
DEFAULT_255_2_778
10
24.971364
20
61.1330058
11
24.968464
21
61.1463058
0
LINE
8
DEFAULT_255_2_778
10
24.968464
20
61.1463058
11
24.966364
21
61.1592058
0
LINE
8
DEFAULT_255_2_778
10
24.966364
20
61.1592058
11
24.964564
21
61.1724058
0
LINE
8
DEFAULT_255_2_778
10
24.964564
20
61.1724058
11
24.962664
21
61.2074058
0
LINE
8
DEFAULT_255_2_778
10
24.962664
20
61.2074058
11
24.962664
21
66.8099058
0
LINE
8
DEFAULT_255_2_778
10
24.962664
20
66.8099058
11
24.962664
21
66.8102058
0
LINE
8
DEFAULT_255_2_778
10
24.962664
20
66.8102058
11
24.962664
21
66.8197058
0
LINE
8
DEFAULT_255_2_778
10
24.962664
20
66.8197058
11
24.962964
21
66.8287058
0
LINE
8
DEFAULT_255_2_778
10
24.962964
20
66.8287058
11
24.963764
21
66.8382058
0
LINE
8
DEFAULT_255_2_778
10
24.963764
20
66.8382058
11
24.964764
21
66.8472058
0
LINE
8
DEFAULT_255_2_778
10
24.964764
20
66.8472058
11
24.965864
21
66.8568058
0
LINE
8
DEFAULT_255_2_778
10
24.965864
20
66.8568058
11
24.967464
21
66.8663058
0
LINE
8
DEFAULT_255_2_778
10
24.967464
20
66.8663058
11
24.969064
21
66.8753058
0
LINE
8
DEFAULT_255_2_778
10
24.969064
20
66.8753058
11
24.971164
21
66.8848058
0
LINE
8
DEFAULT_255_2_778
10
24.971164
20
66.8848058
11
24.973564
21
66.8943058
0
LINE
8
DEFAULT_255_2_778
10
24.973564
20
66.8943058
11
24.976164
21
66.9033058
0
LINE
8
DEFAULT_255_2_778
10
24.976164
20
66.9033058
11
24.979064
21
66.9123058
0
LINE
8
DEFAULT_255_2_778
10
24.979064
20
66.9123058
11
24.982264
21
66.9213058
0
LINE
8
DEFAULT_255_2_778
10
24.982264
20
66.9213058
11
24.982564
21
66.9216058
0
LINE
8
DEFAULT_255_2_778
10
24.982564
20
66.9216058
11
24.983364
21
66.9237058
0
LINE
8
DEFAULT_255_2_778
10
24.983364
20
66.9237058
11
24.984864
21
66.9279058
0
LINE
8
DEFAULT_255_2_778
10
24.984864
20
66.9279058
11
24.986764
21
66.9324058
0
LINE
8
DEFAULT_255_2_778
10
24.986764
20
66.9324058
11
24.987564
21
66.9345058
0
LINE
8
DEFAULT_255_2_778
10
24.987564
20
66.9345058
11
24.989364
21
66.9388058
0
LINE
8
DEFAULT_255_2_778
10
24.989364
20
66.9388058
11
24.991264
21
66.9433058
0
LINE
8
DEFAULT_255_2_778
10
24.991264
20
66.9433058
11
24.993064
21
66.9475058
0
LINE
8
DEFAULT_255_2_778
10
24.993064
20
66.9475058
11
24.995264
21
66.9517058
0
LINE
8
DEFAULT_255_2_778
10
24.995264
20
66.9517058
11
24.997364
21
66.9560058
0
LINE
8
DEFAULT_255_2_778
10
24.997364
20
66.9560058
11
24.999464
21
66.9602058
0
LINE
8
DEFAULT_255_2_778
10
24.999464
20
66.9602058
11
25.001564
21
66.9642058
0
LINE
8
DEFAULT_255_2_778
10
25.001564
20
66.9642058
11
25.007964
21
66.9761058
0
LINE
8
DEFAULT_255_2_778
10
25.007964
20
66.9761058
11
25.014764
21
66.9877058
0
LINE
8
DEFAULT_255_2_778
10
25.014764
20
66.9877058
11
25.022264
21
66.9996058
0
LINE
8
DEFAULT_255_2_778
10
25.022264
20
66.9996058
11
25.030464
21
67.0107058
0
LINE
8
DEFAULT_255_2_778
10
25.030464
20
67.0107058
11
25.038864
21
67.0224058
0
LINE
8
DEFAULT_255_2_778
10
25.038864
20
67.0224058
11
25.048164
21
67.0335058
0
LINE
8
DEFAULT_255_2_778
10
25.048164
20
67.0335058
11
25.057664
21
67.0446058
0
LINE
8
DEFAULT_255_2_778
10
25.057664
20
67.0446058
11
25.067764
21
67.0557058
0
LINE
8
DEFAULT_255_2_778
10
25.067764
20
67.0557058
11
25.078264
21
67.0666058
0
LINE
8
DEFAULT_255_2_778
10
25.078264
20
67.0666058
11
25.088864
21
67.0766058
0
LINE
8
DEFAULT_255_2_778
10
25.088864
20
67.0766058
11
25.100264
21
67.0867058
0
LINE
8
DEFAULT_255_2_778
10
25.100264
20
67.0867058
11
25.112164
21
67.0967058
0
LINE
8
DEFAULT_255_2_778
10
25.112164
20
67.0967058
11
25.124564
21
67.1068058
0
LINE
8
DEFAULT_255_2_778
10
25.124564
20
67.1068058
11
25.137564
21
67.1163058
0
LINE
8
DEFAULT_255_2_778
10
25.137564
20
67.1163058
11
25.150764
21
67.1258058
0
LINE
8
DEFAULT_255_2_778
10
25.150764
20
67.1258058
11
25.164864
21
67.1348058
0
LINE
8
DEFAULT_255_2_778
10
25.164864
20
67.1348058
11
25.179064
21
67.1436058
0
LINE
8
DEFAULT_255_2_778
10
25.179064
20
67.1436058
11
25.193964
21
67.1523058
0
LINE
8
DEFAULT_255_2_778
10
25.193964
20
67.1523058
11
25.209264
21
67.1608058
0
LINE
8
DEFAULT_255_2_778
10
25.209264
20
67.1608058
11
25.217164
21
67.1647058
0
LINE
8
DEFAULT_255_2_778
10
25.217164
20
67.1647058
11
25.233364
21
67.1727058
0
LINE
8
DEFAULT_255_2_778
10
25.233364
20
67.1727058
11
25.250064
21
67.1801058
0
LINE
8
DEFAULT_255_2_778
10
25.250064
20
67.1801058
11
25.266964
21
67.1870058
0
LINE
8
DEFAULT_255_2_778
10
25.266964
20
67.1870058
11
25.284164
21
67.1936058
0
LINE
8
DEFAULT_255_2_778
10
25.284164
20
67.1936058
11
25.301664
21
67.1999058
0
LINE
8
DEFAULT_255_2_778
10
25.301664
20
67.1999058
11
25.319564
21
67.2057058
0
LINE
8
DEFAULT_255_2_778
10
25.319564
20
67.2057058
11
25.337864
21
67.2110058
0
LINE
8
DEFAULT_255_2_778
10
25.337864
20
67.2110058
11
25.356364
21
67.2163058
0
LINE
8
DEFAULT_255_2_778
10
25.356364
20
67.2163058
11
25.375164
21
67.2208058
0
LINE
8
DEFAULT_255_2_778
10
25.375164
20
67.2208058
11
25.376264
21
67.2208058
0
LINE
8
DEFAULT_255_2_778
10
25.376264
20
67.2208058
11
25.395264
21
67.2251058
0
LINE
8
DEFAULT_255_2_778
10
25.395264
20
67.2251058
11
25.414564
21
67.2285058
0
LINE
8
DEFAULT_255_2_778
10
25.414564
20
67.2285058
11
25.433864
21
67.2317058
0
LINE
8
DEFAULT_255_2_778
10
25.433864
20
67.2317058
11
25.453764
21
67.2346058
0
LINE
8
DEFAULT_255_2_778
10
25.453764
20
67.2346058
11
25.473564
21
67.2367058
0
LINE
8
DEFAULT_255_2_778
10
25.473564
20
67.2367058
11
25.493464
21
67.2385058
0
LINE
8
DEFAULT_255_2_778
10
25.493464
20
67.2385058
11
25.513564
21
67.2396058
0
LINE
8
DEFAULT_255_2_778
10
25.513564
20
67.2396058
11
25.533664
21
67.2404058
0
LINE
8
DEFAULT_255_2_778
10
25.533664
20
67.2404058
11
25.550564
21
67.2407058
0
LINE
8
DEFAULT_255_2_778
10
25.550564
20
67.2407058
11
25.746864
21
67.2407058
0
LINE
8
DEFAULT_255_2_778
10
25.746864
20
67.2407058
11
25.754564
21
67.2407058
0
LINE
8
DEFAULT_255_2_778
10
25.754564
20
67.2407058
11
25.763264
21
67.2409058
0
LINE
8
DEFAULT_255_2_778
10
25.763264
20
67.2409058
11
25.772064
21
67.2417058
0
LINE
8
DEFAULT_255_2_778
10
25.772064
20
67.2417058
11
25.780764
21
67.2428058
0
LINE
8
DEFAULT_255_2_778
10
25.780764
20
67.2428058
11
25.789264
21
67.2438058
0
LINE
8
DEFAULT_255_2_778
10
25.789264
20
67.2438058
11
25.797664
21
67.2457058
0
LINE
8
DEFAULT_255_2_778
10
25.797664
20
67.2457058
11
25.805864
21
67.2475058
0
LINE
8
DEFAULT_255_2_778
10
25.805864
20
67.2475058
11
25.814064
21
67.2497058
0
LINE
8
DEFAULT_255_2_778
10
25.814064
20
67.2497058
11
25.822064
21
67.2518058
0
LINE
8
DEFAULT_255_2_778
10
25.822064
20
67.2518058
11
25.824164
21
67.2526058
0
LINE
8
DEFAULT_255_2_778
10
25.824164
20
67.2526058
11
25.831864
21
67.2549058
0
LINE
8
DEFAULT_255_2_778
10
25.831864
20
67.2549058
11
25.839464
21
67.2579058
0
LINE
8
DEFAULT_255_2_778
10
25.839464
20
67.2579058
11
25.846664
21
67.2610058
0
LINE
8
DEFAULT_255_2_778
10
25.846664
20
67.2610058
11
25.853764
21
67.2642058
0
LINE
8
DEFAULT_255_2_778
10
25.853764
20
67.2642058
11
25.860664
21
67.2676058
0
LINE
8
DEFAULT_255_2_778
10
25.860664
20
67.2676058
11
25.867564
21
67.2711058
0
LINE
8
DEFAULT_255_2_778
10
25.867564
20
67.2711058
11
25.873864
21
67.2751058
0
LINE
8
DEFAULT_255_2_778
10
25.873864
20
67.2751058
11
25.880264
21
67.2790058
0
LINE
8
DEFAULT_255_2_778
10
25.880264
20
67.2790058
11
25.886064
21
67.2833058
0
LINE
8
DEFAULT_255_2_778
10
25.886064
20
67.2833058
11
25.891364
21
67.2875058
0
LINE
8
DEFAULT_255_2_778
10
25.891364
20
67.2875058
11
25.896664
21
67.2917058
0
LINE
8
DEFAULT_255_2_778
10
25.896664
20
67.2917058
11
25.901664
21
67.2962058
0
LINE
8
DEFAULT_255_2_778
10
25.901664
20
67.2962058
11
25.906464
21
67.3007058
0
LINE
8
DEFAULT_255_2_778
10
25.906464
20
67.3007058
11
25.910964
21
67.3058058
0
LINE
8
DEFAULT_255_2_778
10
25.910964
20
67.3058058
11
25.915164
21
67.3102058
0
LINE
8
DEFAULT_255_2_778
10
25.915164
20
67.3102058
11
25.918864
21
67.3153058
0
LINE
8
DEFAULT_255_2_778
10
25.918864
20
67.3153058
11
25.922364
21
67.3203058
0
LINE
8
DEFAULT_255_2_778
10
25.922364
20
67.3203058
11
25.925464
21
67.3253058
0
LINE
8
DEFAULT_255_2_778
10
25.925464
20
67.3253058
11
25.928664
21
67.3304058
0
LINE
8
DEFAULT_255_2_778
10
25.928664
20
67.3304058
11
25.929464
21
67.3322058
0
LINE
8
DEFAULT_255_2_778
10
25.929464
20
67.3322058
11
25.932164
21
67.3375058
0
LINE
8
DEFAULT_255_2_778
10
25.932164
20
67.3375058
11
25.934464
21
67.3428058
0
LINE
8
DEFAULT_255_2_778
10
25.934464
20
67.3428058
11
25.936564
21
67.3484058
0
LINE
8
DEFAULT_255_2_778
10
25.936564
20
67.3484058
11
25.938464
21
67.3536058
0
LINE
8
DEFAULT_255_2_778
10
25.938464
20
67.3536058
11
25.940064
21
67.3589058
0
LINE
8
DEFAULT_255_2_778
10
25.940064
20
67.3589058
11
25.941364
21
67.3645058
0
LINE
8
DEFAULT_255_2_778
10
25.941364
20
67.3645058
11
25.942464
21
67.3698058
0
LINE
8
DEFAULT_255_2_778
10
25.942464
20
67.3698058
11
25.943264
21
67.3753058
0
LINE
8
DEFAULT_255_2_778
10
25.943264
20
67.3753058
11
25.943464
21
67.3806058
0
LINE
8
DEFAULT_255_2_778
10
25.943464
20
67.3806058
11
25.943764
21
67.3857058
0
LINE
8
DEFAULT_255_2_778
10
25.943764
20
67.3857058
11
25.943764
21
68.3196058
0
LINE
8
DEFAULT_255_2_778
10
25.943764
20
68.3196058
11
25.943764
21
68.3247058
0
LINE
8
DEFAULT_255_2_778
10
25.943764
20
68.3247058
11
25.944064
21
68.3300058
0
LINE
8
DEFAULT_255_2_778
10
25.944064
20
68.3300058
11
25.944864
21
68.3355058
0
LINE
8
DEFAULT_255_2_778
10
25.944864
20
68.3355058
11
25.945864
21
68.3408058
0
LINE
8
DEFAULT_255_2_778
10
25.945864
20
68.3408058
11
25.947164
21
68.3461058
0
LINE
8
DEFAULT_255_2_778
10
25.947164
20
68.3461058
11
25.948764
21
68.3516058
0
LINE
8
DEFAULT_255_2_778
10
25.948764
20
68.3516058
11
25.950664
21
68.3569058
0
LINE
8
DEFAULT_255_2_778
10
25.950664
20
68.3569058
11
25.952764
21
68.3625058
0
LINE
8
DEFAULT_255_2_778
10
25.952764
20
68.3625058
11
25.955164
21
68.3678058
0
LINE
8
DEFAULT_255_2_778
10
25.955164
20
68.3678058
11
25.957764
21
68.3731058
0
LINE
8
DEFAULT_255_2_778
10
25.957764
20
68.3731058
11
25.958564
21
68.3749058
0
LINE
8
DEFAULT_255_2_778
10
25.958564
20
68.3749058
11
25.961764
21
68.3800058
0
LINE
8
DEFAULT_255_2_778
10
25.961764
20
68.3800058
11
25.964964
21
68.3850058
0
LINE
8
DEFAULT_255_2_778
10
25.964964
20
68.3850058
11
25.968364
21
68.3900058
0
LINE
8
DEFAULT_255_2_778
10
25.968364
20
68.3900058
11
25.972364
21
68.3950058
0
LINE
8
DEFAULT_255_2_778
10
25.972364
20
68.3950058
11
25.976264
21
68.3995058
0
LINE
8
DEFAULT_255_2_778
10
25.976264
20
68.3995058
11
25.980764
21
68.4046058
0
LINE
8
DEFAULT_255_2_778
10
25.980764
20
68.4046058
11
25.985564
21
68.4091058
0
LINE
8
DEFAULT_255_2_778
10
25.985564
20
68.4091058
11
25.990564
21
68.4133058
0
LINE
8
DEFAULT_255_2_778
10
25.990564
20
68.4133058
11
25.995864
21
68.4178058
0
LINE
8
DEFAULT_255_2_778
10
25.995864
20
68.4178058
11
26.001164
21
68.4220058
0
LINE
8
DEFAULT_255_2_778
10
26.001164
20
68.4220058
11
26.006964
21
68.4263058
0
LINE
8
DEFAULT_255_2_778
10
26.006964
20
68.4263058
11
26.013364
21
68.4302058
0
LINE
8
DEFAULT_255_2_778
10
26.013364
20
68.4302058
11
26.019664
21
68.4342058
0
LINE
8
DEFAULT_255_2_778
10
26.019664
20
68.4342058
11
26.026564
21
68.4376058
0
LINE
8
DEFAULT_255_2_778
10
26.026564
20
68.4376058
11
26.033464
21
68.4411058
0
LINE
8
DEFAULT_255_2_778
10
26.033464
20
68.4411058
11
26.040564
21
68.4443058
0
LINE
8
DEFAULT_255_2_778
10
26.040564
20
68.4443058
11
26.047764
21
68.4474058
0
LINE
8
DEFAULT_255_2_778
10
26.047764
20
68.4474058
11
26.055364
21
68.4503058
0
LINE
8
DEFAULT_255_2_778
10
26.055364
20
68.4503058
11
26.063064
21
68.4527058
0
LINE
8
DEFAULT_255_2_778
10
26.063064
20
68.4527058
11
26.065164
21
68.4535058
0
LINE
8
DEFAULT_255_2_778
10
26.065164
20
68.4535058
11
26.073164
21
68.4556058
0
LINE
8
DEFAULT_255_2_778
10
26.073164
20
68.4556058
11
26.081364
21
68.4577058
0
LINE
8
DEFAULT_255_2_778
10
26.081364
20
68.4577058
11
26.089564
21
68.4596058
0
LINE
8
DEFAULT_255_2_778
10
26.089564
20
68.4596058
11
26.097964
21
68.4609058
0
LINE
8
DEFAULT_255_2_778
10
26.097964
20
68.4609058
11
26.106464
21
68.4622058
0
LINE
8
DEFAULT_255_2_778
10
26.106464
20
68.4622058
11
26.115164
21
68.4633058
0
LINE
8
DEFAULT_255_2_778
10
26.115164
20
68.4633058
11
26.123964
21
68.4641058
0
LINE
8
DEFAULT_255_2_778
10
26.123964
20
68.4641058
11
26.132664
21
68.4644058
0
LINE
8
DEFAULT_255_2_778
10
26.132664
20
68.4644058
11
26.140364
21
68.4644058
0
LINE
8
DEFAULT_255_2_778
10
26.140364
20
68.4644058
11
28.448264
21
68.4644058
0
LINE
8
DEFAULT_255_2_778
10
28.448264
20
68.4644058
11
28.454664
21
68.4646058
0
LINE
8
DEFAULT_255_2_778
10
28.454664
20
68.4646058
11
28.460764
21
68.4649058
0
LINE
8
DEFAULT_255_2_778
10
28.460764
20
68.4649058
11
28.466864
21
68.4657058
0
LINE
8
DEFAULT_255_2_778
10
28.466864
20
68.4657058
11
28.472664
21
68.4667058
0
LINE
8
DEFAULT_255_2_778
10
28.472664
20
68.4667058
11
28.478464
21
68.4681058
0
LINE
8
DEFAULT_255_2_778
10
28.478464
20
68.4681058
11
28.484264
21
68.4699058
0
LINE
8
DEFAULT_255_2_778
10
28.484264
20
68.4699058
11
28.487464
21
68.4710058
0
LINE
8
DEFAULT_255_2_778
10
28.487464
20
68.4710058
11
28.492764
21
68.4728058
0
LINE
8
DEFAULT_255_2_778
10
28.492764
20
68.4728058
11
28.497764
21
68.4749058
0
LINE
8
DEFAULT_255_2_778
10
28.497764
20
68.4749058
11
28.502764
21
68.4773058
0
LINE
8
DEFAULT_255_2_778
10
28.502764
20
68.4773058
11
28.507564
21
68.4797058
0
LINE
8
DEFAULT_255_2_778
10
28.507564
20
68.4797058
11
28.512064
21
68.4826058
0
LINE
8
DEFAULT_255_2_778
10
28.512064
20
68.4826058
11
28.516264
21
68.4855058
0
LINE
8
DEFAULT_255_2_778
10
28.516264
20
68.4855058
11
28.516564
21
68.4858058
0
LINE
8
DEFAULT_255_2_778
10
28.516564
20
68.4858058
11
28.520564
21
68.4890058
0
LINE
8
DEFAULT_255_2_778
10
28.520564
20
68.4890058
11
28.523964
21
68.4921058
0
LINE
8
DEFAULT_255_2_778
10
28.523964
20
68.4921058
11
28.527364
21
68.4953058
0
LINE
8
DEFAULT_255_2_778
10
28.527364
20
68.4953058
11
28.530364
21
68.4985058
0
LINE
8
DEFAULT_255_2_778
10
28.530364
20
68.4985058
11
28.532964
21
68.5019058
0
LINE
8
DEFAULT_255_2_778
10
28.532964
20
68.5019058
11
28.535364
21
68.5054058
0
LINE
8
DEFAULT_255_2_778
10
28.535364
20
68.5054058
11
28.537464
21
68.5088058
0
LINE
8
DEFAULT_255_2_778
10
28.537464
20
68.5088058
11
28.538264
21
68.5099058
0
LINE
8
DEFAULT_255_2_778
10
28.538264
20
68.5099058
11
28.540064
21
68.5138058
0
LINE
8
DEFAULT_255_2_778
10
28.540064
20
68.5138058
11
28.541664
21
68.5178058
0
LINE
8
DEFAULT_255_2_778
10
28.541664
20
68.5178058
11
28.542764
21
68.5212058
0
LINE
8
DEFAULT_255_2_778
10
28.542764
20
68.5212058
11
28.543864
21
68.5252058
0
LINE
8
DEFAULT_255_2_778
10
28.543864
20
68.5252058
11
28.544564
21
68.5292058
0
LINE
8
DEFAULT_255_2_778
10
28.544564
20
68.5292058
11
28.544864
21
68.5332058
0
LINE
8
DEFAULT_255_2_778
10
28.544864
20
68.5332058
11
28.544864
21
68.5366058
0
LINE
8
DEFAULT_255_2_778
10
28.544864
20
68.5366058
11
28.544864
21
68.8959058
0
LINE
8
DEFAULT_255_2_778
10
28.544864
20
68.8959058
11
28.545164
21
68.8993058
0
LINE
8
DEFAULT_255_2_778
10
28.545164
20
68.8993058
11
28.545364
21
68.9033058
0
LINE
8
DEFAULT_255_2_778
10
28.545364
20
68.9033058
11
28.546164
21
68.9073058
0
LINE
8
DEFAULT_255_2_778
10
28.546164
20
68.9073058
11
28.546964
21
68.9107058
0
LINE
8
DEFAULT_255_2_778
10
28.546964
20
68.9107058
11
28.548264
21
68.9147058
0
LINE
8
DEFAULT_255_2_778
10
28.548264
20
68.9147058
11
28.549864
21
68.9186058
0
LINE
8
DEFAULT_255_2_778
10
28.549864
20
68.9186058
11
28.551764
21
68.9226058
0
LINE
8
DEFAULT_255_2_778
10
28.551764
20
68.9226058
11
28.552264
21
68.9237058
0
LINE
8
DEFAULT_255_2_778
10
28.552264
20
68.9237058
11
28.554364
21
68.9271058
0
LINE
8
DEFAULT_255_2_778
10
28.554364
20
68.9271058
11
28.556764
21
68.9306058
0
LINE
8
DEFAULT_255_2_778
10
28.556764
20
68.9306058
11
28.559464
21
68.9340058
0
LINE
8
DEFAULT_255_2_778
10
28.559464
20
68.9340058
11
28.562564
21
68.9372058
0
LINE
8
DEFAULT_255_2_778
10
28.562564
20
68.9372058
11
28.565764
21
68.9403058
0
LINE
8
DEFAULT_255_2_778
10
28.565764
20
68.9403058
11
28.569264
21
68.9435058
0
LINE
8
DEFAULT_255_2_778
10
28.569264
20
68.9435058
11
28.573164
21
68.9467058
0
LINE
8
DEFAULT_255_2_778
10
28.573164
20
68.9467058
11
28.573464
21
68.9470058
0
LINE
8
DEFAULT_255_2_778
10
28.573464
20
68.9470058
11
28.577664
21
68.9499058
0
LINE
8
DEFAULT_255_2_778
10
28.577664
20
68.9499058
11
28.582164
21
68.9528058
0
LINE
8
DEFAULT_255_2_778
10
28.582164
20
68.9528058
11
28.586964
21
68.9552058
0
LINE
8
DEFAULT_255_2_778
10
28.586964
20
68.9552058
11
28.591964
21
68.9575058
0
LINE
8
DEFAULT_255_2_778
10
28.591964
20
68.9575058
11
28.596964
21
68.9597058
0
LINE
8
DEFAULT_255_2_778
10
28.596964
20
68.9597058
11
28.602264
21
68.9615058
0
LINE
8
DEFAULT_255_2_778
10
28.602264
20
68.9615058
11
28.605464
21
68.9626058
0
LINE
8
DEFAULT_255_2_778
10
28.605464
20
68.9626058
11
28.610964
21
68.9644058
0
LINE
8
DEFAULT_255_2_778
10
28.610964
20
68.9644058
11
28.616864
21
68.9655058
0
LINE
8
DEFAULT_255_2_778
10
28.616864
20
68.9655058
11
28.622664
21
68.9665058
0
LINE
8
DEFAULT_255_2_778
10
28.622664
20
68.9665058
11
28.628464
21
68.9676058
0
LINE
8
DEFAULT_255_2_778
10
28.628464
20
68.9676058
11
28.634864
21
68.9679058
0
LINE
8
DEFAULT_255_2_778
10
28.634864
20
68.9679058
11
28.640964
21
68.9681058
0
LINE
8
DEFAULT_255_2_778
10
28.640964
20
68.9681058
11
28.642764
21
68.9681058
0
LINE
8
DEFAULT_255_2_778
10
28.642764
20
68.9681058
11
28.938864
21
68.9681058
0
LINE
8
DEFAULT_255_2_778
10
28.938864
20
68.9681058
11
28.945164
21
68.9679058
0
LINE
8
DEFAULT_255_2_778
10
28.945164
20
68.9679058
11
28.951264
21
68.9676058
0
LINE
8
DEFAULT_255_2_778
10
28.951264
20
68.9676058
11
28.957064
21
68.9665058
0
LINE
8
DEFAULT_255_2_778
10
28.957064
20
68.9665058
11
28.963164
21
68.9655058
0
LINE
8
DEFAULT_255_2_778
10
28.963164
20
68.9655058
11
28.968964
21
68.9644058
0
LINE
8
DEFAULT_255_2_778
10
28.968964
20
68.9644058
11
28.974864
21
68.9626058
0
LINE
8
DEFAULT_255_2_778
10
28.974864
20
68.9626058
11
28.977764
21
68.9615058
0
LINE
8
DEFAULT_255_2_778
10
28.977764
20
68.9615058
11
28.983064
21
68.9597058
0
LINE
8
DEFAULT_255_2_778
10
28.983064
20
68.9597058
11
28.988064
21
68.9575058
0
LINE
8
DEFAULT_255_2_778
10
28.988064
20
68.9575058
11
28.993064
21
68.9552058
0
LINE
8
DEFAULT_255_2_778
10
28.993064
20
68.9552058
11
28.997864
21
68.9528058
0
LINE
8
DEFAULT_255_2_778
10
28.997864
20
68.9528058
11
29.002364
21
68.9499058
0
LINE
8
DEFAULT_255_2_778
10
29.002364
20
68.9499058
11
29.006564
21
68.9470058
0
LINE
8
DEFAULT_255_2_778
10
29.006564
20
68.9470058
11
29.006864
21
68.9467058
0
LINE
8
DEFAULT_255_2_778
10
29.006864
20
68.9467058
11
29.010764
21
68.9435058
0
LINE
8
DEFAULT_255_2_778
10
29.010764
20
68.9435058
11
29.014264
21
68.9403058
0
LINE
8
DEFAULT_255_2_778
10
29.014264
20
68.9403058
11
29.017464
21
68.9372058
0
LINE
8
DEFAULT_255_2_778
10
29.017464
20
68.9372058
11
29.020564
21
68.9340058
0
LINE
8
DEFAULT_255_2_778
10
29.020564
20
68.9340058
11
29.023264
21
68.9306058
0
LINE
8
DEFAULT_255_2_778
10
29.023264
20
68.9306058
11
29.025664
21
68.9271058
0
LINE
8
DEFAULT_255_2_778
10
29.025664
20
68.9271058
11
29.027764
21
68.9237058
0
LINE
8
DEFAULT_255_2_778
10
29.027764
20
68.9237058
11
29.028564
21
68.9226058
0
LINE
8
DEFAULT_255_2_778
10
29.028564
20
68.9226058
11
29.030164
21
68.9186058
0
LINE
8
DEFAULT_255_2_778
10
29.030164
20
68.9186058
11
29.031664
21
68.9147058
0
LINE
8
DEFAULT_255_2_778
10
29.031664
20
68.9147058
11
29.033064
21
68.9107058
0
LINE
8
DEFAULT_255_2_778
10
29.033064
20
68.9107058
11
29.034064
21
68.9073058
0
LINE
8
DEFAULT_255_2_778
10
29.034064
20
68.9073058
11
29.034864
21
68.9033058
0
LINE
8
DEFAULT_255_2_778
10
29.034864
20
68.9033058
11
29.035164
21
68.8993058
0
LINE
8
DEFAULT_255_2_778
10
29.035164
20
68.8993058
11
29.035164
21
68.8959058
0
LINE
8
DEFAULT_255_2_778
10
29.035164
20
68.8959058
11
29.035164
21
68.6369058
0
LINE
8
DEFAULT_255_2_778
10
29.035164
20
68.6369058
11
30.997864
21
68.6369058
0
LINE
8
DEFAULT_255_2_778
10
30.997864
20
68.6369058
11
30.997864
21
68.8959058
0
LINE
8
DEFAULT_255_2_778
10
30.997864
20
68.8959058
11
30.997864
21
68.8993058
0
LINE
8
DEFAULT_255_2_778
10
30.997864
20
68.8993058
11
30.998364
21
68.9033058
0
LINE
8
DEFAULT_255_2_778
10
30.998364
20
68.9033058
11
30.999164
21
68.9073058
0
LINE
8
DEFAULT_255_2_778
10
30.999164
20
68.9073058
11
31.000164
21
68.9107058
0
LINE
8
DEFAULT_255_2_778
10
31.000164
20
68.9107058
11
31.001264
21
68.9147058
0
LINE
8
DEFAULT_255_2_778
10
31.001264
20
68.9147058
11
31.002864
21
68.9186058
0
LINE
8
DEFAULT_255_2_778
10
31.002864
20
68.9186058
11
31.004764
21
68.9226058
0
LINE
8
DEFAULT_255_2_778
10
31.004764
20
68.9226058
11
31.005464
21
68.9237058
0
LINE
8
DEFAULT_255_2_778
10
31.005464
20
68.9237058
11
31.007664
21
68.9271058
0
LINE
8
DEFAULT_255_2_778
10
31.007664
20
68.9271058
11
31.010264
21
68.9306058
0
LINE
8
DEFAULT_255_2_778
10
31.010264
20
68.9306058
11
31.012864
21
68.9340058
0
LINE
8
DEFAULT_255_2_778
10
31.012864
20
68.9340058
11
31.015864
21
68.9372058
0
LINE
8
DEFAULT_255_2_778
10
31.015864
20
68.9372058
11
31.019264
21
68.9403058
0
LINE
8
DEFAULT_255_2_778
10
31.019264
20
68.9403058
11
31.022664
21
68.9435058
0
LINE
8
DEFAULT_255_2_778
10
31.022664
20
68.9435058
11
31.026664
21
68.9467058
0
LINE
8
DEFAULT_255_2_778
10
31.026664
20
68.9467058
11
31.026964
21
68.9470058
0
LINE
8
DEFAULT_255_2_778
10
31.026964
20
68.9470058
11
31.031164
21
68.9499058
0
LINE
8
DEFAULT_255_2_778
10
31.031164
20
68.9499058
11
31.035664
21
68.9528058
0
LINE
8
DEFAULT_255_2_778
10
31.035664
20
68.9528058
11
31.040164
21
68.9552058
0
LINE
8
DEFAULT_255_2_778
10
31.040164
20
68.9552058
11
31.045164
21
68.9575058
0
LINE
8
DEFAULT_255_2_778
10
31.045164
20
68.9575058
11
31.050464
21
68.9597058
0
LINE
8
DEFAULT_255_2_778
10
31.050464
20
68.9597058
11
31.055764
21
68.9615058
0
LINE
8
DEFAULT_255_2_778
10
31.055764
20
68.9615058
11
31.058964
21
68.9626058
0
LINE
8
DEFAULT_255_2_778
10
31.058964
20
68.9626058
11
31.064764
21
68.9644058
0
LINE
8
DEFAULT_255_2_778
10
31.064764
20
68.9644058
11
31.070564
21
68.9655058
0
LINE
8
DEFAULT_255_2_778
10
31.070564
20
68.9655058
11
31.076464
21
68.9665058
0
LINE
8
DEFAULT_255_2_778
10
31.076464
20
68.9665058
11
31.082464
21
68.9676058
0
LINE
8
DEFAULT_255_2_778
10
31.082464
20
68.9676058
11
31.088564
21
68.9679058
0
LINE
8
DEFAULT_255_2_778
10
31.088564
20
68.9679058
11
31.094664
21
68.9681058
0
LINE
8
DEFAULT_255_2_778
10
31.094664
20
68.9681058
11
31.096564
21
68.9681058
0
LINE
8
DEFAULT_255_2_778
10
31.096564
20
68.9681058
11
31.393664
21
68.9681058
0
LINE
8
DEFAULT_255_2_778
10
31.393664
20
68.9681058
11
31.398964
21
68.9679058
0
LINE
8
DEFAULT_255_2_778
10
31.398964
20
68.9679058
11
31.403964
21
68.9676058
0
LINE
8
DEFAULT_255_2_778
10
31.403964
20
68.9676058
11
31.406064
21
68.9673058
0
LINE
8
DEFAULT_255_2_778
10
31.406064
20
68.9673058
11
31.411064
21
68.9665058
0
LINE
8
DEFAULT_255_2_778
10
31.411064
20
68.9665058
11
31.416164
21
68.9658058
0
LINE
8
DEFAULT_255_2_778
10
31.416164
20
68.9658058
11
31.421164
21
68.9647058
0
LINE
8
DEFAULT_255_2_778
10
31.421164
20
68.9647058
11
31.426164
21
68.9634058
0
LINE
8
DEFAULT_255_2_778
10
31.426164
20
68.9634058
11
31.431164
21
68.9620058
0
LINE
8
DEFAULT_255_2_778
10
31.431164
20
68.9620058
11
31.436264
21
68.9602058
0
LINE
8
DEFAULT_255_2_778
10
31.436264
20
68.9602058
11
31.440964
21
68.9581058
0
LINE
8
DEFAULT_255_2_778
10
31.440964
20
68.9581058
11
31.446064
21
68.9560058
0
LINE
8
DEFAULT_255_2_778
10
31.446064
20
68.9560058
11
31.450764
21
68.9536058
0
LINE
8
DEFAULT_255_2_778
10
31.450764
20
68.9536058
11
31.455264
21
68.9507058
0
LINE
8
DEFAULT_255_2_778
10
31.455264
20
68.9507058
11
31.459564
21
68.9478058
0
LINE
8
DEFAULT_255_2_778
10
31.459564
20
68.9478058
11
31.463464
21
68.9448058
0
LINE
8
DEFAULT_255_2_778
10
31.463464
20
68.9448058
11
31.467164
21
68.9417058
0
LINE
8
DEFAULT_255_2_778
10
31.467164
20
68.9417058
11
31.470664
21
68.9385058
0
LINE
8
DEFAULT_255_2_778
10
31.470664
20
68.9385058
11
31.473764
21
68.9351058
0
LINE
8
DEFAULT_255_2_778
10
31.473764
20
68.9351058
11
31.476664
21
68.9316058
0
LINE
8
DEFAULT_255_2_778
10
31.476664
20
68.9316058
11
31.478864
21
68.9287058
0
LINE
8
DEFAULT_255_2_778
10
31.478864
20
68.9287058
11
31.481264
21
68.9253058
0
LINE
8
DEFAULT_255_2_778
10
31.481264
20
68.9253058
11
31.483364
21
68.9218058
0
LINE
8
DEFAULT_255_2_778
10
31.483364
20
68.9218058
11
31.484964
21
68.9184058
0
LINE
8
DEFAULT_255_2_778
10
31.484964
20
68.9184058
11
31.486564
21
68.9144058
0
LINE
8
DEFAULT_255_2_778
10
31.486564
20
68.9144058
11
31.487564
21
68.9112058
0
LINE
8
DEFAULT_255_2_778
10
31.487564
20
68.9112058
11
31.488664
21
68.9073058
0
LINE
8
DEFAULT_255_2_778
10
31.488664
20
68.9073058
11
31.489464
21
68.9033058
0
LINE
8
DEFAULT_255_2_778
10
31.489464
20
68.9033058
11
31.489664
21
68.8993058
0
LINE
8
DEFAULT_255_2_778
10
31.489664
20
68.8993058
11
31.489964
21
68.8959058
0
LINE
8
DEFAULT_255_2_778
10
31.489964
20
68.8959058
11
31.489964
21
68.5366058
0
LINE
8
DEFAULT_255_2_778
10
31.489964
20
68.5366058
11
31.489964
21
68.5332058
0
LINE
8
DEFAULT_255_2_778
10
31.489964
20
68.5332058
11
31.490464
21
68.5292058
0
LINE
8
DEFAULT_255_2_778
10
31.490464
20
68.5292058
11
31.491264
21
68.5252058
0
LINE
8
DEFAULT_255_2_778
10
31.491264
20
68.5252058
11
31.492064
21
68.5212058
0
LINE
8
DEFAULT_255_2_778
10
31.492064
20
68.5212058
11
31.493364
21
68.5178058
0
LINE
8
DEFAULT_255_2_778
10
31.493364
20
68.5178058
11
31.494964
21
68.5138058
0
LINE
8
DEFAULT_255_2_778
10
31.494964
20
68.5138058
11
31.496864
21
68.5099058
0
LINE
8
DEFAULT_255_2_778
10
31.496864
20
68.5099058
11
31.497664
21
68.5088058
0
LINE
8
DEFAULT_255_2_778
10
31.497664
20
68.5088058
11
31.499764
21
68.5054058
0
LINE
8
DEFAULT_255_2_778
10
31.499764
20
68.5054058
11
31.502164
21
68.5019058
0
LINE
8
DEFAULT_255_2_778
10
31.502164
20
68.5019058
11
31.504764
21
68.4985058
0
LINE
8
DEFAULT_255_2_778
10
31.504764
20
68.4985058
11
31.507964
21
68.4953058
0
LINE
8
DEFAULT_255_2_778
10
31.507964
20
68.4953058
11
31.511064
21
68.4921058
0
LINE
8
DEFAULT_255_2_778
10
31.511064
20
68.4921058
11
31.514564
21
68.4890058
0
LINE
8
DEFAULT_255_2_778
10
31.514564
20
68.4890058
11
31.518564
21
68.4858058
0
LINE
8
DEFAULT_255_2_778
10
31.518564
20
68.4858058
11
31.518764
21
68.4855058
0
LINE
8
DEFAULT_255_2_778
10
31.518764
20
68.4855058
11
31.523064
21
68.4826058
0
LINE
8
DEFAULT_255_2_778
10
31.523064
20
68.4826058
11
31.527564
21
68.4797058
0
LINE
8
DEFAULT_255_2_778
10
31.527564
20
68.4797058
11
31.532264
21
68.4773058
0
LINE
8
DEFAULT_255_2_778
10
31.532264
20
68.4773058
11
31.537264
21
68.4749058
0
LINE
8
DEFAULT_255_2_778
10
31.537264
20
68.4749058
11
31.542364
21
68.4728058
0
LINE
8
DEFAULT_255_2_778
10
31.542364
20
68.4728058
11
31.547664
21
68.4710058
0
LINE
8
DEFAULT_255_2_778
10
31.547664
20
68.4710058
11
31.550764
21
68.4699058
0
LINE
8
DEFAULT_255_2_778
10
31.550764
20
68.4699058
11
31.556364
21
68.4681058
0
LINE
8
DEFAULT_255_2_778
10
31.556364
20
68.4681058
11
31.562164
21
68.4667058
0
LINE
8
DEFAULT_255_2_778
10
31.562164
20
68.4667058
11
31.567964
21
68.4657058
0
LINE
8
DEFAULT_255_2_778
10
31.567964
20
68.4657058
11
31.573864
21
68.4649058
0
LINE
8
DEFAULT_255_2_778
10
31.573864
20
68.4649058
11
31.580164
21
68.4646058
0
LINE
8
DEFAULT_255_2_778
10
31.580164
20
68.4646058
11
31.586264
21
68.4644058
0
LINE
8
DEFAULT_255_2_778
10
31.586264
20
68.4644058
11
31.588064
21
68.4644058
0
LINE
8
DEFAULT_255_2_778
10
31.588064
20
68.4644058
11
33.501564
21
68.4644058
0
LINE
8
DEFAULT_255_2_778
10
33.501564
20
68.4644058
11
33.506864
21
68.4644058
0
LINE
8
DEFAULT_255_2_778
10
33.506864
20
68.4644058
11
33.514264
21
68.4641058
0
LINE
8
DEFAULT_255_2_778
10
33.514264
20
68.4641058
11
33.521964
21
68.4633058
0
LINE
8
DEFAULT_255_2_778
10
33.521964
20
68.4633058
11
33.529064
21
68.4625058
0
LINE
8
DEFAULT_255_2_778
10
33.529064
20
68.4625058
11
33.536464
21
68.4612058
0
LINE
8
DEFAULT_255_2_778
10
33.536464
20
68.4612058
11
33.543664
21
68.4599058
0
LINE
8
DEFAULT_255_2_778
10
33.543664
20
68.4599058
11
33.550764
21
68.4580058
0
LINE
8
DEFAULT_255_2_778
10
33.550764
20
68.4580058
11
33.557964
21
68.4562058
0
LINE
8
DEFAULT_255_2_778
10
33.557964
20
68.4562058
11
33.557964
21
68.4559058
0
LINE
8
DEFAULT_255_2_778
10
33.557964
20
68.4559058
11
33.564764
21
68.4538058
0
LINE
8
DEFAULT_255_2_778
10
33.564764
20
68.4538058
11
33.571164
21
68.4514058
0
LINE
8
DEFAULT_255_2_778
10
33.571164
20
68.4514058
11
33.577564
21
68.4490058
0
LINE
8
DEFAULT_255_2_778
10
33.577564
20
68.4490058
11
33.583564
21
68.4461058
0
LINE
8
DEFAULT_255_2_778
10
33.583564
20
68.4461058
11
33.589464
21
68.4429058
0
LINE
8
DEFAULT_255_2_778
10
33.589464
20
68.4429058
11
33.594964
21
68.4397058
0
LINE
8
DEFAULT_255_2_778
10
33.594964
20
68.4397058
11
33.600264
21
68.4363058
0
LINE
8
DEFAULT_255_2_778
10
33.600264
20
68.4363058
11
33.605264
21
68.4329058
0
LINE
8
DEFAULT_255_2_778
10
33.605264
20
68.4329058
11
33.608464
21
68.4305058
0
LINE
8
DEFAULT_255_2_778
10
33.608464
20
68.4305058
11
33.612964
21
68.4265058
0
LINE
8
DEFAULT_255_2_778
10
33.612964
20
68.4265058
11
33.617464
21
68.4226058
0
LINE
8
DEFAULT_255_2_778
10
33.617464
20
68.4226058
11
33.621464
21
68.4186058
0
LINE
8
DEFAULT_255_2_778
10
33.621464
20
68.4186058
11
33.625164
21
68.4144058
0
LINE
8
DEFAULT_255_2_778
10
33.625164
20
68.4144058
11
33.628564
21
68.4104058
0
LINE
8
DEFAULT_255_2_778
10
33.628564
20
68.4104058
11
33.631764
21
68.4062058
0
LINE
8
DEFAULT_255_2_778
10
33.631764
20
68.4062058
11
33.634664
21
68.4017058
0
LINE
8
DEFAULT_255_2_778
10
33.634664
20
68.4017058
11
33.637264
21
68.3974058
0
LINE
8
DEFAULT_255_2_778
10
33.637264
20
68.3974058
11
33.639464
21
68.3932058
0
LINE
8
DEFAULT_255_2_778
10
33.639464
20
68.3932058
11
33.641564
21
68.3887058
0
LINE
8
DEFAULT_255_2_778
10
33.641564
20
68.3887058
11
33.643364
21
68.3837058
0
LINE
8
DEFAULT_255_2_778
10
33.643364
20
68.3837058
11
33.644964
21
68.3792058
0
LINE
8
DEFAULT_255_2_778
10
33.644964
20
68.3792058
11
33.646264
21
68.3747058
0
LINE
8
DEFAULT_255_2_778
10
33.646264
20
68.3747058
11
33.647364
21
68.3696058
0
LINE
8
DEFAULT_255_2_778
10
33.647364
20
68.3696058
11
33.648164
21
68.3651058
0
LINE
8
DEFAULT_255_2_778
10
33.648164
20
68.3651058
11
33.648464
21
68.3606058
0
LINE
8
DEFAULT_255_2_778
10
33.648464
20
68.3606058
11
33.648664
21
68.3561058
0
LINE
8
DEFAULT_255_2_778
10
33.648664
20
68.3561058
11
33.648664
21
68.0688058
0
LINE
8
DEFAULT_255_2_778
10
33.648664
20
68.0688058
11
33.648464
21
68.0643058
0
LINE
8
DEFAULT_255_2_778
10
33.648464
20
68.0643058
11
33.648164
21
68.0598058
0
LINE
8
DEFAULT_255_2_778
10
33.648164
20
68.0598058
11
33.647364
21
68.0553058
0
LINE
8
DEFAULT_255_2_778
10
33.647364
20
68.0553058
11
33.646264
21
68.0508058
0
LINE
8
DEFAULT_255_2_778
10
33.646264
20
68.0508058
11
33.644964
21
68.0458058
0
LINE
8
DEFAULT_255_2_778
10
33.644964
20
68.0458058
11
33.643364
21
68.0413058
0
LINE
8
DEFAULT_255_2_778
10
33.643364
20
68.0413058
11
33.641564
21
68.0368058
0
LINE
8
DEFAULT_255_2_778
10
33.641564
20
68.0368058
11
33.639464
21
68.0323058
0
LINE
8
DEFAULT_255_2_778
10
33.639464
20
68.0323058
11
33.637264
21
68.0278058
0
LINE
8
DEFAULT_255_2_778
10
33.637264
20
68.0278058
11
33.634664
21
68.0236058
0
LINE
8
DEFAULT_255_2_778
10
33.634664
20
68.0236058
11
33.631764
21
68.0193058
0
LINE
8
DEFAULT_255_2_778
10
33.631764
20
68.0193058
11
33.628564
21
68.0151058
0
LINE
8
DEFAULT_255_2_778
10
33.628564
20
68.0151058
11
33.625164
21
68.0109058
0
LINE
8
DEFAULT_255_2_778
10
33.625164
20
68.0109058
11
33.621464
21
68.0069058
0
LINE
8
DEFAULT_255_2_778
10
33.621464
20
68.0069058
11
33.617464
21
68.0027058
0
LINE
8
DEFAULT_255_2_778
10
33.617464
20
68.0027058
11
33.612964
21
67.9987058
0
LINE
8
DEFAULT_255_2_778
10
33.612964
20
67.9987058
11
33.608464
21
67.9947058
0
LINE
8
DEFAULT_255_2_778
10
33.608464
20
67.9947058
11
33.605264
21
67.9926058
0
LINE
8
DEFAULT_255_2_778
10
33.605264
20
67.9926058
11
33.600264
21
67.9886058
0
LINE
8
DEFAULT_255_2_778
10
33.600264
20
67.9886058
11
33.594964
21
67.9855058
0
LINE
8
DEFAULT_255_2_778
10
33.594964
20
67.9855058
11
33.589464
21
67.9820058
0
LINE
8
DEFAULT_255_2_778
10
33.589464
20
67.9820058
11
33.583564
21
67.9791058
0
LINE
8
DEFAULT_255_2_778
10
33.583564
20
67.9791058
11
33.577564
21
67.9762058
0
LINE
8
DEFAULT_255_2_778
10
33.577564
20
67.9762058
11
33.571164
21
67.9733058
0
LINE
8
DEFAULT_255_2_778
10
33.571164
20
67.9733058
11
33.564764
21
67.9709058
0
LINE
8
DEFAULT_255_2_778
10
33.564764
20
67.9709058
11
33.557964
21
67.9688058
0
LINE
8
DEFAULT_255_2_778
10
33.557964
20
67.9688058
11
33.557664
21
67.9688058
0
LINE
8
DEFAULT_255_2_778
10
33.557664
20
67.9688058
11
33.550564
21
67.9667058
0
LINE
8
DEFAULT_255_2_778
10
33.550564
20
67.9667058
11
33.543364
21
67.9648058
0
LINE
8
DEFAULT_255_2_778
10
33.543364
20
67.9648058
11
33.536264
21
67.9635058
0
LINE
8
DEFAULT_255_2_778
10
33.536264
20
67.9635058
11
33.528864
21
67.9624058
0
LINE
8
DEFAULT_255_2_778
10
33.528864
20
67.9624058
11
33.521664
21
67.9614058
0
LINE
8
DEFAULT_255_2_778
10
33.521664
20
67.9614058
11
33.513964
21
67.9611058
0
LINE
8
DEFAULT_255_2_778
10
33.513964
20
67.9611058
11
33.506564
21
67.9609058
0
LINE
8
DEFAULT_255_2_778
10
33.506564
20
67.9609058
11
33.501364
21
67.9606058
0
LINE
8
DEFAULT_255_2_778
10
27.364264
20
67.7092058
11
26.186664
21
67.7092058
0
LINE
8
DEFAULT_255_2_778
10
25.941364
20
67.5484058
11
26.099564
21
67.5484058
0
LINE
8
DEFAULT_255_2_778
10
24.960064
20
66.5961058
11
24.957964
21
66.5747058
0
LINE
8
DEFAULT_255_2_778
10
24.957964
20
66.5747058
11
24.938864
21
66.5310058
0
LINE
8
DEFAULT_255_2_778
10
24.938864
20
66.5310058
11
24.848664
21
66.4662058
0
LINE
8
DEFAULT_255_2_778
10
24.848664
20
66.4662058
11
24.763664
21
66.4522058
0
LINE
8
DEFAULT_255_2_778
10
24.763664
20
66.4522058
11
23.886064
21
66.4355058
0
LINE
8
DEFAULT_255_2_778
10
23.886064
20
66.4355058
11
23.796164
21
66.3620058
0
LINE
8
DEFAULT_255_2_778
10
23.796164
20
66.3620058
11
23.784264
21
66.3297058
0
LINE
8
DEFAULT_255_2_778
10
23.784264
20
66.3297058
11
23.781864
21
65.7645058
0
LINE
8
DEFAULT_255_2_778
10
23.781864
20
65.7645058
11
23.778664
21
65.7431058
0
LINE
8
DEFAULT_255_2_778
10
23.778664
20
65.7431058
11
23.753564
21
65.6952058
0
LINE
8
DEFAULT_255_2_778
10
23.753564
20
65.6952058
11
23.652764
21
65.6346058
0
LINE
8
DEFAULT_255_2_778
10
23.652764
20
65.6346058
11
23.585564
21
65.6262058
0
LINE
8
DEFAULT_255_2_778
10
33.497064
20
59.5564058
11
33.617464
21
59.6019058
0
LINE
8
DEFAULT_255_2_778
10
33.617464
20
59.6019058
11
33.643164
21
59.6506058
0
LINE
8
DEFAULT_255_2_778
10
33.643164
20
59.6506058
11
33.640764
21
59.9747058
0
LINE
8
DEFAULT_255_2_778
10
33.640764
20
59.9747058
11
33.601064
21
60.0279058
0
LINE
8
DEFAULT_255_2_778
10
33.601064
20
60.0279058
11
33.496764
21
60.0593058
0
LINE
8
DEFAULT_255_2_778
10
33.496764
20
60.0593058
11
33.447864
21
60.0593058
0
LINE
8
DEFAULT_255_2_778
10
33.447864
20
60.0593058
11
33.447864
21
67.9603058
0
LINE
8
DEFAULT_255_2_778
10
33.447864
20
67.9603058
11
33.496764
21
67.9603058
0
LINE
8
DEFAULT_255_2_778
10
33.496764
20
67.9603058
11
33.496764
21
68.1400058
0
LINE
8
DEFAULT_255_2_778
10
33.496764
20
68.1400058
11
33.321164
21
68.1738058
0
LINE
8
DEFAULT_255_2_778
10
33.321164
20
68.1738058
11
33.260564
21
68.2411058
0
LINE
8
DEFAULT_255_2_778
10
33.260564
20
68.2411058
11
33.252064
21
68.2733058
0
LINE
8
DEFAULT_255_2_778
10
33.252064
20
68.2733058
11
33.251564
21
68.4633058
0
LINE
8
DEFAULT_255_2_778
10
33.447864
20
60.0593058
11
33.248064
21
60.0940058
0
LINE
8
DEFAULT_255_2_778
10
33.248064
20
60.0940058
11
33.107064
21
60.1768058
0
LINE
8
DEFAULT_255_2_778
10
33.107064
20
60.1768058
11
33.038864
21
60.2604058
0
LINE
8
DEFAULT_255_2_778
10
33.038864
20
60.2604058
11
33.017664
21
60.3094058
0
LINE
8
DEFAULT_255_2_778
10
33.017664
20
60.3094058
11
33.009664
21
60.3419058
0
LINE
8
DEFAULT_255_2_778
10
33.009664
20
60.3419058
11
33.007064
21
60.3623058
0
LINE
8
DEFAULT_255_2_778
10
33.007064
20
60.3623058
11
33.006264
21
68.4630058
0
LINE
8
DEFAULT_255_2_778
10
22.994964
20
65.2637058
11
22.749664
21
65.2637058
0
LINE
8
DEFAULT_255_2_778
10
22.749664
20
64.9764058
11
22.994964
21
64.9764058
0
LINE
8
DEFAULT_255_2_778
10
33.174864
20
60.1281058
11
31.434664
21
60.1281058
0
LINE
8
DEFAULT_255_2_778
10
33.642564
20
59.8408058
11
33.640464
21
59.8225058
0
LINE
8
DEFAULT_255_2_778
10
33.640464
20
59.8225058
11
33.615864
21
59.7784058
0
LINE
8
DEFAULT_255_2_778
10
33.615864
20
59.7784058
11
33.495464
21
59.7328058
0
LINE
8
DEFAULT_255_2_778
10
33.495464
20
59.7328058
11
33.495464
21
59.5532058
0
LINE
8
DEFAULT_255_2_778
10
33.495464
20
59.5532058
11
31.582064
21
59.5532058
0
LINE
8
DEFAULT_255_2_778
10
31.582064
20
59.5532058
11
31.582064
21
59.7328058
0
LINE
8
DEFAULT_255_2_778
10
31.582064
20
59.7328058
11
33.495464
21
59.7328058
0
LINE
8
DEFAULT_255_2_778
10
28.441664
20
59.7328058
11
26.135264
21
59.7328058
0
LINE
8
DEFAULT_255_2_778
10
26.135264
20
59.7328058
11
26.135264
21
59.5532058
0
LINE
8
DEFAULT_255_2_778
10
26.135264
20
59.5532058
11
28.441664
21
59.5532058
0
LINE
8
DEFAULT_255_2_778
10
28.441664
20
59.5532058
11
28.443064
21
59.7328058
0
LINE
8
DEFAULT_255_2_778
10
28.443064
20
59.7328058
11
28.526664
21
59.6971058
0
LINE
8
DEFAULT_255_2_778
10
28.526664
20
59.6971058
11
28.785364
21
59.6971058
0
LINE
8
DEFAULT_255_2_778
10
38.108264
20
58.6914058
11
23.534964
21
58.6914058
0
LINE
8
DEFAULT_255_2_778
10
23.542164
20
58.5875058
11
38.107964
21
58.5875058
0
LINE
8
DEFAULT_255_2_778
10
38.107964
20
58.5875058
11
38.107964
21
69.0861058
0
LINE
8
DEFAULT_255_2_778
10
26.184264
20
66.6644058
11
27.361864
21
66.6644058
0
LINE
8
DEFAULT_255_2_778
10
27.361864
20
66.6644058
11
27.361864
21
68.4601058
0
LINE
8
DEFAULT_255_2_778
10
28.784864
20
60.1279058
11
26.183964
21
60.1279058
0
LINE
8
DEFAULT_255_2_778
10
26.183964
20
60.1279058
11
26.183964
21
68.4601058
0
LINE
8
DEFAULT_255_2_778
10
26.135064
20
59.5532058
11
25.990864
21
59.5995058
0
LINE
8
DEFAULT_255_2_778
10
25.990864
20
59.5995058
11
25.947764
21
59.6540058
0
LINE
8
DEFAULT_255_2_778
10
25.947764
20
59.6540058
11
25.939264
21
59.6865058
0
LINE
8
DEFAULT_255_2_778
10
25.939264
20
59.6865058
11
25.937664
21
60.8261058
0
LINE
8
DEFAULT_255_2_778
10
25.937664
20
60.8261058
11
25.923864
21
60.8653058
0
LINE
8
DEFAULT_255_2_778
10
25.923864
20
60.8653058
11
25.856164
21
60.9274058
0
LINE
8
DEFAULT_255_2_778
10
25.856164
20
60.9274058
11
25.742664
21
60.9536058
0
LINE
8
DEFAULT_255_2_778
10
23.779964
20
61.8876058
11
23.782064
21
61.8662058
0
LINE
8
DEFAULT_255_2_778
10
23.782064
20
61.8662058
11
23.801164
21
61.8225058
0
LINE
8
DEFAULT_255_2_778
10
23.801164
20
61.8225058
11
23.876564
21
61.7638058
0
LINE
8
DEFAULT_255_2_778
10
23.876564
20
61.7638058
11
23.976364
21
61.7439058
0
LINE
8
DEFAULT_255_2_778
10
23.976364
20
61.7439058
11
24.761564
21
61.7439058
0
LINE
8
DEFAULT_255_2_778
10
24.761564
20
61.7439058
11
24.761564
21
61.5643058
0
LINE
8
DEFAULT_255_2_778
10
24.761564
20
61.5643058
11
23.976364
21
61.5643058
0
LINE
8
DEFAULT_255_2_778
10
23.976364
20
61.5643058
11
23.976364
21
61.7439058
0
LINE
8
DEFAULT_255_2_778
10
23.093164
20
66.2260058
11
23.093164
21
65.6230058
0
LINE
8
DEFAULT_255_2_778
10
23.093164
20
65.6230058
11
24.467064
21
65.6230058
0
LINE
8
DEFAULT_255_2_778
10
24.467064
20
65.6230058
11
24.467064
21
66.4490058
0
LINE
8
DEFAULT_255_2_778
10
24.467064
20
61.7442058
11
24.467064
21
64.6533058
0
LINE
8
DEFAULT_255_2_778
10
24.467064
20
64.6533058
11
22.994964
21
64.6533058
0
LINE
8
DEFAULT_255_2_778
10
23.976364
20
61.5646058
11
23.832164
21
61.6109058
0
LINE
8
DEFAULT_255_2_778
10
23.832164
20
61.6109058
11
23.788964
21
61.6654058
0
LINE
8
DEFAULT_255_2_778
10
23.788964
20
61.6654058
11
23.780564
21
61.6979058
0
LINE
8
DEFAULT_255_2_778
10
23.780564
20
61.6979058
11
23.778964
21
62.4422058
0
LINE
8
DEFAULT_255_2_778
10
23.778964
20
62.4422058
11
23.765164
21
62.4813058
0
LINE
8
DEFAULT_255_2_778
10
23.765164
20
62.4813058
11
23.697464
21
62.5435058
0
LINE
8
DEFAULT_255_2_778
10
23.697464
20
62.5435058
11
23.583664
21
62.5702058
0
LINE
8
DEFAULT_255_2_778
10
23.485464
20
65.6230058
11
23.485464
21
64.6533058
0
LINE
8
DEFAULT_255_2_778
10
23.289164
20
62.5702058
11
23.289164
21
62.7499058
0
LINE
8
DEFAULT_255_2_778
10
23.289164
20
62.7499058
11
24.467064
21
62.7499058
0
LINE
8
DEFAULT_255_2_778
10
23.093364
20
60.2274058
11
23.093364
21
62.3903058
0
LINE
8
DEFAULT_255_2_778
10
23.093364
20
62.3903058
11
23.583964
21
62.3903058
0
LINE
8
DEFAULT_255_2_778
10
23.583964
20
62.3903058
11
23.583964
21
62.5702058
0
LINE
8
DEFAULT_255_2_778
10
23.583964
20
62.5702058
11
23.028064
21
62.5880058
0
LINE
8
DEFAULT_255_2_778
10
23.028064
20
62.5880058
11
22.996264
21
62.6306058
0
LINE
8
DEFAULT_255_2_778
10
22.996264
20
62.6306058
11
22.995264
21
65.6338058
0
LINE
8
DEFAULT_255_2_778
10
22.749964
20
60.8430058
11
22.749964
21
65.6103058
0
LINE
8
DEFAULT_255_2_778
10
24.516364
20
56.9635058
11
24.216864
21
57.0005058
0
LINE
8
DEFAULT_255_2_778
10
24.216864
20
57.0005058
11
24.088764
21
57.0389058
0
LINE
8
DEFAULT_255_2_778
10
23.535264
20
58.6203058
11
23.537064
21
58.5771058
0
LINE
8
DEFAULT_255_2_778
10
23.537064
20
58.5771058
11
23.539464
21
58.5552058
0
LINE
8
DEFAULT_255_2_778
10
23.539464
20
58.5552058
11
23.542964
21
58.5327058
0
LINE
8
DEFAULT_255_2_778
10
23.542964
20
58.5327058
11
23.552764
21
58.4880058
0
LINE
8
DEFAULT_255_2_778
10
23.552764
20
58.4880058
11
23.566464
21
58.4427058
0
LINE
8
DEFAULT_255_2_778
10
23.566464
20
58.4427058
11
23.594264
21
58.3766058
0
LINE
8
DEFAULT_255_2_778
10
23.594264
20
58.3766058
11
23.635564
21
58.3049058
0
LINE
8
DEFAULT_255_2_778
10
23.635564
20
58.3049058
11
23.697964
21
58.2255058
0
LINE
8
DEFAULT_255_2_778
10
23.697964
20
58.2255058
11
23.799864
21
58.1324058
0
LINE
8
DEFAULT_255_2_778
10
23.799864
20
58.1324058
11
23.953564
21
58.0361058
0
LINE
8
DEFAULT_255_2_778
10
23.953564
20
58.0361058
11
24.141164
21
57.9630058
0
LINE
8
DEFAULT_255_2_778
10
24.141164
20
57.9630058
11
24.347564
21
57.9210058
0
LINE
8
DEFAULT_255_2_778
10
24.347564
20
57.9210058
11
24.516564
21
57.9120058
0
LINE
8
DEFAULT_255_2_778
10
37.273964
20
69.6870058
11
37.435664
21
69.6722058
0
LINE
8
DEFAULT_255_2_778
10
37.435664
20
69.6722058
11
37.599664
21
69.6269058
0
LINE
8
DEFAULT_255_2_778
10
37.599664
20
69.6269058
11
37.720064
21
69.5719058
0
LINE
8
DEFAULT_255_2_778
10
37.720064
20
69.5719058
11
37.831764
21
69.5005058
0
LINE
8
DEFAULT_255_2_778
10
37.831764
20
69.5005058
11
37.934964
21
69.4126058
0
LINE
8
DEFAULT_255_2_778
10
37.934964
20
69.4126058
11
38.029364
21
69.3065058
0
LINE
8
DEFAULT_255_2_778
10
38.029364
20
69.3065058
11
38.088964
21
69.2211058
0
LINE
8
DEFAULT_255_2_778
10
38.088964
20
69.2211058
11
38.124064
21
69.1607058
0
LINE
8
DEFAULT_255_2_778
10
38.124064
20
69.1607058
11
38.163764
21
69.0793058
0
LINE
8
DEFAULT_255_2_778
10
38.163764
20
69.0793058
11
38.189764
21
69.0139058
0
LINE
8
DEFAULT_255_2_778
10
38.189764
20
69.0139058
11
38.211464
21
68.9467058
0
LINE
8
DEFAULT_255_2_778
10
38.211464
20
68.9467058
11
38.229464
21
68.8782058
0
LINE
8
DEFAULT_255_2_778
10
38.229464
20
68.8782058
11
38.236564
21
68.8432058
0
LINE
8
DEFAULT_255_2_778
10
38.236564
20
68.8432058
11
38.242664
21
68.8078058
0
LINE
8
DEFAULT_255_2_778
10
38.242664
20
68.8078058
11
38.247664
21
68.7723058
0
LINE
8
DEFAULT_255_2_778
10
38.247664
20
68.7723058
11
38.251064
21
68.7398058
0
LINE
8
DEFAULT_255_2_778
10
38.251064
20
68.7398058
11
38.250864
21
57.6106058
0
LINE
8
DEFAULT_255_2_778
10
38.250864
20
57.6106058
11
38.243964
21
57.5728058
0
LINE
8
DEFAULT_255_2_778
10
38.243964
20
57.5728058
11
38.229164
21
57.5167058
0
LINE
8
DEFAULT_255_2_778
10
38.229164
20
57.5167058
11
38.202464
21
57.4503058
0
LINE
8
DEFAULT_255_2_778
10
38.202464
20
57.4503058
11
38.163264
21
57.3791058
0
LINE
8
DEFAULT_255_2_778
10
38.163264
20
57.3791058
11
38.106364
21
57.3029058
0
LINE
8
DEFAULT_255_2_778
10
38.106364
20
57.3029058
11
38.007664
21
57.2066058
0
LINE
8
DEFAULT_255_2_778
10
38.007664
20
57.2066058
11
37.863764
21
57.1098058
0
LINE
8
DEFAULT_255_2_778
10
37.863764
20
57.1098058
11
37.702864
21
57.0381058
0
LINE
8
DEFAULT_255_2_778
10
37.173464
20
58.5864058
11
37.173464
21
58.0419058
0
LINE
8
DEFAULT_255_2_778
10
36.977364
20
58.5864058
11
36.977364
21
58.0387058
0
LINE
8
DEFAULT_255_2_778
10
36.966864
20
58.0387058
11
36.966864
21
58.5864058
0
LINE
8
DEFAULT_255_2_778
10
36.770464
20
58.0366058
11
36.770464
21
58.5864058
0
LINE
8
DEFAULT_255_2_778
10
36.013264
20
58.0289058
11
36.013264
21
58.5864058
0
LINE
8
DEFAULT_255_2_778
10
35.816964
20
58.0268058
11
35.816964
21
58.5864058
0
LINE
8
DEFAULT_255_2_778
10
35.806364
20
58.5864058
11
35.806364
21
58.0268058
0
LINE
8
DEFAULT_255_2_778
10
35.610264
20
58.5864058
11
35.610264
21
58.0247058
0
LINE
8
DEFAULT_255_2_778
10
35.312364
20
58.0218058
11
35.312364
21
58.5861058
0
LINE
8
DEFAULT_255_2_778
10
29.007364
20
57.9572058
11
29.007364
21
58.5861058
0
LINE
8
DEFAULT_255_2_778
10
28.712864
20
58.5861058
11
28.712864
21
57.9541058
0
LINE
8
DEFAULT_255_2_778
10
28.148564
20
58.5861058
11
28.148564
21
57.9482058
0
LINE
8
DEFAULT_255_2_778
10
27.657764
20
58.5861058
11
27.657764
21
58.1059058
0
LINE
8
DEFAULT_255_2_778
10
27.818364
20
58.5861058
11
28.148564
21
58.3401058
0
LINE
8
DEFAULT_255_2_778
10
20.788364
20
57.7564058
11
20.790164
21
57.7130058
0
LINE
8
DEFAULT_255_2_778
10
20.790164
20
57.7130058
11
20.792864
21
57.6905058
0
LINE
8
DEFAULT_255_2_778
10
20.792864
20
57.6905058
11
20.796264
21
57.6680058
0
LINE
8
DEFAULT_255_2_778
10
20.796264
20
57.6680058
11
20.806064
21
57.6233058
0
LINE
8
DEFAULT_255_2_778
10
20.806064
20
57.6233058
11
20.819864
21
57.5778058
0
LINE
8
DEFAULT_255_2_778
10
20.819864
20
57.5778058
11
20.847664
21
57.5109058
0
LINE
8
DEFAULT_255_2_778
10
20.847664
20
57.5109058
11
20.888664
21
57.4394058
0
LINE
8
DEFAULT_255_2_778
10
20.888664
20
57.4394058
11
20.951564
21
57.3590058
0
LINE
8
DEFAULT_255_2_778
10
20.951564
20
57.3590058
11
21.053964
21
57.2648058
0
LINE
8
DEFAULT_255_2_778
10
21.053964
20
57.2648058
11
21.179364
21
57.1823058
0
LINE
8
DEFAULT_255_2_778
10
21.179364
20
57.1823058
11
21.327064
21
57.1151058
0
LINE
8
DEFAULT_255_2_778
10
21.327064
20
57.1151058
11
21.530764
21
57.0595058
0
LINE
8
DEFAULT_255_2_778
10
21.530764
20
57.0595058
11
21.769664
21
57.0378058
0
LINE
8
DEFAULT_255_2_778
10
21.769664
20
57.0378058
11
24.089864
21
57.0378058
0
LINE
8
DEFAULT_255_2_778
10
24.089864
20
57.0378058
11
23.906164
21
57.1225058
0
LINE
8
DEFAULT_255_2_778
10
23.906164
20
57.1225058
11
23.766464
21
57.2220058
0
LINE
8
DEFAULT_255_2_778
10
23.766464
20
57.2220058
11
23.680264
21
57.3098058
0
LINE
8
DEFAULT_255_2_778
10
23.680264
20
57.3098058
11
23.618564
21
57.3966058
0
LINE
8
DEFAULT_255_2_778
10
23.618564
20
57.3966058
11
23.582064
21
57.4680058
0
LINE
8
DEFAULT_255_2_778
10
23.582064
20
57.4680058
11
23.557964
21
57.5352058
0
LINE
8
DEFAULT_255_2_778
10
23.557964
20
57.5352058
11
23.548764
21
57.5728058
0
LINE
8
DEFAULT_255_2_778
10
23.548764
20
57.5728058
11
23.541864
21
57.6106058
0
LINE
8
DEFAULT_255_2_778
10
23.541864
20
57.6106058
11
23.539464
21
57.6291058
0
LINE
8
DEFAULT_255_2_778
10
23.539464
20
57.6291058
11
23.537864
21
57.6477058
0
LINE
8
DEFAULT_255_2_778
10
23.537864
20
57.6477058
11
23.536564
21
59.4347058
0
LINE
8
DEFAULT_255_2_778
10
23.536564
20
59.4347058
11
22.064464
21
62.0736058
0
LINE
8
DEFAULT_255_2_778
10
22.064464
20
62.0736058
11
22.064464
21
64.3773058
0
LINE
8
DEFAULT_255_2_778
10
22.064464
20
64.3773058
11
23.536564
21
67.0168058
0
LINE
8
DEFAULT_255_2_778
10
23.536564
20
67.0168058
11
23.538664
21
68.7043058
0
LINE
8
DEFAULT_255_2_778
10
23.538664
20
68.7043058
11
23.541564
21
68.7398058
0
LINE
8
DEFAULT_255_2_778
10
23.541564
20
68.7398058
11
23.545064
21
68.7723058
0
LINE
8
DEFAULT_255_2_778
10
23.545064
20
68.7723058
11
23.550064
21
68.8078058
0
LINE
8
DEFAULT_255_2_778
10
23.550064
20
68.8078058
11
23.556164
21
68.8432058
0
LINE
8
DEFAULT_255_2_778
10
23.556164
20
68.8432058
11
23.563264
21
68.8782058
0
LINE
8
DEFAULT_255_2_778
10
23.563264
20
68.8782058
11
23.580764
21
68.9467058
0
LINE
8
DEFAULT_255_2_778
10
23.580764
20
68.9467058
11
23.602464
21
69.0139058
0
LINE
8
DEFAULT_255_2_778
10
23.602464
20
69.0139058
11
23.636864
21
69.0978058
0
LINE
8
DEFAULT_255_2_778
10
23.636864
20
69.0978058
11
23.685264
21
69.1912058
0
LINE
8
DEFAULT_255_2_778
10
23.685264
20
69.1912058
11
23.742164
21
69.2787058
0
LINE
8
DEFAULT_255_2_778
10
23.742164
20
69.2787058
11
23.809864
21
69.3626058
0
LINE
8
DEFAULT_255_2_778
10
23.809864
20
69.3626058
11
23.907564
21
69.4581058
0
LINE
8
DEFAULT_255_2_778
10
23.907564
20
69.4581058
11
24.015164
21
69.5380058
0
LINE
8
DEFAULT_255_2_778
10
24.015164
20
69.5380058
11
24.161564
21
69.6142058
0
LINE
8
DEFAULT_255_2_778
10
24.161564
20
69.6142058
11
24.291464
21
69.6576058
0
LINE
8
DEFAULT_255_2_778
10
24.291464
20
69.6576058
11
24.453664
21
69.6838058
0
LINE
8
DEFAULT_255_2_778
10
24.453664
20
69.6838058
11
24.517964
21
69.6862058
0
LINE
8
DEFAULT_255_2_778
10
27.883364
20
57.9458058
11
27.658264
21
58.1062058
0
LINE
8
DEFAULT_255_2_778
10
27.658264
20
58.1062058
11
23.961264
21
58.0355058
0
LINE
8
DEFAULT_255_2_778
10
38.256964
20
58.7700058
11
38.254864
21
58.7266058
0
LINE
8
DEFAULT_255_2_778
10
38.254864
20
58.7266058
11
38.252464
21
58.7041058
0
LINE
8
DEFAULT_255_2_778
10
38.252464
20
58.7041058
11
38.248964
21
58.6817058
0
LINE
8
DEFAULT_255_2_778
10
38.248964
20
58.6817058
11
38.239164
21
58.6361058
0
LINE
8
DEFAULT_255_2_778
10
38.239164
20
58.6361058
11
38.225464
21
58.5906058
0
LINE
8
DEFAULT_255_2_778
10
38.225464
20
58.5906058
11
38.207964
21
58.5454058
0
LINE
8
DEFAULT_255_2_778
10
38.207964
20
58.5454058
11
38.170164
21
58.4729058
0
LINE
8
DEFAULT_255_2_778
10
38.170164
20
58.4729058
11
38.127264
21
58.4107058
0
LINE
8
DEFAULT_255_2_778
10
38.127264
20
58.4107058
11
38.055564
21
58.3313058
0
LINE
8
DEFAULT_255_2_778
10
38.055564
20
58.3313058
11
37.969564
21
58.2589058
0
LINE
8
DEFAULT_255_2_778
10
37.969564
20
58.2589058
11
37.808764
21
58.1620058
0
LINE
8
DEFAULT_255_2_778
10
37.808764
20
58.1620058
11
37.651264
21
58.1001058
0
LINE
8
DEFAULT_255_2_778
10
37.651264
20
58.1001058
11
37.479364
21
58.0591058
0
LINE
8
DEFAULT_255_2_778
10
37.479364
20
58.0591058
11
37.275864
21
58.0416058
0
LINE
8
DEFAULT_255_2_778
10
37.275864
20
58.0416058
11
37.275864
21
56.9624058
0
LINE
8
DEFAULT_255_2_778
10
37.275864
20
56.9624058
11
24.516064
21
56.9624058
0
LINE
8
DEFAULT_255_2_778
10
24.516064
20
56.9624058
11
24.516064
21
57.9112058
0
LINE
8
DEFAULT_255_2_778
10
24.516064
20
57.9112058
11
37.273464
21
58.0416058
0
LINE
8
DEFAULT_255_2_778
10
22.553664
20
65.2584058
11
22.553664
21
61.1955058
0
LINE
8
DEFAULT_255_2_778
10
22.444364
20
61.3910058
11
22.444364
21
65.0629058
0
LINE
8
DEFAULT_255_2_778
10
11.562364
20
41.6914058
11
3.416864
21
41.6914058
0
LINE
8
DEFAULT_255_2_778
10
3.416864
20
41.6914058
11
3.416864
21
5.0202058
0
LINE
8
DEFAULT_255_2_778
10
3.416864
20
5.0202058
11
11.562364
21
5.0202058
0
LINE
8
DEFAULT_255_2_778
10
3.809464
20
42.3627058
11
3.809464
21
41.6914058
0
ARC
8
DEFAULT_255_2_778
10
7.4330366
20
38.8710604
40
3.4508018
50
140.7338561
51
154.9651776
0
ARC
8
DEFAULT_255_2_778
10
7.5088185
20
38.8399809
40
3.532618
50
155.0285765
51
180.0428653
0
LINE
8
DEFAULT_255_2_778
10
3.9762014
20
38.837338
11
3.9762014
21
38.8367415
0
ARC
8
DEFAULT_255_2_778
10
7.506175
20
38.8331681
40
3.5299754
50
179.9419991
51
205.8191069
0
ARC
8
DEFAULT_255_2_778
10
7.4311415
20
38.8016745
40
3.4487187
50
205.8910393
51
219.2735548
0
ARC
8
DEFAULT_255_2_778
10
7.4304277
20
31.1311983
40
3.4480619
50
140.7210567
51
154.9637603
0
ARC
8
DEFAULT_255_2_778
10
7.5076723
20
31.0994827
40
3.5314724
50
155.0279048
51
180.0533973
0
LINE
8
DEFAULT_255_2_778
10
3.9762014
20
31.0961915
11
3.9762014
21
31.0959927
0
ARC
8
DEFAULT_255_2_778
10
7.5058264
20
31.0926158
40
3.5296266
50
179.9451844
51
205.8214791
0
ARC
8
DEFAULT_255_2_778
10
7.4302198
20
31.0608447
40
3.4477331
50
205.8934854
51
219.2777228
0
ARC
8
DEFAULT_255_2_778
10
7.5048453
20
23.3526784
40
3.5299069
50
141.005573
51
153.7468596
0
ARC
8
DEFAULT_255_2_778
10
7.4963317
20
23.3585165
40
3.5196893
50
153.7707896
51
173.4743645
0
ARC
8
DEFAULT_255_2_778
10
7.5144617
20
23.3555824
40
3.5380355
50
173.4605231
51
180.00046
0
ARC
8
DEFAULT_255_2_778
10
7.503173
20
23.3544998
40
3.5267468
50
179.982873
51
203.4581478
0
ARC
8
DEFAULT_255_2_778
10
7.4973804
20
23.3539057
40
3.5211968
50
203.486802
51
216.9753419
0
ARC
8
DEFAULT_255_2_778
10
7.5306825
20
23.3776784
40
3.5621004
50
216.9586394
51
218.9735564
0
ARC
8
DEFAULT_255_2_778
10
7.4308529
20
15.6498194
40
3.4485043
50
140.7232285
51
154.9635308
0
ARC
8
DEFAULT_255_2_778
10
7.5078748
20
15.6181944
40
3.5316749
50
155.0274804
51
180.0499528
0
LINE
8
DEFAULT_255_2_778
10
3.9762014
20
15.6151153
11
3.9762014
21
15.6149165
0
ARC
8
DEFAULT_255_2_778
10
7.5056236
20
15.6113286
40
3.5294241
50
179.941755
51
205.8211579
0
ARC
8
DEFAULT_255_2_778
10
7.4297968
20
15.5794668
40
3.447293
50
205.893403
51
219.2798839
0
ARC
8
DEFAULT_255_2_778
10
7.4308529
20
7.9094194
40
3.4485043
50
140.7232285
51
154.9635308
0
ARC
8
DEFAULT_255_2_778
10
7.5078748
20
7.8777944
40
3.5316749
50
155.0274804
51
180.0499528
0
LINE
8
DEFAULT_255_2_778
10
3.9762014
20
7.8747153
11
3.9762014
21
7.8745165
0
ARC
8
DEFAULT_255_2_778
10
7.5056236
20
7.8709286
40
3.5294241
50
179.941755
51
205.8211579
0
ARC
8
DEFAULT_255_2_778
10
7.4297968
20
7.8390668
40
3.447293
50
205.893403
51
219.2798839
0
ARC
8
DEFAULT_255_2_778
10
7.4116718
20
38.8731045
40
3.1345706
50
138.733383
51
153.2457821
0
ARC
8
DEFAULT_255_2_778
10
7.4860727
20
38.8408636
40
3.2155237
50
153.3295854
51
180.0669905
0
ARC
8
DEFAULT_255_2_778
10
7.485687
20
38.8332846
40
3.2151379
50
179.9319355
51
206.8327973
0
ARC
8
DEFAULT_255_2_778
10
7.4115918
20
38.8010428
40
3.1344705
50
206.9182618
51
221.2667494
0
ARC
8
DEFAULT_255_2_778
10
7.4115681
20
31.1328077
40
3.1344246
50
138.7335497
51
153.2468633
0
ARC
8
DEFAULT_255_2_778
10
7.4863773
20
31.1003759
40
3.2158283
50
153.3308703
51
180.0672038
0
ARC
8
DEFAULT_255_2_778
10
7.4859915
20
31.0927723
40
3.2154424
50
179.9317236
51
206.831504
0
ARC
8
DEFAULT_255_2_778
10
7.4114766
20
31.0603315
40
3.1343106
50
206.9171563
51
221.2666092
0
ARC
8
DEFAULT_255_2_778
10
7.4116718
20
23.3921045
40
3.1345706
50
138.733383
51
153.2457821
0
ARC
8
DEFAULT_255_2_778
10
7.4860727
20
23.3598636
40
3.2155237
50
153.3295854
51
180.0669905
0
ARC
8
DEFAULT_255_2_778
10
7.485687
20
23.3522846
40
3.2151379
50
179.9319355
51
206.8327973
0
ARC
8
DEFAULT_255_2_778
10
7.4115918
20
23.3200428
40
3.1344705
50
206.9182618
51
221.2667494
0
ARC
8
DEFAULT_255_2_778
10
7.4116521
20
15.6517209
40
3.134545
50
138.7333692
51
153.2459101
0
ARC
8
DEFAULT_255_2_778
10
7.4861541
20
15.6194428
40
3.2156051
50
153.3299286
51
180.0672859
0
LINE
8
DEFAULT_255_2_778
10
4.2705514
20
15.6156665
11
4.2705514
21
15.6151262
0
ARC
8
DEFAULT_255_2_778
10
7.4871163
20
15.6119866
40
3.2165664
50
179.9440752
51
206.5086847
0
ARC
8
DEFAULT_255_2_778
10
7.4128954
20
15.5799605
40
3.1358575
50
206.5903233
51
221.142743
0
ARC
8
DEFAULT_255_2_778
10
7.3742372
20
15.5458731
40
3.0843175
50
221.1383649
51
221.2570961
0
ARC
8
DEFAULT_255_2_778
10
7.4117182
20
7.9109577
40
3.1346364
50
138.7332993
51
153.2452827
0
ARC
8
DEFAULT_255_2_778
10
7.4859468
20
7.8788006
40
3.2153977
50
153.329054
51
180.0669853
0
LINE
8
DEFAULT_255_2_778
10
4.2705514
20
7.8750415
11
4.2705514
21
7.8748616
0
ARC
8
DEFAULT_255_2_778
10
7.4865213
20
7.8713526
40
3.2159718
50
179.9374853
51
206.5089418
0
ARC
8
DEFAULT_255_2_778
10
7.4121782
20
7.8392771
40
3.1351314
50
206.5907942
51
221.1474587
0
ARC
8
DEFAULT_255_2_778
10
7.4849262
20
7.9026698
40
3.2316243
50
221.1451148
51
221.2584412
0
LINE
8
DEFAULT_255_2_778
10
4.7613764
20
41.691454
11
4.7613764
21
41.055154
0
LINE
8
DEFAULT_255_2_778
10
4.7613764
20
36.618554
11
4.7613764
21
33.314154
0
LINE
8
DEFAULT_255_2_778
10
4.7613764
20
28.878154
11
4.7613764
21
25.573854
0
LINE
8
DEFAULT_255_2_778
10
4.7613764
20
21.137254
11
4.7613764
21
17.832954
0
LINE
8
DEFAULT_255_2_778
10
4.7613764
20
13.396954
11
4.7613764
21
10.092554
0
LINE
8
DEFAULT_255_2_778
10
4.7613764
20
5.656554
11
4.7613764
21
5.019954
0
LINE
8
DEFAULT_255_2_778
10
5.0555764
20
41.691454
11
5.0555764
21
40.940554
0
LINE
8
DEFAULT_255_2_778
10
5.0555764
20
36.733654
11
5.0555764
21
33.200154
0
LINE
8
DEFAULT_255_2_778
10
5.0555764
20
28.993054
11
5.0555764
21
25.459554
0
LINE
8
DEFAULT_255_2_778
10
5.0555764
20
21.252654
11
5.0555764
21
17.719154
0
LINE
8
DEFAULT_255_2_778
10
5.0555764
20
13.511954
11
5.0555764
21
9.978454
0
LINE
8
DEFAULT_255_2_778
10
5.0555764
20
5.771554
11
5.0555764
21
5.020754
0
LINE
8
DEFAULT_255_2_778
10
11.7548764
20
42.219254
11
11.7548764
21
37.471354
0
LINE
8
DEFAULT_255_2_778
10
11.7548764
20
37.471354
11
11.5622764
21
37.471354
0
LINE
8
DEFAULT_255_2_778
10
11.5622764
20
37.471354
11
11.5622764
21
42.222454
0
LINE
8
DEFAULT_255_2_778
10
7.7053764
20
41.691454
11
7.7053764
21
40.165354
0
LINE
8
DEFAULT_255_2_778
10
7.7053764
20
37.508654
11
7.7053764
21
32.424654
0
LINE
8
DEFAULT_255_2_778
10
7.7053764
20
29.767954
11
7.7053764
21
24.684054
0
LINE
8
DEFAULT_255_2_778
10
7.7053764
20
22.027554
11
7.7053764
21
16.943654
0
LINE
8
DEFAULT_255_2_778
10
7.7053764
20
14.286954
11
7.7053764
21
9.203554
0
LINE
8
DEFAULT_255_2_778
10
7.7053764
20
6.546554
11
7.7053764
21
5.020454
0
LINE
8
DEFAULT_255_2_778
10
11.9545764
20
4.314554
11
11.9545764
21
4.411154
0
LINE
8
DEFAULT_255_2_778
10
4.7613764
20
36.618854
11
5.0555764
21
36.733654
0
LINE
8
DEFAULT_255_2_778
10
4.7613764
20
5.656754
11
5.0555764
21
5.771354
0
ARC
8
DEFAULT_255_2_778
10
7.1407598
20
7.8780264
40
1.3494747
50
359.8645758
51
28.9875495
0
ARC
8
DEFAULT_255_2_778
10
7.206458
20
7.9265043
40
1.2685575
50
28.5103093
51
89.6399007
0
ARC
8
DEFAULT_255_2_778
10
7.2158077
20
7.9471486
40
1.2478889
50
90.0632207
51
133.515788
0
ARC
8
DEFAULT_255_2_778
10
7.2707638
20
7.8842065
40
1.3313783
50
133.3657791
51
171.1872639
0
ARC
8
DEFAULT_255_2_778
10
7.31335
20
7.8753579
40
1.3748192
50
171.0947544
51
180.0217175
0
ARC
8
DEFAULT_255_2_778
10
7.2887982
20
7.8717077
40
1.3502711
50
179.8672246
51
208.9791098
0
ARC
8
DEFAULT_255_2_778
10
7.222635
20
7.8227084
40
1.2686981
50
208.4909611
51
269.6294837
0
ARC
8
DEFAULT_255_2_778
10
7.2127984
20
7.8021672
40
1.2481316
50
270.0749343
51
314.1886115
0
ARC
8
DEFAULT_255_2_778
10
7.1566499
20
7.8655845
40
1.3327476
50
314.0191419
51
351.3124228
0
ARC
8
DEFAULT_255_2_778
10
7.1140226
20
7.8743285
40
1.3762083
50
351.2206249
51
0.0211621
0
ARC
8
DEFAULT_255_2_778
10
7.1330215
20
7.8780441
40
1.4553128
50
359.8737265
51
27.6141689
0
ARC
8
DEFAULT_255_2_778
10
7.2052715
20
7.9294501
40
1.3675185
50
27.1088216
51
89.6078656
0
ARC
8
DEFAULT_255_2_778
10
7.2150534
20
7.9582727
40
1.3386642
50
90.0180868
51
128.9858367
0
ARC
8
DEFAULT_255_2_778
10
7.2713292
20
7.8872359
40
1.4292861
50
128.9478365
51
168.3193274
0
ARC
8
DEFAULT_255_2_778
10
7.3156729
20
7.8757305
40
1.4750425
50
168.2303978
51
180.0347149
0
ARC
8
DEFAULT_255_2_778
10
7.2957243
20
7.8716422
40
1.455097
50
179.8742124
51
207.6221788
0
ARC
8
DEFAULT_255_2_778
10
7.2240366
20
7.8205482
40
1.3679439
50
207.1181605
51
269.606036
0
ARC
8
DEFAULT_255_2_778
10
7.2143906
20
7.7906276
40
1.3379909
50
270.0102832
51
308.6337912
0
ARC
8
DEFAULT_255_2_778
10
7.1584641
20
7.8615404
40
1.4283017
50
308.6102601
51
347.8479188
0
ARC
8
DEFAULT_255_2_778
10
7.112491
20
7.8738612
40
1.4758403
50
347.7560249
51
0.0378745
0
LINE
8
DEFAULT_255_2_778
10
4.7614308
20
10.0930368
11
5.0556308
21
9.9785368
0
LINE
8
DEFAULT_255_2_778
10
4.7614308
20
13.3971368
11
5.0556308
21
13.5117368
0
LINE
8
DEFAULT_255_2_778
10
4.7614308
20
17.8334368
11
5.0556308
21
17.7188368
0
LINE
8
DEFAULT_255_2_778
10
4.7614308
20
41.0551368
11
5.0556308
21
40.9403368
0
LINE
8
DEFAULT_255_2_778
10
4.7614308
20
21.1375368
11
5.0556308
21
21.2524368
0
LINE
8
DEFAULT_255_2_778
10
4.7614308
20
25.5741368
11
5.0556308
21
25.4592368
0
LINE
8
DEFAULT_255_2_778
10
4.7614308
20
28.8782368
11
5.0556308
21
28.9927368
0
LINE
8
DEFAULT_255_2_778
10
4.7614308
20
33.3144368
11
5.0556308
21
33.1999368
0
LINE
8
DEFAULT_255_2_778
10
7.4893308
20
8.1692368
11
7.4609308
21
8.1148368
0
LINE
8
DEFAULT_255_2_778
10
7.4609308
20
8.1148368
11
7.4472308
21
8.0618368
0
LINE
8
DEFAULT_255_2_778
10
7.4472308
20
8.0618368
11
7.4403308
21
8.0203368
0
LINE
8
DEFAULT_255_2_778
10
7.4403308
20
8.0203368
11
7.4350308
21
7.9740368
0
LINE
8
DEFAULT_255_2_778
10
7.4350308
20
7.9740368
11
7.4374308
21
7.7520368
0
LINE
8
DEFAULT_255_2_778
10
7.4374308
20
7.7520368
11
7.4406308
21
7.7261368
0
LINE
8
DEFAULT_255_2_778
10
7.4406308
20
7.7261368
11
7.4480308
21
7.6837368
0
LINE
8
DEFAULT_255_2_778
10
7.4480308
20
7.6837368
11
7.4660308
21
7.6205368
0
LINE
8
DEFAULT_255_2_778
10
7.4660308
20
7.6205368
11
7.4890308
21
7.5805368
0
LINE
8
DEFAULT_255_2_778
10
6.9204308
20
7.5805368
11
6.9461308
21
7.6274368
0
LINE
8
DEFAULT_255_2_778
10
6.9461308
20
7.6274368
11
6.9580308
21
7.6687368
0
LINE
8
DEFAULT_255_2_778
10
6.9580308
20
7.6687368
11
6.9691308
21
7.7295368
0
LINE
8
DEFAULT_255_2_778
10
6.9691308
20
7.7295368
11
6.9744308
21
7.7753368
0
LINE
8
DEFAULT_255_2_778
10
6.9744308
20
7.7753368
11
6.9720308
21
7.9973368
0
LINE
8
DEFAULT_255_2_778
10
6.9720308
20
7.9973368
11
6.9651308
21
8.0451368
0
LINE
8
DEFAULT_255_2_778
10
6.9651308
20
8.0451368
11
6.9519308
21
8.1028368
0
LINE
8
DEFAULT_255_2_778
10
6.9519308
20
8.1028368
11
6.9291308
21
8.1573368
0
LINE
8
DEFAULT_255_2_778
10
6.9291308
20
8.1573368
11
6.9201308
21
8.1690368
0
LINE
8
DEFAULT_255_2_778
10
7.6951308
20
7.3665368
11
7.6951308
21
8.3825368
0
LINE
8
DEFAULT_255_2_778
10
7.6951308
20
8.3825368
11
6.7138308
21
8.3825368
0
LINE
8
DEFAULT_255_2_778
10
6.7138308
20
8.3825368
11
6.9201308
21
8.1690368
0
LINE
8
DEFAULT_255_2_778
10
6.9201308
20
8.1690368
11
7.4887308
21
8.1690368
0
LINE
8
DEFAULT_255_2_778
10
7.4887308
20
8.1690368
11
7.6951308
21
8.3825368
0
LINE
8
DEFAULT_255_2_778
10
6.7138308
20
7.3665368
11
6.9201308
21
7.5803368
0
LINE
8
DEFAULT_255_2_778
10
6.9201308
20
7.5803368
11
7.4887308
21
7.5803368
0
LINE
8
DEFAULT_255_2_778
10
7.4887308
20
7.5803368
11
7.6951308
21
7.3665368
0
LINE
8
DEFAULT_255_2_778
10
7.6951308
20
7.3665368
11
6.7138308
21
7.3665368
0
LINE
8
DEFAULT_255_2_778
10
6.7138308
20
7.3665368
11
6.7138308
21
8.3825368
0
LINE
8
DEFAULT_255_2_778
10
8.4902308
20
7.8748368
11
8.4902308
21
7.8748368
0
LINE
8
DEFAULT_255_2_778
10
8.5883308
20
7.8748368
11
8.5883308
21
7.8748368
0
ARC
8
DEFAULT_255_2_778
10
7.1403512
20
15.6183221
40
1.3504109
50
359.8668427
51
28.9753705
0
ARC
8
DEFAULT_255_2_778
10
7.2067709
20
15.6674653
40
1.2685447
50
28.4868439
51
89.6301898
0
ARC
8
DEFAULT_255_2_778
10
7.2164644
20
15.6881898
40
1.2477948
50
90.0691468
51
133.8839732
0
ARC
8
DEFAULT_255_2_778
10
7.2724948
20
15.6245849
40
1.3324832
50
133.7245617
51
171.2588001
0
ARC
8
DEFAULT_255_2_778
10
7.3154753
20
15.6156983
40
1.3763168
50
171.1650691
51
180.0214254
0
ARC
8
DEFAULT_255_2_778
10
7.2888883
20
15.6119333
40
1.3497337
50
179.8620233
51
208.9828222
0
ARC
8
DEFAULT_255_2_778
10
7.2227666
20
15.563359
40
1.2683993
50
208.5106824
51
269.6472929
0
ARC
8
DEFAULT_255_2_778
10
7.2135998
20
15.5427109
40
1.247728
50
270.0623933
51
313.5131813
0
ARC
8
DEFAULT_255_2_778
10
7.1585182
20
15.6057565
40
1.3313789
50
313.3641877
51
351.1769114
0
ARC
8
DEFAULT_255_2_778
10
7.1157484
20
15.6146617
40
1.3750104
50
351.0835855
51
0.0217492
0
ARC
8
DEFAULT_255_2_778
10
7.1331886
20
15.6184721
40
1.4557736
50
359.8705744
51
27.6099821
0
ARC
8
DEFAULT_255_2_778
10
7.2060057
20
15.6699898
40
1.3674246
50
27.1111989
51
89.6164891
0
ARC
8
DEFAULT_255_2_778
10
7.2154274
20
15.6990982
40
1.3382855
50
90.0115105
51
128.6293672
0
ARC
8
DEFAULT_255_2_778
10
7.2713808
20
15.6281646
40
1.4286295
50
128.6064422
51
168.2524178
0
ARC
8
DEFAULT_255_2_778
10
7.3174125
20
15.6161052
40
1.4761543
50
168.1579173
51
180.0357686
0
ARC
8
DEFAULT_255_2_778
10
7.2965452
20
15.6119268
40
1.4552903
50
179.8717744
51
207.6183359
0
ARC
8
DEFAULT_255_2_778
10
7.2243963
20
15.5607354
40
1.367683
50
207.1193195
51
269.613001
0
ARC
8
DEFAULT_255_2_778
10
7.214896
20
15.5311756
40
1.3380919
50
270.0112394
51
308.6359302
0
ARC
8
DEFAULT_255_2_778
10
7.1587664
20
15.6023217
40
1.4287121
50
308.6127919
51
348.2521136
0
ARC
8
DEFAULT_255_2_778
10
7.1131803
20
15.6142729
40
1.4757785
50
348.1581872
51
0.03536
0
ARC
8
DEFAULT_255_2_778
10
7.1410463
20
23.3592753
40
1.349716
50
359.8645167
51
28.9830029
0
ARC
8
DEFAULT_255_2_778
10
7.2070043
20
23.407914
40
1.2684947
50
28.5047787
51
89.6407171
0
ARC
8
DEFAULT_255_2_778
10
7.2163403
20
23.4287161
40
1.2476684
50
90.0634534
51
133.5228455
0
ARC
8
DEFAULT_255_2_778
10
7.2715898
20
23.3654786
40
1.3315735
50
133.3728188
51
171.1865873
0
ARC
8
DEFAULT_255_2_778
10
7.3142235
20
23.3566051
40
1.3750651
50
171.0933942
51
180.0217255
0
ARC
8
DEFAULT_255_2_778
10
7.2894865
20
23.3529692
40
1.3503316
50
179.867851
51
208.9762404
0
ARC
8
DEFAULT_255_2_778
10
7.223196
20
23.3038443
40
1.2685874
50
208.4856851
51
269.6279534
0
ARC
8
DEFAULT_255_2_778
10
7.2134266
20
23.2830507
40
1.247768
50
270.0703448
51
313.8868142
0
ARC
8
DEFAULT_255_2_778
10
7.157339
20
23.3467642
40
1.3325742
50
313.725768
51
351.2568941
0
ARC
8
DEFAULT_255_2_778
10
7.1147181
20
23.3555717
40
1.3760405
50
351.1641833
51
0.0213185
0
ARC
8
DEFAULT_255_2_778
10
7.1338632
20
23.3593355
40
1.4550989
50
359.8719565
51
27.6165044
0
ARC
8
DEFAULT_255_2_778
10
7.2059987
20
23.4104965
40
1.3675177
50
27.1181767
51
89.6162202
0
ARC
8
DEFAULT_255_2_778
10
7.2154388
20
23.4395901
40
1.3383936
50
90.0119967
51
128.6262899
0
ARC
8
DEFAULT_255_2_778
10
7.2711684
20
23.368855
40
1.4284429
50
128.6015121
51
168.2465478
0
ARC
8
DEFAULT_255_2_778
10
7.3164739
20
23.3569983
40
1.4752157
50
168.1541402
51
180.035524
0
ARC
8
DEFAULT_255_2_778
10
7.2962763
20
23.3528933
40
1.4550212
50
179.8743699
51
207.6209281
0
ARC
8
DEFAULT_255_2_778
10
7.2245502
20
23.301774
40
1.3678225
50
207.1165916
51
269.6065946
0
ARC
8
DEFAULT_255_2_778
10
7.2149356
20
23.2721785
40
1.3381948
50
270.0095457
51
308.6302462
0
ARC
8
DEFAULT_255_2_778
10
7.1589809
20
23.3430295
40
1.4284751
50
308.6093724
51
348.2555579
0
ARC
8
DEFAULT_255_2_778
10
7.1126919
20
23.3551636
40
1.4762669
50
348.1601532
51
0.0357076
0
ARC
8
DEFAULT_255_2_778
10
7.1407463
20
31.0996753
40
1.349716
50
359.8645167
51
28.9830029
0
ARC
8
DEFAULT_255_2_778
10
7.2067043
20
31.148314
40
1.2684947
50
28.5047787
51
89.6407171
0
ARC
8
DEFAULT_255_2_778
10
7.2160403
20
31.1691161
40
1.2476684
50
90.0634534
51
133.5228455
0
ARC
8
DEFAULT_255_2_778
10
7.2712898
20
31.1058786
40
1.3315735
50
133.3728188
51
171.1865873
0
ARC
8
DEFAULT_255_2_778
10
7.3139235
20
31.0970051
40
1.3750651
50
171.0933942
51
180.0217255
0
ARC
8
DEFAULT_255_2_778
10
7.2884309
20
31.0932814
40
1.3495761
50
179.8640461
51
208.9845446
0
ARC
8
DEFAULT_255_2_778
10
7.2225657
20
31.044743
40
1.268484
50
208.508354
51
269.6428425
0
ARC
8
DEFAULT_255_2_778
10
7.2132998
20
31.0240109
40
1.247728
50
270.0623933
51
313.5131813
0
ARC
8
DEFAULT_255_2_778
10
7.1582182
20
31.0870565
40
1.3313789
50
313.3641877
51
351.1769114
0
ARC
8
DEFAULT_255_2_778
10
7.1154484
20
31.0959617
40
1.3750104
50
351.0835855
51
0.0217492
0
ARC
8
DEFAULT_255_2_778
10
7.1331246
20
31.0997033
40
1.4555375
50
359.8732635
51
27.6119954
0
ARC
8
DEFAULT_255_2_778
10
7.2056014
20
31.1512281
40
1.3674877
50
27.1064914
51
89.6079452
0
ARC
8
DEFAULT_255_2_778
10
7.2153777
20
31.1800551
40
1.3386286
50
90.0179412
51
128.9868769
0
ARC
8
DEFAULT_255_2_778
10
7.2717282
20
31.1089525
40
1.4293488
50
128.9494785
51
168.3212858
0
ARC
8
DEFAULT_255_2_778
10
7.3163126
20
31.0973798
40
1.4753545
50
168.2316453
51
180.0348002
0
ARC
8
DEFAULT_255_2_778
10
7.2959174
20
31.0932793
40
1.4549624
50
179.8738123
51
207.623483
0
ARC
8
DEFAULT_255_2_778
10
7.2243154
20
31.0422802
40
1.3679284
50
207.1214023
51
269.6080849
0
ARC
8
DEFAULT_255_2_778
10
7.2146748
20
31.0123082
40
1.3379245
50
270.0121513
51
308.6384456
0
ARC
8
DEFAULT_255_2_778
10
7.1584208
20
31.0836285
40
1.4287583
50
308.6146802
51
348.2522222
0
ARC
8
DEFAULT_255_2_778
10
7.1128619
20
31.0955739
40
1.4757969
50
348.1582994
51
0.0353225
0
ARC
8
DEFAULT_255_2_778
10
7.1407911
20
38.8397128
40
1.3502711
50
359.8672246
51
28.9791098
0
ARC
8
DEFAULT_255_2_778
10
7.2069543
20
38.888712
40
1.2686981
50
28.4909611
51
89.6294837
0
ARC
8
DEFAULT_255_2_778
10
7.2167909
20
38.9092532
40
1.2481316
50
90.0749343
51
134.1886115
0
ARC
8
DEFAULT_255_2_778
10
7.2729394
20
38.8458359
40
1.3327476
50
134.0191419
51
171.3124228
0
ARC
8
DEFAULT_255_2_778
10
7.3155667
20
38.837092
40
1.3762083
50
171.2206249
51
180.0211621
0
ARC
8
DEFAULT_255_2_778
10
7.2889869
20
38.833346
40
1.3496323
50
179.8625526
51
208.9858269
0
ARC
8
DEFAULT_255_2_778
10
7.2230322
20
38.7848321
40
1.2684728
50
208.5126375
51
269.6443513
0
ARC
8
DEFAULT_255_2_778
10
7.213756
20
38.7642435
40
1.2478606
50
270.0643978
51
313.5186421
0
ARC
8
DEFAULT_255_2_778
10
7.1587414
20
38.8272959
40
1.3314703
50
313.3670238
51
351.1853627
0
ARC
8
DEFAULT_255_2_778
10
7.1165169
20
38.8360652
40
1.3745416
50
351.0938505
51
0.0216103
0
ARC
8
DEFAULT_255_2_778
10
7.1333551
20
38.8398696
40
1.4558071
50
359.8706751
51
27.6094021
0
ARC
8
DEFAULT_255_2_778
10
7.2062551
20
38.8914662
40
1.3673485
50
27.1092332
51
89.6143471
0
ARC
8
DEFAULT_255_2_778
10
7.2157417
20
38.920351
40
1.3384327
50
90.012121
51
128.6271565
0
ARC
8
DEFAULT_255_2_778
10
7.2715956
20
38.849496
40
1.4286531
50
128.6032252
51
168.2498091
0
ARC
8
DEFAULT_255_2_778
10
7.3174097
20
38.8375024
40
1.4759517
50
168.1561565
51
180.035664
0
ARC
8
DEFAULT_255_2_778
10
7.2961925
20
38.8333053
40
1.4547377
50
179.8708792
51
207.6256732
0
ARC
8
DEFAULT_255_2_778
10
7.2245664
20
38.7825433
40
1.3677899
50
207.1329477
51
269.6184738
0
ARC
8
DEFAULT_255_2_778
10
7.2152029
20
38.7529191
40
1.3381354
50
270.0109434
51
308.6296838
0
ARC
8
DEFAULT_255_2_778
10
7.1593478
20
38.8237458
40
1.4283347
50
308.6063301
51
348.2497968
0
ARC
8
DEFAULT_255_2_778
10
7.1138142
20
38.8356715
40
1.4753446
50
348.1564731
51
0.0354258
0
ARC
8
DEFAULT_255_2_778
10
11.8548461
20
37.4699224
40
0.100203
50
178.9928452
51
267.9482153
0
ARC
8
DEFAULT_255_2_778
10
11.8627799
20
37.4663556
40
0.2999635
50
179.0395413
51
267.9516844
0
ARC
8
DEFAULT_255_2_778
10
14.108671
20
36.825749
40
0.3000286
50
359.051733
51
87.9394834
0
ARC
8
DEFAULT_255_2_778
10
14.108671
20
34.7737183
40
0.3000286
50
272.0605166
51
0.948267
0
ARC
8
DEFAULT_255_2_778
10
11.8627798
20
34.1331119
40
0.2999634
50
92.0482923
51
180.9604815
0
ARC
8
DEFAULT_255_2_778
10
11.8551156
20
34.130054
40
0.0996766
50
91.7575415
51
181.1326236
0
ARC
8
DEFAULT_255_2_778
10
11.8556424
20
12.5821141
40
0.1001946
50
179.1596179
51
267.9501461
0
ARC
8
DEFAULT_255_2_778
10
11.8630447
20
12.5788067
40
0.3002241
50
179.0883067
51
267.9029002
0
ARC
8
DEFAULT_255_2_778
10
14.1091374
20
11.9383966
40
0.2995649
50
359.022033
51
88.0255514
0
ARC
8
DEFAULT_255_2_778
10
14.1088386
20
9.8858439
40
0.3001589
50
272.0848992
51
0.9238845
0
ARC
8
DEFAULT_255_2_778
10
11.86258
20
9.2454965
40
0.299565
50
91.9745053
51
180.9779433
0
ARC
8
DEFAULT_255_2_778
10
11.8558575
20
9.2416373
40
0.1001111
50
92.0601975
51
180.8891895
0
LINE
8
DEFAULT_255_2_778
10
7.4892585
20
15.9096837
11
7.4636585
21
15.8628837
0
LINE
8
DEFAULT_255_2_778
10
7.4636585
20
15.8628837
11
7.4474585
21
15.8025837
0
LINE
8
DEFAULT_255_2_778
10
7.4474585
20
15.8025837
11
7.4406585
21
15.7604837
0
LINE
8
DEFAULT_255_2_778
10
7.4406585
20
15.7604837
11
7.4353585
21
15.7146837
0
LINE
8
DEFAULT_255_2_778
10
7.4353585
20
15.7146837
11
7.4377585
21
15.4926837
0
LINE
8
DEFAULT_255_2_778
10
7.4377585
20
15.4926837
11
7.4408585
21
15.4664837
0
LINE
8
DEFAULT_255_2_778
10
7.4408585
20
15.4664837
11
7.4482585
21
15.4241837
0
LINE
8
DEFAULT_255_2_778
10
7.4482585
20
15.4241837
11
7.4718585
21
15.3482837
0
LINE
8
DEFAULT_255_2_778
10
7.4718585
20
15.3482837
11
7.4892585
21
15.3209837
0
LINE
8
DEFAULT_255_2_778
10
6.9207585
20
15.3209837
11
6.9490585
21
15.3754837
0
LINE
8
DEFAULT_255_2_778
10
6.9490585
20
15.3754837
11
6.9585585
21
15.4090837
0
LINE
8
DEFAULT_255_2_778
10
6.9585585
20
15.4090837
11
6.9696585
21
15.4699837
0
LINE
8
DEFAULT_255_2_778
10
6.9696585
20
15.4699837
11
6.9749585
21
15.5162837
0
LINE
8
DEFAULT_255_2_778
10
6.9749585
20
15.5162837
11
6.9725585
21
15.7382837
0
LINE
8
DEFAULT_255_2_778
10
6.9725585
20
15.7382837
11
6.9656585
21
15.7858837
0
LINE
8
DEFAULT_255_2_778
10
6.9656585
20
15.7858837
11
6.9524585
21
15.8435837
0
LINE
8
DEFAULT_255_2_778
10
6.9524585
20
15.8435837
11
6.9265585
21
15.9027837
0
LINE
8
DEFAULT_255_2_778
10
6.9265585
20
15.9027837
11
6.9207585
21
15.9096837
0
LINE
8
DEFAULT_255_2_778
10
7.6956585
20
15.1074837
11
7.6956585
21
16.1234837
0
LINE
8
DEFAULT_255_2_778
10
7.6956585
20
16.1234837
11
6.7143585
21
16.1234837
0
LINE
8
DEFAULT_255_2_778
10
6.7143585
20
16.1234837
11
6.9207585
21
15.9096837
0
LINE
8
DEFAULT_255_2_778
10
6.9207585
20
15.9096837
11
7.4892585
21
15.9096837
0
LINE
8
DEFAULT_255_2_778
10
7.4892585
20
15.9096837
11
7.6956585
21
16.1234837
0
LINE
8
DEFAULT_255_2_778
10
6.7143585
20
16.1234837
11
6.7143585
21
15.1074837
0
LINE
8
DEFAULT_255_2_778
10
6.7143585
20
15.1074837
11
7.6956585
21
15.1074837
0
LINE
8
DEFAULT_255_2_778
10
7.6956585
20
15.1074837
11
7.4892585
21
15.3209837
0
LINE
8
DEFAULT_255_2_778
10
7.4892585
20
15.3209837
11
6.9207585
21
15.3209837
0
LINE
8
DEFAULT_255_2_778
10
6.9207585
20
15.3209837
11
6.7143585
21
15.1074837
0
LINE
8
DEFAULT_255_2_778
10
8.4907585
20
15.6151837
11
8.4907585
21
15.6151837
0
LINE
8
DEFAULT_255_2_778
10
8.5889585
20
15.6151837
11
8.5889585
21
15.6151837
0
LINE
8
DEFAULT_255_2_778
10
7.4892585
20
23.6503837
11
7.4609585
21
23.5958837
0
LINE
8
DEFAULT_255_2_778
10
7.4609585
20
23.5958837
11
7.4472585
21
23.5428837
0
LINE
8
DEFAULT_255_2_778
10
7.4472585
20
23.5428837
11
7.4403585
21
23.5008837
0
LINE
8
DEFAULT_255_2_778
10
7.4403585
20
23.5008837
11
7.4350585
21
23.4550837
0
LINE
8
DEFAULT_255_2_778
10
7.4350585
20
23.4550837
11
7.4374585
21
23.2330837
0
LINE
8
DEFAULT_255_2_778
10
7.4374585
20
23.2330837
11
7.4443585
21
23.1854837
0
LINE
8
DEFAULT_255_2_778
10
7.4443585
20
23.1854837
11
7.4525585
21
23.1452837
0
LINE
8
DEFAULT_255_2_778
10
7.4525585
20
23.1452837
11
7.4773585
21
23.0777837
0
LINE
8
DEFAULT_255_2_778
10
7.4773585
20
23.0777837
11
7.4892585
21
23.0613837
0
LINE
8
DEFAULT_255_2_778
10
6.9207585
20
23.0613837
11
6.9463585
21
23.1087837
0
LINE
8
DEFAULT_255_2_778
10
6.9463585
20
23.1087837
11
6.9582585
21
23.1499837
0
LINE
8
DEFAULT_255_2_778
10
6.9582585
20
23.1499837
11
6.9659585
21
23.1891837
0
LINE
8
DEFAULT_255_2_778
10
6.9659585
20
23.1891837
11
6.9723585
21
23.2333837
0
LINE
8
DEFAULT_255_2_778
10
6.9723585
20
23.2333837
11
6.9720585
21
23.4820837
0
LINE
8
DEFAULT_255_2_778
10
6.9720585
20
23.4820837
11
6.9656585
21
23.5264837
0
LINE
8
DEFAULT_255_2_778
10
6.9656585
20
23.5264837
11
6.9524585
21
23.5841837
0
LINE
8
DEFAULT_255_2_778
10
6.9524585
20
23.5841837
11
6.9297585
21
23.6386837
0
LINE
8
DEFAULT_255_2_778
10
6.9297585
20
23.6386837
11
6.9207585
21
23.6503837
0
LINE
8
DEFAULT_255_2_778
10
7.6956585
20
23.8638837
11
7.4892585
21
23.6503837
0
LINE
8
DEFAULT_255_2_778
10
7.4892585
20
23.6503837
11
6.9207585
21
23.6503837
0
LINE
8
DEFAULT_255_2_778
10
6.9207585
20
23.6503837
11
6.7143585
21
23.8638837
0
LINE
8
DEFAULT_255_2_778
10
6.7143585
20
23.8638837
11
7.6956585
21
23.8638837
0
LINE
8
DEFAULT_255_2_778
10
7.6956585
20
23.8638837
11
7.6956585
21
22.8478837
0
LINE
8
DEFAULT_255_2_778
10
6.7143585
20
23.8638837
11
6.7143585
21
22.8478837
0
LINE
8
DEFAULT_255_2_778
10
6.7143585
20
22.8478837
11
7.6956585
21
22.8478837
0
LINE
8
DEFAULT_255_2_778
10
7.6956585
20
22.8478837
11
7.4892585
21
23.0613837
0
LINE
8
DEFAULT_255_2_778
10
7.4892585
20
23.0613837
11
6.9207585
21
23.0613837
0
LINE
8
DEFAULT_255_2_778
10
6.9207585
20
23.0613837
11
6.7143585
21
22.8478837
0
LINE
8
DEFAULT_255_2_778
10
8.4907585
20
23.3560837
11
8.4907585
21
23.3560837
0
LINE
8
DEFAULT_255_2_778
10
8.5889585
20
23.3560837
11
8.5889585
21
23.3560837
0
LINE
8
DEFAULT_255_2_778
10
7.4892585
20
31.3906837
11
7.4609585
21
31.3361837
0
LINE
8
DEFAULT_255_2_778
10
7.4609585
20
31.3361837
11
7.4472585
21
31.2832837
0
LINE
8
DEFAULT_255_2_778
10
7.4472585
20
31.2832837
11
7.4403585
21
31.2417837
0
LINE
8
DEFAULT_255_2_778
10
7.4403585
20
31.2417837
11
7.4350585
21
31.1954837
0
LINE
8
DEFAULT_255_2_778
10
7.4350585
20
31.1954837
11
7.4374585
21
30.9739837
0
LINE
8
DEFAULT_255_2_778
10
7.4374585
20
30.9739837
11
7.4406585
21
30.9477837
0
LINE
8
DEFAULT_255_2_778
10
7.4406585
20
30.9477837
11
7.4480585
21
30.9054837
0
LINE
8
DEFAULT_255_2_778
10
7.4480585
20
30.9054837
11
7.4715585
21
30.8295837
0
LINE
8
DEFAULT_255_2_778
10
7.4715585
20
30.8295837
11
7.4890585
21
30.8022837
0
LINE
8
DEFAULT_255_2_778
10
6.9204585
20
30.8022837
11
6.9487585
21
30.8567837
0
LINE
8
DEFAULT_255_2_778
10
6.9487585
20
30.8567837
11
6.9582585
21
30.8903837
0
LINE
8
DEFAULT_255_2_778
10
6.9582585
20
30.8903837
11
6.9693585
21
30.9512837
0
LINE
8
DEFAULT_255_2_778
10
6.9693585
20
30.9512837
11
6.9746585
21
30.9975837
0
LINE
8
DEFAULT_255_2_778
10
6.9746585
20
30.9975837
11
6.9723585
21
31.2189837
0
LINE
8
DEFAULT_255_2_778
10
6.9723585
20
31.2189837
11
6.9654585
21
31.2668837
0
LINE
8
DEFAULT_255_2_778
10
6.9654585
20
31.2668837
11
6.9521585
21
31.3245837
0
LINE
8
DEFAULT_255_2_778
10
6.9521585
20
31.3245837
11
6.9294585
21
31.3790837
0
LINE
8
DEFAULT_255_2_778
10
6.9294585
20
31.3790837
11
6.9204585
21
31.3906837
0
LINE
8
DEFAULT_255_2_778
10
7.6954585
20
31.6042837
11
7.4890585
21
31.3906837
0
LINE
8
DEFAULT_255_2_778
10
7.4890585
20
31.3906837
11
6.9204585
21
31.3906837
0
LINE
8
DEFAULT_255_2_778
10
6.9204585
20
31.3906837
11
6.7140585
21
31.6042837
0
LINE
8
DEFAULT_255_2_778
10
6.7140585
20
31.6042837
11
7.6954585
21
31.6042837
0
LINE
8
DEFAULT_255_2_778
10
7.6954585
20
31.6042837
11
7.6954585
21
30.5887837
0
LINE
8
DEFAULT_255_2_778
10
6.7140585
20
31.6042837
11
6.7140585
21
30.5887837
0
LINE
8
DEFAULT_255_2_778
10
6.7140585
20
30.5887837
11
7.6954585
21
30.5887837
0
LINE
8
DEFAULT_255_2_778
10
7.6954585
20
30.5887837
11
7.4890585
21
30.8022837
0
LINE
8
DEFAULT_255_2_778
10
7.4890585
20
30.8022837
11
6.9204585
21
30.8022837
0
LINE
8
DEFAULT_255_2_778
10
6.9204585
20
30.8022837
11
6.7140585
21
30.5887837
0
LINE
8
DEFAULT_255_2_778
10
8.4904585
20
31.0964837
11
8.4904585
21
31.0964837
0
LINE
8
DEFAULT_255_2_778
10
8.5886585
20
31.0964837
11
8.5886585
21
31.0964837
0
LINE
8
DEFAULT_255_2_778
10
7.4892585
20
39.1313837
11
7.4636585
21
39.0839837
0
LINE
8
DEFAULT_255_2_778
10
7.4636585
20
39.0839837
11
7.4474585
21
39.0236837
0
LINE
8
DEFAULT_255_2_778
10
7.4474585
20
39.0236837
11
7.4406585
21
38.9815837
0
LINE
8
DEFAULT_255_2_778
10
7.4406585
20
38.9815837
11
7.4353585
21
38.9358837
0
LINE
8
DEFAULT_255_2_778
10
7.4353585
20
38.9358837
11
7.4377585
21
38.7138837
0
LINE
8
DEFAULT_255_2_778
10
7.4377585
20
38.7138837
11
7.4445585
21
38.6659837
0
LINE
8
DEFAULT_255_2_778
10
7.4445585
20
38.6659837
11
7.4575585
21
38.6082837
0
LINE
8
DEFAULT_255_2_778
10
7.4575585
20
38.6082837
11
7.4863585
21
38.5455837
0
LINE
8
DEFAULT_255_2_778
10
7.4863585
20
38.5455837
11
7.4895585
21
38.5421837
0
LINE
8
DEFAULT_255_2_778
10
6.9209585
20
38.5421837
11
6.9492585
21
38.5966837
0
LINE
8
DEFAULT_255_2_778
10
6.9492585
20
38.5966837
11
6.9627585
21
38.6495837
0
LINE
8
DEFAULT_255_2_778
10
6.9627585
20
38.6495837
11
6.9699585
21
38.6916837
0
LINE
8
DEFAULT_255_2_778
10
6.9699585
20
38.6916837
11
6.9752585
21
38.7373837
0
LINE
8
DEFAULT_255_2_778
10
6.9752585
20
38.7373837
11
6.9728585
21
38.9593837
0
LINE
8
DEFAULT_255_2_778
10
6.9728585
20
38.9593837
11
6.9659585
21
39.0069837
0
LINE
8
DEFAULT_255_2_778
10
6.9659585
20
39.0069837
11
6.9527585
21
39.0646837
0
LINE
8
DEFAULT_255_2_778
10
6.9527585
20
39.0646837
11
6.9268585
21
39.1239837
0
LINE
8
DEFAULT_255_2_778
10
6.9268585
20
39.1239837
11
6.9209585
21
39.1313837
0
LINE
8
DEFAULT_255_2_778
10
7.6959585
20
38.3288837
11
7.6959585
21
39.3448837
0
LINE
8
DEFAULT_255_2_778
10
7.6959585
20
39.3448837
11
6.7146585
21
39.3448837
0
LINE
8
DEFAULT_255_2_778
10
7.6959585
20
39.3448837
11
7.4895585
21
39.1313837
0
LINE
8
DEFAULT_255_2_778
10
7.4895585
20
39.1313837
11
6.9209585
21
39.1313837
0
LINE
8
DEFAULT_255_2_778
10
6.9209585
20
39.1313837
11
6.7146585
21
39.3448837
0
LINE
8
DEFAULT_255_2_778
10
6.7146585
20
39.3448837
11
6.7146585
21
38.3288837
0
LINE
8
DEFAULT_255_2_778
10
6.7146585
20
38.3288837
11
7.6959585
21
38.3288837
0
LINE
8
DEFAULT_255_2_778
10
7.6959585
20
38.3288837
11
7.4895585
21
38.5423837
0
LINE
8
DEFAULT_255_2_778
10
7.4895585
20
38.5423837
11
6.9209585
21
38.5423837
0
LINE
8
DEFAULT_255_2_778
10
6.9209585
20
38.5423837
11
6.7146585
21
38.3288837
0
LINE
8
DEFAULT_255_2_778
10
8.4910585
20
38.8365837
11
8.4910585
21
38.8365837
0
LINE
8
DEFAULT_255_2_778
10
8.5891585
20
38.8365837
11
8.5891585
21
38.8365837
0
LINE
8
DEFAULT_255_2_778
10
10.5563585
20
39.9330837
11
10.5547585
21
39.8801837
0
LINE
8
DEFAULT_255_2_778
10
10.5547585
20
39.8801837
11
10.5515585
21
39.8483837
0
LINE
8
DEFAULT_255_2_778
10
10.5515585
20
39.8483837
11
10.5447585
21
39.8049837
0
LINE
8
DEFAULT_255_2_778
10
10.5447585
20
39.8049837
11
10.5193585
21
39.7388837
0
LINE
8
DEFAULT_255_2_778
10
10.5193585
20
39.7388837
11
10.5171585
21
39.7367837
0
LINE
8
DEFAULT_255_2_778
10
11.3895585
20
39.7367837
11
11.3596585
21
39.7830837
0
LINE
8
DEFAULT_255_2_778
10
11.3596585
20
39.7830837
11
11.3453585
21
39.8353837
0
LINE
8
DEFAULT_255_2_778
10
11.3453585
20
39.8353837
11
11.3387585
21
39.8822837
0
LINE
8
DEFAULT_255_2_778
10
11.3387585
20
39.8822837
11
11.3363585
21
39.9330837
0
LINE
8
DEFAULT_255_2_778
10
10.5171585
20
37.9375837
11
10.5362585
21
37.9010837
0
LINE
8
DEFAULT_255_2_778
10
10.5362585
20
37.9010837
11
10.5476585
21
37.8523837
0
LINE
8
DEFAULT_255_2_778
10
10.5476585
20
37.8523837
11
10.5534585
21
37.8071837
0
LINE
8
DEFAULT_255_2_778
10
10.5534585
20
37.8071837
11
10.5555585
21
37.7745837
0
LINE
8
DEFAULT_255_2_778
10
10.5555585
20
37.7745837
11
10.5563585
21
37.7409837
0
LINE
8
DEFAULT_255_2_778
10
10.5171585
20
30.1968837
11
10.5362585
21
30.1603837
0
LINE
8
DEFAULT_255_2_778
10
10.5362585
20
30.1603837
11
10.5476585
21
30.1116837
0
LINE
8
DEFAULT_255_2_778
10
10.5476585
20
30.1116837
11
10.5534585
21
30.0664837
0
LINE
8
DEFAULT_255_2_778
10
10.5534585
20
30.0664837
11
10.5555585
21
30.0336837
0
LINE
8
DEFAULT_255_2_778
10
10.5555585
20
30.0336837
11
10.5563585
21
30.0000837
0
LINE
8
DEFAULT_255_2_778
10
10.5563585
20
24.4514837
11
10.5547585
21
24.3985837
0
LINE
8
DEFAULT_255_2_778
10
10.5547585
20
24.3985837
11
10.5515585
21
24.3667837
0
LINE
8
DEFAULT_255_2_778
10
10.5515585
20
24.3667837
11
10.5447585
21
24.3234837
0
LINE
8
DEFAULT_255_2_778
10
10.5447585
20
24.3234837
11
10.5193585
21
24.2572837
0
LINE
8
DEFAULT_255_2_778
10
10.5193585
20
24.2572837
11
10.5171585
21
24.2551837
0
LINE
8
DEFAULT_255_2_778
10
11.3895585
20
24.2551837
11
11.3596585
21
24.3017837
0
LINE
8
DEFAULT_255_2_778
10
11.3596585
20
24.3017837
11
11.3453585
21
24.3538837
0
LINE
8
DEFAULT_255_2_778
10
11.3453585
20
24.3538837
11
11.3387585
21
24.4006837
0
LINE
8
DEFAULT_255_2_778
10
11.3387585
20
24.4006837
11
11.3363585
21
24.4514837
0
LINE
8
DEFAULT_255_2_778
10
10.5171585
20
22.4559837
11
10.5362585
21
22.4194837
0
LINE
8
DEFAULT_255_2_778
10
10.5362585
20
22.4194837
11
10.5476585
21
22.3707837
0
LINE
8
DEFAULT_255_2_778
10
10.5476585
20
22.3707837
11
10.5534585
21
22.3255837
0
LINE
8
DEFAULT_255_2_778
10
10.5534585
20
22.3255837
11
10.5555585
21
22.2929837
0
LINE
8
DEFAULT_255_2_778
10
10.5555585
20
22.2929837
11
10.5563585
21
22.2593837
0
LINE
8
DEFAULT_255_2_778
10
10.5563585
20
16.7108837
11
10.5547585
21
16.6578837
0
LINE
8
DEFAULT_255_2_778
10
10.5547585
20
16.6578837
11
10.5515585
21
16.6261837
0
LINE
8
DEFAULT_255_2_778
10
10.5515585
20
16.6261837
11
10.5447585
21
16.5827837
0
LINE
8
DEFAULT_255_2_778
10
10.5447585
20
16.5827837
11
10.5214585
21
16.5189837
0
LINE
8
DEFAULT_255_2_778
10
10.5214585
20
16.5189837
11
10.5174585
21
16.5144837
0
LINE
8
DEFAULT_255_2_778
10
11.3897585
20
16.5144837
11
11.3598585
21
16.5608837
0
LINE
8
DEFAULT_255_2_778
10
11.3598585
20
16.5608837
11
11.3456585
21
16.6129837
0
LINE
8
DEFAULT_255_2_778
10
11.3456585
20
16.6129837
11
11.3389585
21
16.6602837
0
LINE
8
DEFAULT_255_2_778
10
11.3389585
20
16.6602837
11
11.3366585
21
16.7110837
0
LINE
8
DEFAULT_255_2_778
10
10.5174585
20
14.7156837
11
10.5365585
21
14.6790837
0
LINE
8
DEFAULT_255_2_778
10
10.5365585
20
14.6790837
11
10.5478585
21
14.6304837
0
LINE
8
DEFAULT_255_2_778
10
10.5478585
20
14.6304837
11
10.5537585
21
14.5851837
0
LINE
8
DEFAULT_255_2_778
10
10.5537585
20
14.5851837
11
10.5558585
21
14.5526837
0
LINE
8
DEFAULT_255_2_778
10
10.5558585
20
14.5526837
11
10.5566585
21
14.5190837
0
LINE
8
DEFAULT_255_2_778
10
10.5566585
20
8.9701837
11
10.5550585
21
8.9172837
0
LINE
8
DEFAULT_255_2_778
10
10.5550585
20
8.9172837
11
10.5518585
21
8.8854837
0
LINE
8
DEFAULT_255_2_778
10
10.5518585
20
8.8854837
11
10.5449585
21
8.8421837
0
LINE
8
DEFAULT_255_2_778
10
10.5449585
20
8.8421837
11
10.5216585
21
8.7788837
0
LINE
8
DEFAULT_255_2_778
10
10.5216585
20
8.7788837
11
10.5177585
21
8.7738837
0
LINE
8
DEFAULT_255_2_778
10
11.3900585
20
8.7738837
11
11.3601585
21
8.8204837
0
LINE
8
DEFAULT_255_2_778
10
11.3601585
20
8.8204837
11
11.3458585
21
8.8725837
0
LINE
8
DEFAULT_255_2_778
10
11.3458585
20
8.8725837
11
11.3392585
21
8.9198837
0
LINE
8
DEFAULT_255_2_778
10
11.3392585
20
8.9198837
11
11.3368585
21
8.9701837
0
LINE
8
DEFAULT_255_2_778
10
11.3368585
20
6.7783837
11
11.3395585
21
6.8339837
0
LINE
8
DEFAULT_255_2_778
10
11.3395585
20
6.8339837
11
11.3437585
21
6.8656837
0
LINE
8
DEFAULT_255_2_778
10
11.3437585
20
6.8656837
11
11.3575585
21
6.9209837
0
LINE
8
DEFAULT_255_2_778
10
11.3575585
20
6.9209837
11
11.3900585
21
6.9744837
0
LINE
8
DEFAULT_255_2_778
10
10.5177585
20
6.9744837
11
10.5367585
21
6.9384837
0
LINE
8
DEFAULT_255_2_778
10
10.5367585
20
6.9384837
11
10.5481585
21
6.8894837
0
LINE
8
DEFAULT_255_2_778
10
10.5481585
20
6.8894837
11
10.5539585
21
6.8447837
0
LINE
8
DEFAULT_255_2_778
10
10.5539585
20
6.8447837
11
10.5560585
21
6.8119837
0
LINE
8
DEFAULT_255_2_778
10
10.5560585
20
6.8119837
11
10.5568585
21
6.7783837
0
LINE
8
DEFAULT_255_2_778
10
10.5568585
20
32.1921837
11
10.5552585
21
32.1391837
0
LINE
8
DEFAULT_255_2_778
10
10.5552585
20
32.1391837
11
10.5521585
21
32.1069837
0
LINE
8
DEFAULT_255_2_778
10
10.5521585
20
32.1069837
11
10.5452585
21
32.0637837
0
LINE
8
DEFAULT_255_2_778
10
10.5452585
20
32.0637837
11
10.5296585
21
32.0135837
0
LINE
8
DEFAULT_255_2_778
10
10.5296585
20
32.0135837
11
10.5177585
21
31.9952837
0
LINE
8
DEFAULT_255_2_778
10
11.3900585
20
31.9952837
11
11.3601585
21
32.0418837
0
LINE
8
DEFAULT_255_2_778
10
11.3601585
20
32.0418837
11
11.3458585
21
32.0939837
0
LINE
8
DEFAULT_255_2_778
10
11.3458585
20
32.0939837
11
11.3392585
21
32.1413837
0
LINE
8
DEFAULT_255_2_778
10
11.3392585
20
32.1413837
11
11.3368585
21
32.1921837
0
LINE
8
DEFAULT_255_2_778
10
11.8520585
20
37.3689837
11
11.8520585
21
37.1660837
0
LINE
8
DEFAULT_255_2_778
10
11.8520585
20
9.3418837
11
11.8520585
21
9.5448837
0
LINE
8
DEFAULT_255_2_778
10
11.8520585
20
12.4817837
11
11.8520585
21
12.2785837
0
LINE
8
DEFAULT_255_2_778
10
11.8520585
20
34.2294837
11
11.8520585
21
34.4326837
0
LINE
8
DEFAULT_255_2_778
10
12.1025585
20
9.5496837
11
12.1025585
21
12.2740837
0
LINE
8
DEFAULT_255_2_778
10
11.9062585
20
34.4326837
11
11.9062585
21
37.1660837
0
LINE
8
DEFAULT_255_2_778
10
11.8279585
20
34.4326837
11
11.8279585
21
37.1660837
0
LINE
8
DEFAULT_255_2_778
10
11.8279585
20
9.5448837
11
11.8279585
21
12.2782837
0
LINE
8
DEFAULT_255_2_778
10
10.2523585
20
5.0196837
11
10.2523585
21
7.2469837
0
LINE
8
DEFAULT_255_2_778
10
10.2523585
20
14.9873837
11
10.2512585
21
8.4634837
0
LINE
8
DEFAULT_255_2_778
10
10.2523585
20
22.7282837
11
10.2512585
21
16.2044837
0
LINE
8
DEFAULT_255_2_778
10
10.2523585
20
30.4686837
11
10.2512585
21
23.9447837
0
LINE
8
DEFAULT_255_2_778
10
10.2523585
20
38.2095837
11
10.2512585
21
31.6856837
0
LINE
8
DEFAULT_255_2_778
10
10.2523585
20
41.6914837
11
10.2512585
21
39.4260837
0
LINE
8
DEFAULT_255_2_778
10
10.1838585
20
5.0201837
11
10.1838585
21
41.6914837
0
LINE
8
DEFAULT_255_2_778
10
11.3371585
20
41.6914837
11
11.3371585
21
39.9330837
0
LINE
8
DEFAULT_255_2_778
10
11.3371585
20
39.9330837
11
10.5568585
21
39.9330837
0
LINE
8
DEFAULT_255_2_778
10
10.5568585
20
39.9330837
11
10.5568585
21
41.6914837
0
LINE
8
DEFAULT_255_2_778
10
11.5628585
20
39.4260837
11
10.2510585
21
39.4260837
0
LINE
8
DEFAULT_255_2_778
10
10.2510585
20
39.4260837
11
10.2510585
21
38.2478837
0
LINE
8
DEFAULT_255_2_778
10
11.5628585
20
38.2478837
11
10.2510585
21
38.2478837
0
LINE
8
DEFAULT_255_2_778
10
10.2510585
20
38.2478837
11
10.2520585
21
38.2097837
0
LINE
8
DEFAULT_255_2_778
10
10.2520585
20
38.2097837
11
10.5177585
21
37.9375837
0
LINE
8
DEFAULT_255_2_778
10
10.5177585
20
37.9375837
11
11.3900585
21
37.9375837
0
LINE
8
DEFAULT_255_2_778
10
11.3900585
20
37.9375837
11
11.5625585
21
38.0677837
0
LINE
8
DEFAULT_255_2_778
10
11.5625585
20
39.6065837
11
11.3900585
21
39.7367837
0
LINE
8
DEFAULT_255_2_778
10
11.3900585
20
39.7367837
11
10.5177585
21
39.7367837
0
LINE
8
DEFAULT_255_2_778
10
10.5177585
20
39.7367837
11
10.2520585
21
39.4644837
0
LINE
8
DEFAULT_255_2_778
10
11.3900585
20
37.9375837
11
11.3601585
21
37.8909837
0
LINE
8
DEFAULT_255_2_778
10
11.3601585
20
37.8909837
11
11.3458585
21
37.8388837
0
LINE
8
DEFAULT_255_2_778
10
11.3458585
20
37.8388837
11
11.3392585
21
37.7920837
0
LINE
8
DEFAULT_255_2_778
10
11.3392585
20
37.7920837
11
11.3368585
21
32.1926837
0
LINE
8
DEFAULT_255_2_778
10
11.3368585
20
32.1926837
11
10.5566585
21
32.1926837
0
LINE
8
DEFAULT_255_2_778
10
10.5566585
20
32.1926837
11
10.5566585
21
37.7412837
0
LINE
8
DEFAULT_255_2_778
10
10.5566585
20
37.7412837
11
11.3368585
21
37.7412837
0
LINE
8
DEFAULT_255_2_778
10
11.5628585
20
31.6859837
11
10.2510585
21
31.6859837
0
LINE
8
DEFAULT_255_2_778
10
10.2510585
20
31.6859837
11
10.2510585
21
30.5072837
0
LINE
8
DEFAULT_255_2_778
10
11.5628585
20
30.5072837
11
10.2510585
21
30.5072837
0
LINE
8
DEFAULT_255_2_778
10
10.2510585
20
30.5072837
11
10.2520585
21
30.4691837
0
LINE
8
DEFAULT_255_2_778
10
10.2520585
20
30.4691837
11
10.5177585
21
30.1971837
0
LINE
8
DEFAULT_255_2_778
10
10.5177585
20
30.1971837
11
11.3900585
21
30.1971837
0
LINE
8
DEFAULT_255_2_778
10
11.3900585
20
30.1971837
11
11.5625585
21
30.3273837
0
LINE
8
DEFAULT_255_2_778
10
11.5625585
20
31.8656837
11
11.3900585
21
31.9957837
0
LINE
8
DEFAULT_255_2_778
10
11.3900585
20
31.9957837
11
10.5177585
21
31.9957837
0
LINE
8
DEFAULT_255_2_778
10
10.5177585
20
31.9957837
11
10.2520585
21
31.7238837
0
LINE
8
DEFAULT_255_2_778
10
11.3900585
20
30.1968837
11
11.3601585
21
30.1503837
0
LINE
8
DEFAULT_255_2_778
10
11.3601585
20
30.1503837
11
11.3458585
21
30.0981837
0
LINE
8
DEFAULT_255_2_778
10
11.3458585
20
30.0981837
11
11.3392585
21
30.0508837
0
LINE
8
DEFAULT_255_2_778
10
11.3392585
20
30.0508837
11
11.3368585
21
24.4514837
0
LINE
8
DEFAULT_255_2_778
10
11.3368585
20
24.4514837
11
10.5566585
21
24.4514837
0
LINE
8
DEFAULT_255_2_778
10
10.5566585
20
24.4514837
11
10.5566585
21
30.0000837
0
LINE
8
DEFAULT_255_2_778
10
10.5566585
20
30.0000837
11
11.3368585
21
30.0000837
0
LINE
8
DEFAULT_255_2_778
10
10.2520585
20
23.9828837
11
10.5177585
21
24.2551837
0
LINE
8
DEFAULT_255_2_778
10
10.5177585
20
24.2551837
11
11.3900585
21
24.2551837
0
LINE
8
DEFAULT_255_2_778
10
11.3900585
20
24.2551837
11
11.5625585
21
24.1249837
0
LINE
8
DEFAULT_255_2_778
10
11.5625585
20
23.9447837
11
10.2507585
21
23.9447837
0
LINE
8
DEFAULT_255_2_778
10
10.2507585
20
23.9447837
11
10.2507585
21
22.7665837
0
LINE
8
DEFAULT_255_2_778
10
11.5625585
20
22.7665837
11
10.2507585
21
22.7665837
0
LINE
8
DEFAULT_255_2_778
10
10.2507585
20
22.7665837
11
10.2518585
21
22.7285837
0
LINE
8
DEFAULT_255_2_778
10
10.2518585
20
22.7285837
11
10.5174585
21
22.4562837
0
LINE
8
DEFAULT_255_2_778
10
10.5174585
20
22.4562837
11
11.3897585
21
22.4562837
0
LINE
8
DEFAULT_255_2_778
10
11.3897585
20
22.4562837
11
11.5622585
21
22.5864837
0
LINE
8
DEFAULT_255_2_778
10
11.3897585
20
22.4562837
11
11.3598585
21
22.4099837
0
LINE
8
DEFAULT_255_2_778
10
11.3598585
20
22.4099837
11
11.3456585
21
22.3578837
0
LINE
8
DEFAULT_255_2_778
10
11.3456585
20
22.3578837
11
11.3389585
21
22.3104837
0
LINE
8
DEFAULT_255_2_778
10
11.3389585
20
22.3104837
11
11.3366585
21
16.7110837
0
LINE
8
DEFAULT_255_2_778
10
11.3366585
20
16.7110837
11
10.5563585
21
16.7110837
0
LINE
8
DEFAULT_255_2_778
10
10.5563585
20
16.7110837
11
10.5563585
21
22.2596837
0
LINE
8
DEFAULT_255_2_778
10
10.5563585
20
22.2596837
11
11.3366585
21
22.2596837
0
LINE
8
DEFAULT_255_2_778
10
11.5625585
20
16.2044837
11
10.2507585
21
16.2044837
0
LINE
8
DEFAULT_255_2_778
10
10.2507585
20
16.2044837
11
10.2507585
21
15.0262837
0
LINE
8
DEFAULT_255_2_778
10
11.5625585
20
15.0262837
11
10.2507585
21
15.0262837
0
LINE
8
DEFAULT_255_2_778
10
10.2507585
20
15.0262837
11
10.2518585
21
14.9878837
0
LINE
8
DEFAULT_255_2_778
10
10.2518585
20
14.9878837
11
10.5174585
21
14.7158837
0
LINE
8
DEFAULT_255_2_778
10
10.5174585
20
14.7158837
11
11.3897585
21
14.7158837
0
LINE
8
DEFAULT_255_2_778
10
11.3897585
20
14.7158837
11
11.5622585
21
14.8460837
0
LINE
8
DEFAULT_255_2_778
10
11.5622585
20
16.3843837
11
11.3897585
21
16.5147837
0
LINE
8
DEFAULT_255_2_778
10
11.3897585
20
16.5147837
11
10.5174585
21
16.5147837
0
LINE
8
DEFAULT_255_2_778
10
10.5174585
20
16.5147837
11
10.2518585
21
16.2425837
0
LINE
8
DEFAULT_255_2_778
10
11.3897585
20
14.7156837
11
11.3598585
21
14.6690837
0
LINE
8
DEFAULT_255_2_778
10
11.3598585
20
14.6690837
11
11.3456585
21
14.6169837
0
LINE
8
DEFAULT_255_2_778
10
11.3456585
20
14.6169837
11
11.3389585
21
14.5695837
0
LINE
8
DEFAULT_255_2_778
10
11.3389585
20
14.5695837
11
11.3366585
21
8.9701837
0
LINE
8
DEFAULT_255_2_778
10
11.3366585
20
8.9701837
11
10.5563585
21
8.9701837
0
LINE
8
DEFAULT_255_2_778
10
10.5563585
20
8.9701837
11
10.5563585
21
14.5190837
0
LINE
8
DEFAULT_255_2_778
10
10.5563585
20
14.5190837
11
11.3366585
21
14.5190837
0
LINE
8
DEFAULT_255_2_778
10
10.2518585
20
8.5018837
11
10.5174585
21
8.7738837
0
LINE
8
DEFAULT_255_2_778
10
10.5174585
20
8.7738837
11
11.3897585
21
8.7738837
0
LINE
8
DEFAULT_255_2_778
10
11.3897585
20
8.7738837
11
11.5622585
21
8.6436837
0
LINE
8
DEFAULT_255_2_778
10
11.5622585
20
8.4634837
11
10.2504585
21
8.4634837
0
LINE
8
DEFAULT_255_2_778
10
10.2504585
20
8.4634837
11
10.2504585
21
7.2853837
0
LINE
8
DEFAULT_255_2_778
10
11.5622585
20
7.1053837
11
11.3897585
21
6.9749837
0
LINE
8
DEFAULT_255_2_778
10
11.3897585
20
6.9749837
11
10.5174585
21
6.9749837
0
LINE
8
DEFAULT_255_2_778
10
10.5174585
20
6.9749837
11
10.2518585
21
7.2471837
0
LINE
8
DEFAULT_255_2_778
10
10.2518585
20
7.2471837
11
10.2507585
21
7.2853837
0
LINE
8
DEFAULT_255_2_778
10
10.2507585
20
7.2853837
11
11.5625585
21
7.2853837
0
LINE
8
DEFAULT_255_2_778
10
10.5566585
20
5.0199837
11
10.5566585
21
6.7783837
0
LINE
8
DEFAULT_255_2_778
10
10.5566585
20
6.7783837
11
11.3368585
21
6.7783837
0
LINE
8
DEFAULT_255_2_778
10
11.3368585
20
6.7783837
11
11.3368585
21
5.0199837
0
LINE
8
DEFAULT_255_2_778
10
14.1189585
20
37.3284837
11
14.1189585
21
37.1255837
0
LINE
8
DEFAULT_255_2_778
10
14.6010585
20
9.8909837
11
14.5983585
21
9.8401837
0
LINE
8
DEFAULT_255_2_778
10
14.5983585
20
9.8401837
11
14.5923585
21
9.7964837
0
LINE
8
DEFAULT_255_2_778
10
14.5923585
20
9.7964837
11
14.5806585
21
9.7464837
0
LINE
8
DEFAULT_255_2_778
10
14.5806585
20
9.7464837
11
14.5579585
21
9.6832837
0
LINE
8
DEFAULT_255_2_778
10
14.5579585
20
9.6832837
11
14.5182585
21
9.6091837
0
LINE
8
DEFAULT_255_2_778
10
14.5182585
20
9.6091837
11
14.4486585
21
9.5234837
0
LINE
8
DEFAULT_255_2_778
10
14.4486585
20
9.5234837
11
14.3478585
21
9.4466837
0
LINE
8
DEFAULT_255_2_778
10
14.3478585
20
9.4466837
11
14.1840585
21
9.3889837
0
LINE
8
DEFAULT_255_2_778
10
14.1840585
20
9.3889837
11
14.1186585
21
9.3834837
0
LINE
8
DEFAULT_255_2_778
10
14.6007585
20
34.7789837
11
14.5981585
21
34.7281837
0
LINE
8
DEFAULT_255_2_778
10
14.5981585
20
34.7281837
11
14.5920585
21
34.6839837
0
LINE
8
DEFAULT_255_2_778
10
14.5920585
20
34.6839837
11
14.5803585
21
34.6342837
0
LINE
8
DEFAULT_255_2_778
10
14.5803585
20
34.6342837
11
14.5576585
21
34.5709837
0
LINE
8
DEFAULT_255_2_778
10
14.5576585
20
34.5709837
11
14.5179585
21
34.4968837
0
LINE
8
DEFAULT_255_2_778
10
14.5179585
20
34.4968837
11
14.4483585
21
34.4111837
0
LINE
8
DEFAULT_255_2_778
10
14.4483585
20
34.4111837
11
14.3332585
21
34.3265837
0
LINE
8
DEFAULT_255_2_778
10
14.3332585
20
34.3265837
11
14.1837585
21
34.2767837
0
LINE
8
DEFAULT_255_2_778
10
14.1837585
20
34.2767837
11
14.1184585
21
34.2712837
0
LINE
8
DEFAULT_255_2_778
10
11.8512585
20
37.3697837
11
14.1186585
21
37.3287837
0
LINE
8
DEFAULT_255_2_778
10
14.1186585
20
37.3287837
11
14.2734585
21
37.3001837
0
LINE
8
DEFAULT_255_2_778
10
14.2734585
20
37.3001837
11
14.3899585
21
37.2385837
0
LINE
8
DEFAULT_255_2_778
10
14.3899585
20
37.2385837
11
14.4930585
21
37.1390837
0
LINE
8
DEFAULT_255_2_778
10
14.4930585
20
37.1390837
11
14.5438585
21
37.0591837
0
LINE
8
DEFAULT_255_2_778
10
14.5438585
20
37.0591837
11
14.5706585
21
36.9974837
0
LINE
8
DEFAULT_255_2_778
10
14.5706585
20
36.9974837
11
14.5854585
21
36.9487837
0
LINE
8
DEFAULT_255_2_778
10
14.5854585
20
36.9487837
11
14.5944585
21
36.9054837
0
LINE
8
DEFAULT_255_2_778
10
14.5944585
20
36.9054837
11
14.5989585
21
36.8715837
0
LINE
8
DEFAULT_255_2_778
10
14.5989585
20
36.8715837
11
14.6015585
21
34.7786837
0
LINE
8
DEFAULT_255_2_778
10
14.6015585
20
34.7786837
11
14.4086585
21
34.7786837
0
LINE
8
DEFAULT_255_2_778
10
14.4086585
20
34.7786837
11
14.4086585
21
36.8207837
0
LINE
8
DEFAULT_255_2_778
10
14.4086585
20
36.8207837
11
14.6015585
21
36.8207837
0
LINE
8
DEFAULT_255_2_778
10
11.8520585
20
37.1665837
11
14.1194585
21
37.1255837
0
LINE
8
DEFAULT_255_2_778
10
14.1194585
20
34.4738837
11
11.8520585
21
34.4328837
0
LINE
8
DEFAULT_255_2_778
10
14.1194585
20
34.4738837
11
14.1194585
21
34.2709837
0
LINE
8
DEFAULT_255_2_778
10
14.1194585
20
34.2709837
11
11.8520585
21
34.2296837
0
LINE
8
DEFAULT_255_2_778
10
11.7554585
20
34.1280837
11
11.7554585
21
12.5835837
0
LINE
8
DEFAULT_255_2_778
10
11.7554585
20
12.5835837
11
11.5628585
21
12.5835837
0
LINE
8
DEFAULT_255_2_778
10
11.5628585
20
12.5835837
11
11.5628585
21
34.1280837
0
LINE
8
DEFAULT_255_2_778
10
11.5628585
20
34.1280837
11
11.7554585
21
34.1280837
0
LINE
8
DEFAULT_255_2_778
10
11.8520585
20
12.4819837
11
14.1194585
21
12.4409837
0
LINE
8
DEFAULT_255_2_778
10
14.1194585
20
12.4409837
11
14.1194585
21
12.2377837
0
LINE
8
DEFAULT_255_2_778
10
11.8520585
20
12.2787837
11
14.1194585
21
12.2377837
0
LINE
8
DEFAULT_255_2_778
10
14.1194585
20
12.4409837
11
14.2742585
21
12.4118837
0
LINE
8
DEFAULT_255_2_778
10
14.2742585
20
12.4118837
11
14.4118585
21
12.3340837
0
LINE
8
DEFAULT_255_2_778
10
14.4118585
20
12.3340837
11
14.4936585
21
12.2507837
0
LINE
8
DEFAULT_255_2_778
10
14.4936585
20
12.2507837
11
14.5444585
21
12.1708837
0
LINE
8
DEFAULT_255_2_778
10
14.5444585
20
12.1708837
11
14.5711585
21
12.1091837
0
LINE
8
DEFAULT_255_2_778
10
14.5711585
20
12.1091837
11
14.5859585
21
12.0604837
0
LINE
8
DEFAULT_255_2_778
10
14.5859585
20
12.0604837
11
14.5949585
21
12.0171837
0
LINE
8
DEFAULT_255_2_778
10
14.5949585
20
12.0171837
11
14.5975585
21
12.0004837
0
LINE
8
DEFAULT_255_2_778
10
14.5975585
20
12.0004837
11
14.6007585
21
11.9665837
0
LINE
8
DEFAULT_255_2_778
10
14.6007585
20
11.9665837
11
14.6018585
21
9.8906837
0
LINE
8
DEFAULT_255_2_778
10
14.6018585
20
9.8906837
11
14.4089585
21
9.8906837
0
LINE
8
DEFAULT_255_2_778
10
14.4089585
20
9.8906837
11
14.4089585
21
11.9329837
0
LINE
8
DEFAULT_255_2_778
10
14.4089585
20
11.9329837
11
14.6018585
21
11.9329837
0
LINE
8
DEFAULT_255_2_778
10
14.1197585
20
9.5858837
11
11.8522585
21
9.5448837
0
LINE
8
DEFAULT_255_2_778
10
14.1197585
20
9.5855837
11
14.1197585
21
9.3826837
0
LINE
8
DEFAULT_255_2_778
10
14.1197585
20
9.3826837
11
11.8522585
21
9.3416837
0
ARC
8
DEFAULT_255_2_778
10
40.2670447
20
113.8761862
40
0.1905426
50
90.0181446
51
136.2583743
0
ARC
8
DEFAULT_255_2_778
10
40.275973
20
113.8667878
40
0.203492
50
136.0846784
51
180.0017859
0
ARC
8
DEFAULT_255_2_778
10
40.2801558
20
113.8667817
40
0.2076748
50
180.0000529
51
180.318084
0
ARC
8
DEFAULT_255_2_778
10
41.9296747
20
113.8709177
40
0.3045556
50
359.0049365
51
89.019867
0
ARC
8
DEFAULT_255_2_778
10
41.9314313
20
112.1357767
40
0.1966782
50
271.005963
51
0.9182744
0
ARC
8
DEFAULT_255_2_778
10
40.2772084
20
112.1382635
40
0.2047252
50
179.8138257
51
223.7750643
0
ARC
8
DEFAULT_255_2_778
10
40.267089
20
112.1284746
40
0.190646
50
223.7548406
51
269.9685444
0
ARC
8
DEFAULT_255_2_778
10
41.9298744
20
112.133835
40
0.3045526
50
270.9990059
51
0.9583298
0
ARC
8
DEFAULT_255_2_778
10
41.9317805
20
113.8691267
40
0.1965315
50
359.0384722
51
89.0076234
0
ARC
8
DEFAULT_255_2_778
10
40.2724943
20
112.1338351
40
0.3045526
50
179.0416795
51
269.0009719
0
ARC
8
DEFAULT_255_2_778
10
40.2724751
20
113.8709375
40
0.3045372
50
90.9954588
51
180.9988497
0
LINE
8
DEFAULT_255_2_778
10
40.2669843
20
114.0664287
11
40.2669843
21
114.1751287
0
LINE
8
DEFAULT_255_2_778
10
40.2669843
20
114.1751287
11
41.9351843
21
114.1751287
0
LINE
8
DEFAULT_255_2_778
10
41.9351843
20
114.1751287
11
41.9351843
21
114.0653287
0
LINE
8
DEFAULT_255_2_778
10
41.9351843
20
114.0653287
11
40.2669843
21
114.0667287
0
LINE
8
DEFAULT_255_2_778
10
42.1282843
20
113.8658287
11
42.2343843
21
113.8658287
0
LINE
8
DEFAULT_255_2_778
10
42.2343843
20
113.8658287
11
42.2343843
21
112.1389287
0
LINE
8
DEFAULT_255_2_778
10
42.2343843
20
112.1389287
11
42.1282843
21
112.1389287
0
LINE
8
DEFAULT_255_2_778
10
42.1282843
20
112.1389287
11
42.1282843
21
113.8658287
0
LINE
8
DEFAULT_255_2_778
10
40.2671843
20
111.8293287
11
41.9354843
21
111.8293287
0
LINE
8
DEFAULT_255_2_778
10
41.9354843
20
111.8293287
11
41.9354843
21
111.9391287
0
LINE
8
DEFAULT_255_2_778
10
41.9354843
20
111.9391287
11
40.2671843
21
111.9378287
0
LINE
8
DEFAULT_255_2_778
10
40.2671843
20
111.9378287
11
40.2671843
21
111.8293287
0
LINE
8
DEFAULT_255_2_778
10
39.9679843
20
113.8656287
11
40.0727843
21
113.8656287
0
LINE
8
DEFAULT_255_2_778
10
40.0727843
20
113.8656287
11
40.0727843
21
112.1386287
0
LINE
8
DEFAULT_255_2_778
10
40.0727843
20
112.1386287
11
39.9679843
21
112.1386287
0
LINE
8
DEFAULT_255_2_778
10
39.9679843
20
112.1386287
11
39.9679843
21
113.8656287
0
ARC
8
DEFAULT_255_2_778
10
40.3183527
20
108.8053862
40
0.1905426
50
90.0181446
51
136.2583743
0
ARC
8
DEFAULT_255_2_778
10
40.327281
20
108.7959878
40
0.203492
50
136.0846784
51
180.0017859
0
ARC
8
DEFAULT_255_2_778
10
40.3314639
20
108.7959817
40
0.2076748
50
180.0000529
51
180.318084
0
ARC
8
DEFAULT_255_2_778
10
41.9809828
20
108.8001177
40
0.3045556
50
359.0049365
51
89.019867
0
ARC
8
DEFAULT_255_2_778
10
41.9827394
20
107.0649767
40
0.1966782
50
271.005963
51
0.9182744
0
ARC
8
DEFAULT_255_2_778
10
40.3285165
20
107.0674635
40
0.2047252
50
179.8138257
51
223.7750643
0
ARC
8
DEFAULT_255_2_778
10
40.3183971
20
107.0576746
40
0.190646
50
223.7548406
51
269.9685444
0
ARC
8
DEFAULT_255_2_778
10
41.9811825
20
107.063035
40
0.3045526
50
270.9990059
51
0.9583298
0
ARC
8
DEFAULT_255_2_778
10
41.9830886
20
108.7983267
40
0.1965315
50
359.0384722
51
89.0076234
0
ARC
8
DEFAULT_255_2_778
10
40.3238024
20
107.0630351
40
0.3045526
50
179.0416795
51
269.0009719
0
ARC
8
DEFAULT_255_2_778
10
40.3237832
20
108.8001375
40
0.3045372
50
90.9954588
51
180.9988497
0
LINE
8
DEFAULT_255_2_778
10
40.3182924
20
108.9956287
11
40.3182924
21
109.1043287
0
LINE
8
DEFAULT_255_2_778
10
40.3182924
20
109.1043287
11
41.9864924
21
109.1043287
0
LINE
8
DEFAULT_255_2_778
10
41.9864924
20
109.1043287
11
41.9864924
21
108.9945287
0
LINE
8
DEFAULT_255_2_778
10
41.9864924
20
108.9945287
11
40.3182924
21
108.9959287
0
LINE
8
DEFAULT_255_2_778
10
42.1795924
20
108.7950287
11
42.2856924
21
108.7950287
0
LINE
8
DEFAULT_255_2_778
10
42.2856924
20
108.7950287
11
42.2856924
21
107.0681287
0
LINE
8
DEFAULT_255_2_778
10
42.2856924
20
107.0681287
11
42.1795924
21
107.0681287
0
LINE
8
DEFAULT_255_2_778
10
42.1795924
20
107.0681287
11
42.1795924
21
108.7950287
0
LINE
8
DEFAULT_255_2_778
10
40.3184924
20
106.7585287
11
41.9866924
21
106.7585287
0
LINE
8
DEFAULT_255_2_778
10
41.9866924
20
106.7585287
11
41.9866924
21
106.8683287
0
LINE
8
DEFAULT_255_2_778
10
41.9866924
20
106.8683287
11
40.3184924
21
106.8670287
0
LINE
8
DEFAULT_255_2_778
10
40.3184924
20
106.8670287
11
40.3184924
21
106.7585287
0
LINE
8
DEFAULT_255_2_778
10
40.0192924
20
108.7948287
11
40.1240924
21
108.7948287
0
LINE
8
DEFAULT_255_2_778
10
40.1240924
20
108.7948287
11
40.1240924
21
107.0678287
0
LINE
8
DEFAULT_255_2_778
10
40.1240924
20
107.0678287
11
40.0192924
21
107.0678287
0
LINE
8
DEFAULT_255_2_778
10
40.0192924
20
107.0678287
11
40.0192924
21
108.7948287
0
ARC
8
DEFAULT_255_2_778
10
40.5638527
20
103.7261862
40
0.1905426
50
90.0181446
51
136.2583743
0
ARC
8
DEFAULT_255_2_778
10
40.572781
20
103.7167878
40
0.203492
50
136.0846784
51
180.0017859
0
ARC
8
DEFAULT_255_2_778
10
40.5769639
20
103.7167817
40
0.2076748
50
180.0000529
51
180.318084
0
ARC
8
DEFAULT_255_2_778
10
42.2264828
20
103.7209177
40
0.3045556
50
359.0049365
51
89.019867
0
ARC
8
DEFAULT_255_2_778
10
42.2282394
20
101.9857767
40
0.1966782
50
271.005963
51
0.9182744
0
ARC
8
DEFAULT_255_2_778
10
40.5740165
20
101.9882635
40
0.2047252
50
179.8138257
51
223.7750643
0
ARC
8
DEFAULT_255_2_778
10
40.5638971
20
101.9784746
40
0.190646
50
223.7548406
51
269.9685444
0
ARC
8
DEFAULT_255_2_778
10
42.2266825
20
101.983835
40
0.3045526
50
270.9990059
51
0.9583298
0
ARC
8
DEFAULT_255_2_778
10
42.2285886
20
103.7191267
40
0.1965315
50
359.0384722
51
89.0076234
0
ARC
8
DEFAULT_255_2_778
10
40.5693024
20
101.9838351
40
0.3045526
50
179.0416795
51
269.0009719
0
ARC
8
DEFAULT_255_2_778
10
40.5692832
20
103.7209375
40
0.3045372
50
90.9954588
51
180.9988497
0
LINE
8
DEFAULT_255_2_778
10
40.5637924
20
103.9164287
11
40.5637924
21
104.0251287
0
LINE
8
DEFAULT_255_2_778
10
40.5637924
20
104.0251287
11
42.2319924
21
104.0251287
0
LINE
8
DEFAULT_255_2_778
10
42.2319924
20
104.0251287
11
42.2319924
21
103.9153287
0
LINE
8
DEFAULT_255_2_778
10
42.2319924
20
103.9153287
11
40.5637924
21
103.9167287
0
LINE
8
DEFAULT_255_2_778
10
42.4250924
20
103.7158287
11
42.5311924
21
103.7158287
0
LINE
8
DEFAULT_255_2_778
10
42.5311924
20
103.7158287
11
42.5311924
21
101.9889287
0
LINE
8
DEFAULT_255_2_778
10
42.5311924
20
101.9889287
11
42.4250924
21
101.9889287
0
LINE
8
DEFAULT_255_2_778
10
42.4250924
20
101.9889287
11
42.4250924
21
103.7158287
0
LINE
8
DEFAULT_255_2_778
10
40.5639924
20
101.6793287
11
42.2322924
21
101.6793287
0
LINE
8
DEFAULT_255_2_778
10
42.2322924
20
101.6793287
11
42.2322924
21
101.7891287
0
LINE
8
DEFAULT_255_2_778
10
42.2322924
20
101.7891287
11
40.5639924
21
101.7878287
0
LINE
8
DEFAULT_255_2_778
10
40.5639924
20
101.7878287
11
40.5639924
21
101.6793287
0
LINE
8
DEFAULT_255_2_778
10
40.2647924
20
103.7156287
11
40.3695924
21
103.7156287
0
LINE
8
DEFAULT_255_2_778
10
40.3695924
20
103.7156287
11
40.3695924
21
101.9886287
0
LINE
8
DEFAULT_255_2_778
10
40.3695924
20
101.9886287
11
40.2647924
21
101.9886287
0
LINE
8
DEFAULT_255_2_778
10
40.2647924
20
101.9886287
11
40.2647924
21
103.7156287
0
ARC
8
DEFAULT_255_2_778
10
40.5638528
20
98.6472878
40
0.190543
50
90.0181692
51
136.2583046
0
ARC
8
DEFAULT_255_2_778
10
40.572781
20
98.6378898
40
0.203492
50
136.0846784
51
180.0017859
0
ARC
8
DEFAULT_255_2_778
10
40.5769639
20
98.6378837
40
0.2076748
50
180.0000529
51
180.318084
0
ARC
8
DEFAULT_255_2_778
10
42.2264828
20
98.6420197
40
0.3045556
50
359.0049365
51
89.019867
0
ARC
8
DEFAULT_255_2_778
10
42.2282394
20
96.9068787
40
0.1966782
50
271.005963
51
0.9182744
0
ARC
8
DEFAULT_255_2_778
10
40.5740165
20
96.9093655
40
0.2047252
50
179.8138257
51
223.7750643
0
ARC
8
DEFAULT_255_2_778
10
40.5638971
20
96.8995766
40
0.190646
50
223.7548406
51
269.9685444
0
ARC
8
DEFAULT_255_2_778
10
42.2266825
20
96.904937
40
0.3045526
50
270.9990059
51
0.9583298
0
ARC
8
DEFAULT_255_2_778
10
42.2285886
20
98.6402288
40
0.1965315
50
359.0384722
51
89.0076234
0
ARC
8
DEFAULT_255_2_778
10
40.5693024
20
96.9049371
40
0.3045526
50
179.0416795
51
269.0009719
0
ARC
8
DEFAULT_255_2_778
10
40.5692832
20
98.6420395
40
0.3045372
50
90.9954588
51
180.9988497
0
LINE
8
DEFAULT_255_2_778
10
40.5637924
20
98.8375308
11
40.5637924
21
98.9462308
0
LINE
8
DEFAULT_255_2_778
10
40.5637924
20
98.9462308
11
42.2319924
21
98.9462308
0
LINE
8
DEFAULT_255_2_778
10
42.2319924
20
98.9462308
11
42.2319924
21
98.8364308
0
LINE
8
DEFAULT_255_2_778
10
42.2319924
20
98.8364308
11
40.5637924
21
98.8378308
0
LINE
8
DEFAULT_255_2_778
10
42.4250924
20
98.6369308
11
42.5311924
21
98.6369308
0
LINE
8
DEFAULT_255_2_778
10
42.5311924
20
98.6369308
11
42.5311924
21
96.9100308
0
LINE
8
DEFAULT_255_2_778
10
42.5311924
20
96.9100308
11
42.4250924
21
96.9100308
0
LINE
8
DEFAULT_255_2_778
10
42.4250924
20
96.9100308
11
42.4250924
21
98.6369308
0
LINE
8
DEFAULT_255_2_778
10
40.5639924
20
96.6004308
11
42.2322924
21
96.6004308
0
LINE
8
DEFAULT_255_2_778
10
42.2322924
20
96.6004308
11
42.2322924
21
96.7102308
0
LINE
8
DEFAULT_255_2_778
10
42.2322924
20
96.7102308
11
40.5639924
21
96.7089308
0
LINE
8
DEFAULT_255_2_778
10
40.5639924
20
96.7089308
11
40.5639924
21
96.6004308
0
LINE
8
DEFAULT_255_2_778
10
40.2647924
20
98.6367308
11
40.3695924
21
98.6367308
0
LINE
8
DEFAULT_255_2_778
10
40.3695924
20
98.6367308
11
40.3695924
21
96.9097308
0
LINE
8
DEFAULT_255_2_778
10
40.3695924
20
96.9097308
11
40.2647924
21
96.9097308
0
LINE
8
DEFAULT_255_2_778
10
40.2647924
20
96.9097308
11
40.2647924
21
98.6367308
0
LINE
8
DEFAULT_255_2_778
10
52.9753632
20
55.9620555
11
54.1530632
21
55.9620555
0
LINE
8
DEFAULT_255_2_778
10
54.1530632
20
55.9620555
11
54.1530632
21
59.8085555
0
LINE
8
DEFAULT_255_2_778
10
54.1530632
20
59.8085555
11
52.9753632
21
59.8085555
0
ARC
8
DEFAULT_255_2_778
10
54.9344949
20
59.8068361
40
0.2001952
50
359.1157793
51
86.9444081
0
ARC
8
DEFAULT_255_2_778
10
54.9345147
20
56.0013419
40
0.2001789
50
273.0501682
51
0.9459455
0
LINE
8
DEFAULT_255_2_778
10
52.9753663
20
60.0781467
11
54.9451663
21
60.0067467
0
LINE
8
DEFAULT_255_2_778
10
55.1346663
20
59.8037467
11
55.1346663
21
56.0046467
0
LINE
8
DEFAULT_255_2_778
10
54.9451663
20
55.8014467
11
52.9753663
21
55.7302467
0
ARC
8
DEFAULT_255_2_778
10
43.8665475
20
67.6456351
40
1.4544755
50
353.5486347
51
358.6876119
0
ARC
8
DEFAULT_255_2_778
10
43.8876285
20
67.6449372
40
1.4333841
50
358.6962019
51
359.9989345
0
LINE
8
DEFAULT_255_2_778
10
55.0537127
20
59.7487105
11
54.7090127
21
59.5881105
0
LINE
8
DEFAULT_255_2_778
10
54.7090127
20
59.5881105
11
54.7079127
21
59.6741105
0
LINE
8
DEFAULT_255_2_778
10
54.7079127
20
59.6741105
11
54.6994127
21
59.7130105
0
LINE
8
DEFAULT_255_2_778
10
54.6994127
20
59.7130105
11
54.6714127
21
59.7871105
0
LINE
8
DEFAULT_255_2_778
10
54.6714127
20
59.7871105
11
54.6082127
21
59.8741105
0
LINE
8
DEFAULT_255_2_778
10
54.6082127
20
59.8741105
11
54.5976127
21
59.8821105
0
LINE
8
DEFAULT_255_2_778
10
54.5976127
20
59.8821105
11
54.8802127
21
60.0088105
0
LINE
8
DEFAULT_255_2_778
10
54.8802127
20
60.0088105
11
54.9968127
21
59.9591105
0
LINE
8
DEFAULT_255_2_778
10
54.9968127
20
59.9591105
11
55.0439127
21
59.8919105
0
LINE
8
DEFAULT_255_2_778
10
55.0439127
20
59.8919105
11
55.0574127
21
59.8477105
0
LINE
8
DEFAULT_255_2_778
10
55.0574127
20
59.8477105
11
55.0553127
21
59.7556105
0
LINE
8
DEFAULT_255_2_778
10
55.0553127
20
59.7556105
11
55.0537127
21
59.7482105
0
LINE
8
DEFAULT_255_2_778
10
55.0537127
20
59.7482105
11
55.1344127
21
59.8032105
0
LINE
8
DEFAULT_255_2_778
10
54.3494127
20
61.9657105
11
54.5394127
21
61.9395105
0
LINE
8
DEFAULT_255_2_778
10
54.5394127
20
61.9395105
11
54.6918127
21
61.8741105
0
LINE
8
DEFAULT_255_2_778
10
54.6918127
20
61.8741105
11
54.7950127
21
61.7953105
0
LINE
8
DEFAULT_255_2_778
10
54.7950127
20
61.7953105
11
54.8598127
21
61.7191105
0
LINE
8
DEFAULT_255_2_778
10
54.8598127
20
61.7191105
11
54.9008127
21
61.6463105
0
LINE
8
DEFAULT_255_2_778
10
54.9008127
20
61.6463105
11
54.9236127
21
61.5833105
0
LINE
8
DEFAULT_255_2_778
10
54.9236127
20
61.5833105
11
54.9307127
21
61.5521105
0
LINE
8
DEFAULT_255_2_778
10
54.9307127
20
61.5521105
11
54.9357127
21
61.5204105
0
LINE
8
DEFAULT_255_2_778
10
54.9357127
20
61.5204105
11
54.9381127
21
61.4891105
0
LINE
8
DEFAULT_255_2_778
10
54.9381127
20
61.4891105
11
54.9384127
21
61.4733105
0
LINE
8
DEFAULT_255_2_778
10
54.7087127
20
59.5876105
11
54.4280127
21
59.5109105
0
LINE
8
DEFAULT_255_2_778
10
54.4280127
20
59.5109105
11
54.1528127
21
59.4884105
0
LINE
8
DEFAULT_255_2_778
10
54.1528127
20
59.4884105
11
52.9752127
21
59.4884105
0
LINE
8
DEFAULT_255_2_778
10
52.9752127
20
59.4884105
11
52.9752127
21
62.0125105
0
LINE
8
DEFAULT_255_2_778
10
52.9752127
20
62.0125105
11
54.4878127
21
62.0072105
0
LINE
8
DEFAULT_255_2_778
10
54.4878127
20
62.0072105
11
54.7502127
21
61.9638105
0
LINE
8
DEFAULT_255_2_778
10
54.7502127
20
61.9638105
11
54.9389127
21
61.8942105
0
LINE
8
DEFAULT_255_2_778
10
54.9389127
20
61.8942105
11
55.0614127
21
61.8109105
0
LINE
8
DEFAULT_255_2_778
10
55.0614127
20
61.8109105
11
55.1056127
21
61.7574105
0
LINE
8
DEFAULT_255_2_778
10
55.1056127
20
61.7574105
11
55.1217127
21
61.7252105
0
LINE
8
DEFAULT_255_2_778
10
55.1217127
20
61.7252105
11
55.1312127
21
61.6937105
0
LINE
8
DEFAULT_255_2_778
10
55.1312127
20
61.6937105
11
55.1291127
21
61.6222105
0
LINE
8
DEFAULT_255_2_778
10
55.1291127
20
61.6222105
11
55.1040127
21
61.5627105
0
LINE
8
DEFAULT_255_2_778
10
55.1040127
20
61.5627105
11
55.0294127
21
61.4947105
0
LINE
8
DEFAULT_255_2_778
10
55.0294127
20
61.4947105
11
54.9381127
21
61.4727105
0
LINE
8
DEFAULT_255_2_778
10
54.9381127
20
61.4727105
11
54.9381127
21
61.0224105
0
LINE
8
DEFAULT_255_2_778
10
54.9381127
20
61.0224105
11
52.9752127
21
60.9512105
0
LINE
8
DEFAULT_255_2_778
10
55.1344127
20
54.5340105
11
55.1323127
21
54.5600105
0
LINE
8
DEFAULT_255_2_778
10
55.1323127
20
54.5600105
11
55.1193127
21
54.6012105
0
LINE
8
DEFAULT_255_2_778
10
55.1193127
20
54.6012105
11
55.0598127
21
54.6719105
0
LINE
8
DEFAULT_255_2_778
10
55.0598127
20
54.6719105
11
54.9381127
21
54.7097105
0
LINE
8
DEFAULT_255_2_778
10
54.9381127
20
54.7097105
11
54.9402127
21
54.7825105
0
LINE
8
DEFAULT_255_2_778
10
54.9402127
20
54.7825105
11
54.9431127
21
54.8378105
0
LINE
8
DEFAULT_255_2_778
10
54.9431127
20
54.8378105
11
54.9447127
21
54.8463105
0
LINE
8
DEFAULT_255_2_778
10
52.9749127
20
54.7809105
11
54.9378127
21
54.7097105
0
LINE
8
DEFAULT_255_2_778
10
54.9378127
20
54.7097105
11
54.9368127
21
54.4081105
0
LINE
8
DEFAULT_255_2_778
10
54.9368127
20
54.4081105
11
54.9344127
21
54.3430105
0
LINE
8
DEFAULT_255_2_778
10
54.9344127
20
54.3430105
11
54.9307127
21
54.2782105
0
LINE
8
DEFAULT_255_2_778
10
54.9307127
20
54.2782105
11
54.9236127
21
54.1933105
0
LINE
8
DEFAULT_255_2_778
10
54.9236127
20
54.1933105
11
54.9167127
21
54.1300105
0
LINE
8
DEFAULT_255_2_778
10
54.9167127
20
54.1300105
11
54.9053127
21
54.0443105
0
LINE
8
DEFAULT_255_2_778
10
54.9053127
20
54.0443105
11
54.8958127
21
53.9837105
0
LINE
8
DEFAULT_255_2_778
10
54.8958127
20
53.9837105
11
54.8849127
21
53.9239105
0
LINE
8
DEFAULT_255_2_778
10
54.8849127
20
53.9239105
11
54.8598127
21
53.8086105
0
LINE
8
DEFAULT_255_2_778
10
54.8598127
20
53.8086105
11
54.8405127
21
53.7345105
0
LINE
8
DEFAULT_255_2_778
10
54.8405127
20
53.7345105
11
54.8090127
21
53.6300105
0
LINE
8
DEFAULT_255_2_778
10
54.8090127
20
53.6300105
11
54.7746127
21
53.5323105
0
LINE
8
DEFAULT_255_2_778
10
54.7746127
20
53.5323105
11
54.7198127
21
53.4053105
0
LINE
8
DEFAULT_255_2_778
10
54.7198127
20
53.4053105
11
54.6788127
21
53.3254105
0
LINE
8
DEFAULT_255_2_778
10
54.6788127
20
53.3254105
11
54.6201127
21
53.2289105
0
LINE
8
DEFAULT_255_2_778
10
54.6201127
20
53.2289105
11
54.5418127
21
53.1267105
0
LINE
8
DEFAULT_255_2_778
10
54.5418127
20
53.1267105
11
54.4727127
21
53.0563105
0
LINE
8
DEFAULT_255_2_778
10
54.4727127
20
53.0563105
11
54.3878127
21
52.9923105
0
LINE
8
DEFAULT_255_2_778
10
54.3878127
20
52.9923105
11
54.2933127
21
52.9455105
0
LINE
8
DEFAULT_255_2_778
10
54.2933127
20
52.9455105
11
54.1986127
21
52.9227105
0
LINE
8
DEFAULT_255_2_778
10
54.1986127
20
52.9227105
11
54.1520127
21
52.9198105
0
LINE
8
DEFAULT_255_2_778
10
52.9744127
20
55.0196105
11
55.1283127
21
55.0196105
0
LINE
8
DEFAULT_255_2_778
10
55.1283127
20
55.0196105
11
55.1283127
21
54.6640105
0
LINE
8
DEFAULT_255_2_778
10
54.9373127
20
54.4896105
11
55.0775127
21
54.4367105
0
LINE
8
DEFAULT_255_2_778
10
55.0775127
20
54.4367105
11
55.1222127
21
54.3724105
0
LINE
8
DEFAULT_255_2_778
10
55.1222127
20
54.3724105
11
55.1315127
21
54.3398105
0
LINE
8
DEFAULT_255_2_778
10
55.1315127
20
54.3398105
11
55.1291127
21
54.1782105
0
LINE
8
DEFAULT_255_2_778
10
55.1291127
20
54.1782105
11
55.1252127
21
54.1258105
0
LINE
8
DEFAULT_255_2_778
10
55.1252127
20
54.1258105
11
55.1199127
21
54.0739105
0
LINE
8
DEFAULT_255_2_778
10
55.1199127
20
54.0739105
11
55.1130127
21
54.0221105
0
LINE
8
DEFAULT_255_2_778
10
55.1130127
20
54.0221105
11
55.1048127
21
53.9710105
0
LINE
8
DEFAULT_255_2_778
10
55.1048127
20
53.9710105
11
55.0916127
21
53.9017105
0
LINE
8
DEFAULT_255_2_778
10
55.0916127
20
53.9017105
11
55.0807127
21
53.8519105
0
LINE
8
DEFAULT_255_2_778
10
55.0807127
20
53.8519105
11
55.0553127
21
53.7554105
0
LINE
8
DEFAULT_255_2_778
10
55.0553127
20
53.7554105
11
55.0251127
21
53.6622105
0
LINE
8
DEFAULT_255_2_778
10
55.0251127
20
53.6622105
11
54.9907127
21
53.5733105
0
LINE
8
DEFAULT_255_2_778
10
54.9907127
20
53.5733105
11
54.9550127
21
53.4932105
0
LINE
8
DEFAULT_255_2_778
10
54.9550127
20
53.4932105
11
54.9135127
21
53.4133105
0
LINE
8
DEFAULT_255_2_778
10
54.9135127
20
53.4133105
11
54.8503127
21
53.3111105
0
LINE
8
DEFAULT_255_2_778
10
54.8503127
20
53.3111105
11
54.7762127
21
53.2127105
0
LINE
8
DEFAULT_255_2_778
10
54.7762127
20
53.2127105
11
54.6764127
21
53.1077105
0
LINE
8
DEFAULT_255_2_778
10
54.6764127
20
53.1077105
11
54.5653127
21
53.0196105
0
LINE
8
DEFAULT_255_2_778
10
54.5653127
20
53.0196105
11
54.4574127
21
52.9584105
0
LINE
8
DEFAULT_255_2_778
10
54.4574127
20
52.9584105
11
54.3346127
21
52.9129105
0
LINE
8
DEFAULT_255_2_778
10
54.3346127
20
52.9129105
11
54.2118127
21
52.8902105
0
LINE
8
DEFAULT_255_2_778
10
54.2118127
20
52.8902105
11
52.9744127
21
52.8873105
0
LINE
8
DEFAULT_255_2_778
10
52.9744127
20
52.8873105
11
52.9744127
21
52.9243105
0
LINE
8
DEFAULT_255_2_778
10
55.1334127
20
56.0046105
11
55.1334127
21
56.0049105
0
LINE
8
DEFAULT_255_2_778
10
55.1334127
20
56.0049105
11
55.1334127
21
56.0051105
0
LINE
8
DEFAULT_255_2_778
10
55.1334127
20
56.0051105
11
55.1331127
21
56.0059105
0
LINE
8
DEFAULT_255_2_778
10
55.1331127
20
56.0059105
11
55.1323127
21
56.0062105
0
LINE
8
DEFAULT_255_2_778
10
55.1323127
20
56.0062105
11
55.1312127
21
56.0070105
0
LINE
8
DEFAULT_255_2_778
10
55.1312127
20
56.0070105
11
55.1297127
21
56.0072105
0
LINE
8
DEFAULT_255_2_778
10
55.1297127
20
56.0072105
11
55.1275127
21
56.0075105
0
LINE
8
DEFAULT_255_2_778
10
55.1275127
20
56.0075105
11
55.1178127
21
56.0096105
0
LINE
8
DEFAULT_255_2_778
10
55.1178127
20
56.0096105
11
55.1170127
21
56.0096105
0
LINE
8
DEFAULT_255_2_778
10
55.1170127
20
56.0096105
11
55.1101127
21
56.0109105
0
LINE
8
DEFAULT_255_2_778
10
55.1101127
20
56.0109105
11
55.1029127
21
56.0120105
0
LINE
8
DEFAULT_255_2_778
10
55.1029127
20
56.0120105
11
55.0942127
21
56.0131105
0
LINE
8
DEFAULT_255_2_778
10
55.0942127
20
56.0131105
11
55.0847127
21
56.0141105
0
LINE
8
DEFAULT_255_2_778
10
55.0847127
20
56.0141105
11
55.0815127
21
56.0144105
0
LINE
8
DEFAULT_255_2_778
10
55.0815127
20
56.0144105
11
55.0723127
21
56.0152105
0
LINE
8
DEFAULT_255_2_778
10
55.0723127
20
56.0152105
11
55.0627127
21
56.0160105
0
LINE
8
DEFAULT_255_2_778
10
55.0627127
20
56.0160105
11
55.0535127
21
56.0168105
0
LINE
8
DEFAULT_255_2_778
10
55.0535127
20
56.0168105
11
55.0442127
21
56.0178105
0
LINE
8
DEFAULT_255_2_778
10
55.0442127
20
56.0178105
11
55.0418127
21
56.0178105
0
LINE
8
DEFAULT_255_2_778
10
55.0418127
20
56.0178105
11
55.0304127
21
56.0189105
0
LINE
8
DEFAULT_255_2_778
10
55.0304127
20
56.0189105
11
55.0183127
21
56.0202105
0
LINE
8
DEFAULT_255_2_778
10
55.0183127
20
56.0202105
11
55.0053127
21
56.0223105
0
LINE
8
DEFAULT_255_2_778
10
55.0053127
20
56.0223105
11
54.9910127
21
56.0247105
0
LINE
8
DEFAULT_255_2_778
10
54.9910127
20
56.0247105
11
54.9754127
21
56.0281105
0
LINE
8
DEFAULT_255_2_778
10
54.9754127
20
56.0281105
11
54.9569127
21
56.0324105
0
LINE
8
DEFAULT_255_2_778
10
54.9569127
20
56.0324105
11
54.9561127
21
56.0324105
0
LINE
8
DEFAULT_255_2_778
10
54.9561127
20
56.0324105
11
54.9304127
21
56.0387105
0
LINE
8
DEFAULT_255_2_778
10
54.9304127
20
56.0387105
11
54.9008127
21
56.0464105
0
LINE
8
DEFAULT_255_2_778
10
54.9008127
20
56.0464105
11
54.8632127
21
56.0562105
0
LINE
8
DEFAULT_255_2_778
10
54.8632127
20
56.0562105
11
54.8460127
21
56.0607105
0
LINE
8
DEFAULT_255_2_778
10
54.8460127
20
56.0607105
11
54.7987127
21
56.0734105
0
LINE
8
DEFAULT_255_2_778
10
54.7987127
20
56.0734105
11
54.7513127
21
56.0856105
0
LINE
8
DEFAULT_255_2_778
10
54.7513127
20
56.0856105
11
54.7444127
21
56.0874105
0
LINE
8
DEFAULT_255_2_778
10
54.7444127
20
56.0874105
11
54.7026127
21
56.0980105
0
LINE
8
DEFAULT_255_2_778
10
54.7026127
20
56.0980105
11
54.6651127
21
56.1070105
0
LINE
8
DEFAULT_255_2_778
10
54.6651127
20
56.1070105
11
54.6299127
21
56.1155105
0
LINE
8
DEFAULT_255_2_778
10
54.6299127
20
56.1155105
11
54.5971127
21
56.1223105
0
LINE
8
DEFAULT_255_2_778
10
54.5971127
20
56.1223105
11
54.5658127
21
56.1289105
0
LINE
8
DEFAULT_255_2_778
10
54.5658127
20
56.1289105
11
54.5642127
21
56.1170105
0
LINE
8
DEFAULT_255_2_778
10
54.5642127
20
56.1170105
11
54.5619127
21
56.1051105
0
LINE
8
DEFAULT_255_2_778
10
54.5619127
20
56.1051105
11
54.5598127
21
56.0932105
0
LINE
8
DEFAULT_255_2_778
10
54.5598127
20
56.0932105
11
54.5571127
21
56.0816105
0
LINE
8
DEFAULT_255_2_778
10
54.5571127
20
56.0816105
11
54.5539127
21
56.0697105
0
LINE
8
DEFAULT_255_2_778
10
54.5539127
20
56.0697105
11
54.5508127
21
56.0580105
0
LINE
8
DEFAULT_255_2_778
10
54.5508127
20
56.0580105
11
54.5473127
21
56.0464105
0
LINE
8
DEFAULT_255_2_778
10
54.5473127
20
56.0464105
11
54.5436127
21
56.0348105
0
LINE
8
DEFAULT_255_2_778
10
54.5436127
20
56.0348105
11
54.5396127
21
56.0231105
0
LINE
8
DEFAULT_255_2_778
10
54.5396127
20
56.0231105
11
54.5357127
21
56.0115105
0
LINE
8
DEFAULT_255_2_778
10
54.5357127
20
56.0115105
11
54.5341127
21
56.0075105
0
LINE
8
DEFAULT_255_2_778
10
54.5341127
20
56.0075105
11
54.5341127
21
56.0072105
0
LINE
8
DEFAULT_255_2_778
10
54.5341127
20
56.0072105
11
54.5296127
21
55.9967105
0
LINE
8
DEFAULT_255_2_778
10
54.5296127
20
55.9967105
11
54.5256127
21
55.9871105
0
LINE
8
DEFAULT_255_2_778
10
54.5256127
20
55.9871105
11
54.5216127
21
55.9784105
0
LINE
8
DEFAULT_255_2_778
10
54.5216127
20
55.9784105
11
54.5177127
21
55.9705105
0
LINE
8
DEFAULT_255_2_778
10
54.5177127
20
55.9705105
11
54.5137127
21
55.9628105
0
LINE
8
DEFAULT_255_2_778
10
54.5137127
20
55.9628105
11
54.5092127
21
55.9559105
0
LINE
8
DEFAULT_255_2_778
10
54.5092127
20
55.9559105
11
54.5052127
21
55.9490105
0
LINE
8
DEFAULT_255_2_778
10
54.5052127
20
55.9490105
11
54.5007127
21
55.9427105
0
LINE
8
DEFAULT_255_2_778
10
54.5007127
20
55.9427105
11
54.4963127
21
55.9369105
0
LINE
8
DEFAULT_255_2_778
10
54.4963127
20
55.9369105
11
54.4917127
21
55.9313105
0
LINE
8
DEFAULT_255_2_778
10
54.4917127
20
55.9313105
11
54.4872127
21
55.9260105
0
LINE
8
DEFAULT_255_2_778
10
54.4872127
20
55.9260105
11
54.4825127
21
55.9210105
0
LINE
8
DEFAULT_255_2_778
10
54.4825127
20
55.9210105
11
54.5055127
21
55.9133105
0
LINE
8
DEFAULT_255_2_778
10
54.5055127
20
55.9133105
11
54.5298127
21
55.9046105
0
LINE
8
DEFAULT_255_2_778
10
54.5298127
20
55.9046105
11
54.5568127
21
55.8951105
0
LINE
8
DEFAULT_255_2_778
10
54.5568127
20
55.8951105
11
54.5886127
21
55.8832105
0
LINE
8
DEFAULT_255_2_778
10
54.5886127
20
55.8832105
11
54.6103127
21
55.8752105
0
LINE
8
DEFAULT_255_2_778
10
54.6103127
20
55.8752105
11
54.6484127
21
55.8604105
0
LINE
8
DEFAULT_255_2_778
10
54.6484127
20
55.8604105
11
54.6860127
21
55.8464105
0
LINE
8
DEFAULT_255_2_778
10
54.6860127
20
55.8464105
11
54.7161127
21
55.8353105
0
LINE
8
DEFAULT_255_2_778
10
54.7161127
20
55.8353105
11
54.7249127
21
55.8321105
0
LINE
8
DEFAULT_255_2_778
10
54.7249127
20
55.8321105
11
54.7442127
21
55.8255105
0
LINE
8
DEFAULT_255_2_778
10
54.7442127
20
55.8255105
11
54.7611127
21
55.8199105
0
LINE
8
DEFAULT_255_2_778
10
54.7611127
20
55.8199105
11
54.7764127
21
55.8149105
0
LINE
8
DEFAULT_255_2_778
10
54.7764127
20
55.8149105
11
54.7902127
21
55.8107105
0
LINE
8
DEFAULT_255_2_778
10
54.7902127
20
55.8107105
11
54.8037127
21
55.8072105
0
LINE
8
DEFAULT_255_2_778
10
54.8037127
20
55.8072105
11
54.8124127
21
55.8051105
0
LINE
8
DEFAULT_255_2_778
10
54.8124127
20
55.8051105
11
54.8225127
21
55.8027105
0
LINE
8
DEFAULT_255_2_778
10
54.8225127
20
55.8027105
11
54.8317127
21
55.8009105
0
LINE
8
DEFAULT_255_2_778
10
54.8317127
20
55.8009105
11
54.8402127
21
55.7998105
0
LINE
8
DEFAULT_255_2_778
10
54.8402127
20
55.7998105
11
54.8484127
21
55.7988105
0
LINE
8
DEFAULT_255_2_778
10
54.8484127
20
55.7988105
11
54.8558127
21
55.7980105
0
LINE
8
DEFAULT_255_2_778
10
54.8558127
20
55.7980105
11
54.8632127
21
55.7980105
0
LINE
8
DEFAULT_255_2_778
10
54.8632127
20
55.7980105
11
54.8701127
21
55.7980105
0
LINE
8
DEFAULT_255_2_778
10
54.8701127
20
55.7980105
11
54.8765127
21
55.7982105
0
LINE
8
DEFAULT_255_2_778
10
54.8765127
20
55.7982105
11
54.8833127
21
55.7990105
0
LINE
8
DEFAULT_255_2_778
10
54.8833127
20
55.7990105
11
54.8897127
21
55.8001105
0
LINE
8
DEFAULT_255_2_778
10
54.8897127
20
55.8001105
11
54.8966127
21
55.8011105
0
LINE
8
DEFAULT_255_2_778
10
54.8966127
20
55.8011105
11
54.9029127
21
55.8030105
0
LINE
8
DEFAULT_255_2_778
10
54.9029127
20
55.8030105
11
54.9098127
21
55.8048105
0
LINE
8
DEFAULT_255_2_778
10
54.9098127
20
55.8048105
11
54.9161127
21
55.8070105
0
LINE
8
DEFAULT_255_2_778
10
54.9161127
20
55.8070105
11
54.9230127
21
55.8093105
0
LINE
8
DEFAULT_255_2_778
10
54.9230127
20
55.8093105
11
54.9257127
21
55.8104105
0
LINE
8
DEFAULT_255_2_778
10
54.9257127
20
55.8104105
11
54.9320127
21
55.8133105
0
LINE
8
DEFAULT_255_2_778
10
54.9320127
20
55.8133105
11
54.9381127
21
55.8162105
0
LINE
8
DEFAULT_255_2_778
10
54.9381127
20
55.8162105
11
54.9611127
21
55.8305105
0
LINE
8
DEFAULT_255_2_778
10
54.9611127
20
55.8305105
11
54.9664127
21
55.8347105
0
LINE
8
DEFAULT_255_2_778
10
54.9664127
20
55.8347105
11
54.9717127
21
55.8390105
0
LINE
8
DEFAULT_255_2_778
10
54.9717127
20
55.8390105
11
54.9770127
21
55.8440105
0
LINE
8
DEFAULT_255_2_778
10
54.9770127
20
55.8440105
11
54.9820127
21
55.8490105
0
LINE
8
DEFAULT_255_2_778
10
54.9820127
20
55.8490105
11
54.9868127
21
55.8543105
0
LINE
8
DEFAULT_255_2_778
10
54.9868127
20
55.8543105
11
54.9918127
21
55.8599105
0
LINE
8
DEFAULT_255_2_778
10
54.9918127
20
55.8599105
11
54.9966127
21
55.8654105
0
LINE
8
DEFAULT_255_2_778
10
54.9966127
20
55.8654105
11
55.0011127
21
55.8712105
0
LINE
8
DEFAULT_255_2_778
10
55.0011127
20
55.8712105
11
55.0056127
21
55.8776105
0
LINE
8
DEFAULT_255_2_778
10
55.0056127
20
55.8776105
11
55.0095127
21
55.8839105
0
LINE
8
DEFAULT_255_2_778
10
55.0095127
20
55.8839105
11
55.0132127
21
55.8903105
0
LINE
8
DEFAULT_255_2_778
10
55.0132127
20
55.8903105
11
55.0170127
21
55.8972105
0
LINE
8
DEFAULT_255_2_778
10
55.0170127
20
55.8972105
11
55.0172127
21
55.8974105
0
LINE
8
DEFAULT_255_2_778
10
55.0172127
20
55.8974105
11
55.0207127
21
55.9041105
0
LINE
8
DEFAULT_255_2_778
10
55.0207127
20
55.9041105
11
55.0238127
21
55.9109105
0
LINE
8
DEFAULT_255_2_778
10
55.0238127
20
55.9109105
11
55.0270127
21
55.9183105
0
LINE
8
DEFAULT_255_2_778
10
55.0270127
20
55.9183105
11
55.0297127
21
55.9252105
0
LINE
8
DEFAULT_255_2_778
10
55.0297127
20
55.9252105
11
55.0320127
21
55.9326105
0
LINE
8
DEFAULT_255_2_778
10
55.0320127
20
55.9326105
11
55.0341127
21
55.9403105
0
LINE
8
DEFAULT_255_2_778
10
55.0341127
20
55.9403105
11
55.0363127
21
55.9477105
0
LINE
8
DEFAULT_255_2_778
10
55.0363127
20
55.9477105
11
55.0379127
21
55.9554105
0
LINE
8
DEFAULT_255_2_778
10
55.0379127
20
55.9554105
11
55.0392127
21
55.9633105
0
LINE
8
DEFAULT_255_2_778
10
55.0392127
20
55.9633105
11
55.0402127
21
55.9710105
0
LINE
8
DEFAULT_255_2_778
10
55.0402127
20
55.9710105
11
55.0413127
21
55.9789105
0
LINE
8
DEFAULT_255_2_778
10
55.0413127
20
55.9789105
11
55.0421127
21
55.9869105
0
LINE
8
DEFAULT_255_2_778
10
55.0421127
20
55.9869105
11
55.0423127
21
55.9945105
0
LINE
8
DEFAULT_255_2_778
10
55.0423127
20
55.9945105
11
55.0423127
21
56.0012105
0
LINE
8
DEFAULT_255_2_778
10
55.0423127
20
56.0012105
11
55.0421127
21
56.0088105
0
LINE
8
DEFAULT_255_2_778
10
55.0421127
20
56.0088105
11
55.0418127
21
56.0168105
0
LINE
8
DEFAULT_255_2_778
10
52.9733127
20
55.6276105
11
55.1273127
21
55.6276105
0
LINE
8
DEFAULT_255_2_778
10
55.1273127
20
55.6276105
11
55.1273127
21
55.9832105
0
LINE
8
DEFAULT_255_2_778
10
54.1510127
20
55.9612105
11
54.4830127
21
55.9207105
0
LINE
8
DEFAULT_255_2_778
10
54.4830127
20
55.9207105
11
52.9736127
21
55.8662105
0
LINE
8
DEFAULT_255_2_778
10
52.9736127
20
52.9119105
11
52.9736127
21
56.1678105
0
LINE
8
DEFAULT_255_2_778
10
52.9736127
20
56.1678105
11
54.4161127
21
56.1525105
0
LINE
8
DEFAULT_255_2_778
10
54.4161127
20
56.1525105
11
54.5661127
21
56.1284105
0
LINE
8
DEFAULT_255_2_778
10
45.3118127
20
67.4825105
11
45.3067127
21
67.4433105
0
LINE
8
DEFAULT_255_2_778
10
45.3067127
20
67.4433105
11
45.3007127
21
67.4039105
0
LINE
8
DEFAULT_255_2_778
10
45.3007127
20
67.4039105
11
45.2935127
21
67.3637105
0
LINE
8
DEFAULT_255_2_778
10
45.2935127
20
67.3637105
11
45.2760127
21
67.2814105
0
LINE
8
DEFAULT_255_2_778
10
45.2760127
20
67.2814105
11
45.2541127
21
67.1970105
0
LINE
8
DEFAULT_255_2_778
10
45.2541127
20
67.1970105
11
45.2274127
21
67.1100105
0
LINE
8
DEFAULT_255_2_778
10
45.2274127
20
67.1100105
11
45.1776127
21
66.9734105
0
LINE
8
DEFAULT_255_2_778
10
45.1776127
20
66.9734105
11
45.1215127
21
66.8422105
0
LINE
8
DEFAULT_255_2_778
10
45.1215127
20
66.8422105
11
45.0485127
21
66.6922105
0
LINE
8
DEFAULT_255_2_778
10
45.0485127
20
66.6922105
11
44.9657127
21
66.5422105
0
LINE
8
DEFAULT_255_2_778
10
44.9657127
20
66.5422105
11
44.8723127
21
66.3916105
0
LINE
8
DEFAULT_255_2_778
10
44.8723127
20
66.3916105
11
44.8305127
21
66.3289105
0
LINE
8
DEFAULT_255_2_778
10
55.5273127
20
93.4987105
11
55.5763127
21
93.4987105
0
LINE
8
DEFAULT_255_2_778
10
44.8305127
20
93.1328105
11
45.2334127
21
93.1336105
0
LINE
8
DEFAULT_255_2_778
10
45.2334127
20
93.1336105
11
45.2843127
21
93.0836105
0
LINE
8
DEFAULT_255_2_778
10
45.2843127
20
93.0836105
11
45.3134127
21
93.0172105
0
LINE
8
DEFAULT_255_2_778
10
45.3134127
20
93.0172105
11
45.3210127
21
92.9907105
0
LINE
8
DEFAULT_255_2_778
10
45.3210127
20
92.9907105
11
45.3210127
21
93.1325105
0
LINE
8
DEFAULT_255_2_778
10
45.3210127
20
93.1325105
11
55.1347127
21
93.1325105
0
LINE
8
DEFAULT_255_2_778
10
55.5273127
20
68.1029105
11
55.5763127
21
68.1029105
0
LINE
8
DEFAULT_255_2_778
10
55.1347127
20
67.5957105
11
55.1336127
21
67.5894105
0
LINE
8
DEFAULT_255_2_778
10
55.1336127
20
67.5894105
11
55.0894127
21
67.5571105
0
LINE
8
DEFAULT_255_2_778
10
55.0894127
20
67.5571105
11
54.9048127
21
67.5156105
0
LINE
8
DEFAULT_255_2_778
10
54.9048127
20
67.5156105
11
54.4828127
21
67.4841105
0
LINE
8
DEFAULT_255_2_778
10
54.4828127
20
67.4841105
11
45.3118127
21
67.4822105
0
LINE
8
DEFAULT_255_2_778
10
45.3210127
20
67.6449105
11
45.3210127
21
89.3762105
0
LINE
8
DEFAULT_255_2_778
10
45.3210127
20
89.3762105
11
45.3186127
21
89.7313105
0
LINE
8
DEFAULT_255_2_778
10
45.3186127
20
89.7313105
11
45.3139127
21
89.9935105
0
LINE
8
DEFAULT_255_2_778
10
45.3139127
20
89.9935105
11
45.3065127
21
90.2528105
0
LINE
8
DEFAULT_255_2_778
10
45.3065127
20
90.2528105
11
45.2996127
21
90.4348105
0
LINE
8
DEFAULT_255_2_778
10
45.2996127
20
90.4348105
11
45.2885127
21
90.6745105
0
LINE
8
DEFAULT_255_2_778
10
45.2885127
20
90.6745105
11
45.2750127
21
90.9053105
0
LINE
8
DEFAULT_255_2_778
10
45.2750127
20
90.9053105
11
45.2565127
21
91.1698105
0
LINE
8
DEFAULT_255_2_778
10
45.2565127
20
91.1698105
11
45.2395127
21
91.3733105
0
LINE
8
DEFAULT_255_2_778
10
45.2395127
20
91.3733105
11
45.2210127
21
91.5649105
0
LINE
8
DEFAULT_255_2_778
10
45.2210127
20
91.5649105
11
45.2096127
21
91.6699105
0
LINE
8
DEFAULT_255_2_778
10
45.2096127
20
91.6699105
11
45.1898127
21
91.8398105
0
LINE
8
DEFAULT_255_2_778
10
45.1898127
20
91.8398105
11
45.1681127
21
91.9998105
0
LINE
8
DEFAULT_255_2_778
10
45.1681127
20
91.9998105
11
45.1570127
21
92.0763105
0
LINE
8
DEFAULT_255_2_778
10
45.1570127
20
92.0763105
11
45.1361127
21
92.2052105
0
LINE
8
DEFAULT_255_2_778
10
45.1361127
20
92.2052105
11
45.1152127
21
92.3226105
0
LINE
8
DEFAULT_255_2_778
10
45.1152127
20
92.3226105
11
45.0840127
21
92.4716105
0
LINE
8
DEFAULT_255_2_778
10
45.0840127
20
92.4716105
11
45.0623127
21
92.5618105
0
LINE
8
DEFAULT_255_2_778
10
45.0623127
20
92.5618105
11
45.0403127
21
92.6438105
0
LINE
8
DEFAULT_255_2_778
10
45.0403127
20
92.6438105
11
45.0242127
21
92.6983105
0
LINE
8
DEFAULT_255_2_778
10
45.0242127
20
92.6983105
11
45.0051127
21
92.7547105
0
LINE
8
DEFAULT_255_2_778
10
45.0051127
20
92.7547105
11
44.9858127
21
92.8044105
0
LINE
8
DEFAULT_255_2_778
10
44.9858127
20
92.8044105
11
44.9662127
21
92.8491105
0
LINE
8
DEFAULT_255_2_778
10
44.9662127
20
92.8491105
11
54.6463127
21
92.8574105
0
LINE
8
DEFAULT_255_2_778
10
54.6463127
20
92.8574105
11
55.0426127
21
92.9087105
0
LINE
8
DEFAULT_255_2_778
10
55.0426127
20
92.9087105
11
55.1350127
21
92.9621105
0
LINE
8
DEFAULT_255_2_778
10
55.1350127
20
66.9025105
11
55.1336127
21
66.8679105
0
LINE
8
DEFAULT_255_2_778
10
55.1336127
20
66.8679105
11
55.1289127
21
66.8321105
0
LINE
8
DEFAULT_255_2_778
10
55.1289127
20
66.8321105
11
55.1212127
21
66.7962105
0
LINE
8
DEFAULT_255_2_778
10
55.1212127
20
66.7962105
11
55.1032127
21
66.7419105
0
LINE
8
DEFAULT_255_2_778
10
55.1032127
20
66.7419105
11
55.0752127
21
66.6826105
0
LINE
8
DEFAULT_255_2_778
10
55.0752127
20
66.6826105
11
55.0312127
21
66.6165105
0
LINE
8
DEFAULT_255_2_778
10
55.0312127
20
66.6165105
11
54.9580127
21
66.5387105
0
LINE
8
DEFAULT_255_2_778
10
54.9580127
20
66.5387105
11
54.8439127
21
66.4559105
0
LINE
8
DEFAULT_255_2_778
10
54.8439127
20
66.4559105
11
54.6788127
21
66.3808105
0
LINE
8
DEFAULT_255_2_778
10
54.6788127
20
66.3808105
11
54.4558127
21
66.3331105
0
LINE
8
DEFAULT_255_2_778
10
54.4558127
20
66.3331105
11
54.3499127
21
66.3278105
0
LINE
8
DEFAULT_255_2_778
10
54.3499127
20
66.3278105
11
44.8308127
21
66.3278105
0
LINE
8
DEFAULT_255_2_778
10
44.8308127
20
66.3278105
11
44.8308127
21
93.1325105
0
LINE
8
DEFAULT_255_2_778
10
44.8308127
20
93.1325105
11
44.9662127
21
92.8497105
0
ARC
8
DEFAULT_255_2_778
10
18.490324
20
44.5081592
40
0.1968025
50
201.1739302
51
269.2383615
0
ARC
8
DEFAULT_255_2_778
10
18.4919265
20
46.1699303
40
0.1986756
50
103.3039491
51
158.553018
0
ARC
8
DEFAULT_255_2_778
10
18.4903492
20
46.2145834
40
0.1984413
50
161.9183366
51
180.0026933
0
ARC
8
DEFAULT_255_2_778
10
18.5309133
20
52.2384683
40
0.1962066
50
201.0563255
51
269.3559662
0
ARC
8
DEFAULT_255_2_778
10
18.5327648
20
53.9005241
40
0.1987136
50
103.3423323
51
158.5553779
0
ARC
8
DEFAULT_255_2_778
10
18.5315037
20
53.9454586
40
0.1985959
50
161.9253469
51
180.0243683
0
ARC
8
DEFAULT_255_2_778
10
54.9335424
20
23.6831824
40
0.2002866
50
359.1679967
51
86.8901837
0
ARC
8
DEFAULT_255_2_778
10
54.9337215
20
19.8777001
40
0.2001115
50
273.0611694
51
0.9088144
0
ARC
8
DEFAULT_255_2_778
10
54.1357201
20
122.4779774
40
2.209631
50
82.4235872
51
90.3192561
0
ARC
8
DEFAULT_255_2_778
10
54.2627943
20
123.3963511
40
1.2825295
50
70.0975725
51
82.6415447
0
ARC
8
DEFAULT_255_2_778
10
54.4607749
20
123.9257703
40
0.7173586
50
46.7827321
51
70.5713212
0
ARC
8
DEFAULT_255_2_778
10
54.5318454
20
124.025795
40
0.5960316
50
4.8850113
51
45.1771625
0
ARC
8
DEFAULT_255_2_778
10
54.2226737
20
123.9740561
40
0.9088362
50
359.8813534
51
6.4753532
0
ARC
8
DEFAULT_255_2_778
10
16.5019046
20
69.2493925
40
5.7569034
50
359.2153738
51
359.9998173
0
ARC
8
DEFAULT_255_2_778
10
16.4676239
20
69.2502621
40
5.7911928
50
352.1906838
51
359.2114154
0
ARC
8
DEFAULT_255_2_778
10
26.5244376
20
64.9392006
40
4.7564304
50
172.2005858
51
179.9726136
0
ARC
8
DEFAULT_255_2_778
10
26.5714003
20
47.7027594
40
4.8033955
50
180.0654302
51
187.7613521
0
ARC
8
DEFAULT_255_2_778
10
16.4811267
20
43.3897737
40
5.7776812
50
359.9950456
51
7.8178079
0
ARC
8
DEFAULT_255_2_778
10
26.3296726
20
65.815618
40
5.5448249
50
172.2413307
51
174.1821703
0
ARC
8
DEFAULT_255_2_778
10
26.0704324
20
46.7877503
40
5.2833229
50
182.5903262
51
185.1100051
0
ARC
8
DEFAULT_255_2_778
10
13.3851189
20
70.1037206
40
7.8945047
50
355.5484054
51
355.617766
0
ARC
8
DEFAULT_255_2_778
10
4.9965626
20
70.7476057
40
16.3077362
50
355.6141322
51
355.765456
0
ARC
8
DEFAULT_255_2_778
10
6.232237
20
70.6579493
40
15.0688149
50
355.7584982
51
356.0015201
0
ARC
8
DEFAULT_255_2_778
10
10.0366833
20
70.3909544
40
11.2550116
50
356.0069211
51
356.1353365
0
ARC
8
DEFAULT_255_2_778
10
15.6506633
20
70.0192874
40
5.6287524
50
356.05838
51
356.9423623
0
ARC
8
DEFAULT_255_2_778
10
19.0386229
20
69.8334922
40
2.2357108
50
357.0657638
51
357.3307431
0
ARC
8
DEFAULT_255_2_778
10
16.0001735
20
69.9658344
40
5.2770349
50
357.4317552
51
0.0243173
0
ARC
8
DEFAULT_255_2_778
10
21.7764944
20
124.1848906
40
0.4993591
50
90.9967259
51
180.9772181
0
ARC
8
DEFAULT_255_2_778
10
0.677829
20
124.1846604
40
0.4995898
50
91.0002281
51
180.9503629
0
ARC
8
DEFAULT_255_2_778
10
22.3115317
20
0.7502527
40
1.0343282
50
179.8326291
51
215.0907493
0
ARC
8
DEFAULT_255_2_778
10
22.2628192
20
0.7081549
40
0.97029
50
214.710303
51
269.7513207
0
ARC
8
DEFAULT_255_2_778
10
54.9343185
20
61.1618895
40
0.2003116
50
273.1162818
51
0.8537171
0
ARC
8
DEFAULT_255_2_778
10
44.2860772
20
0.7508085
40
1.0349352
50
325.097408
51
0.1697199
0
ARC
8
DEFAULT_255_2_778
10
44.3357012
20
0.7083031
40
0.9699381
50
270.2485011
51
325.4793561
0
ARC
8
DEFAULT_255_2_778
10
54.1006505
20
0.7510025
40
1.034562
50
324.9634702
51
0.1701106
0
ARC
8
DEFAULT_255_2_778
10
54.1497601
20
0.7088224
40
0.9701569
50
270.2390551
51
325.3380625
0
ARC
8
DEFAULT_255_2_778
10
52.6766395
20
123.6914472
40
1.6753356
50
356.6474476
51
359.0778559
0
ARC
8
DEFAULT_255_2_778
10
52.8797051
20
123.6873006
40
1.4722297
50
359.1120239
51
359.9951845
0
ARC
8
DEFAULT_255_2_778
10
53.3394655
20
123.698313
40
1.0125304
50
359.3698327
51
10.9682801
0
ARC
8
DEFAULT_255_2_778
10
53.861506
20
123.8052109
40
0.4797202
50
10.2971699
51
33.0812415
0
ARC
8
DEFAULT_255_2_778
10
54.0191513
20
123.9030063
40
0.2942788
50
33.8804451
51
67.5966962
0
ARC
8
DEFAULT_255_2_778
10
54.9340419
20
54.6456685
40
0.2000901
50
359.1138827
51
86.9443349
0
ARC
8
DEFAULT_255_2_778
10
54.934177
20
25.0382536
40
0.1999569
50
273.0189427
51
0.9228467
0
ARC
8
DEFAULT_255_2_778
10
18.4829885
20
52.200702
40
0.2001057
50
179.0916994
51
268.401914
0
ARC
8
DEFAULT_255_2_778
10
18.4826194
20
53.9375978
40
0.1997443
50
91.495047
51
181.0395025
0
ARC
8
DEFAULT_255_2_778
10
0.678307
20
42.9193177
40
0.500064
50
179.0768843
51
267.9487446
0
ARC
8
DEFAULT_255_2_778
10
18.4844542
20
44.4800688
40
0.1999689
50
179.1388781
51
268.4393298
0
ARC
8
DEFAULT_255_2_778
10
18.4837355
20
46.2174682
40
0.1992619
50
91.3595093
51
181.0622681
0
ARC
8
DEFAULT_255_2_778
10
54.9339505
20
18.5244817
40
0.2001817
50
359.110515
51
86.9195384
0
ARC
8
DEFAULT_255_2_778
10
1.212878
20
0.7508415
40
1.0345745
50
179.8320488
51
215.0439653
0
ARC
8
DEFAULT_255_2_778
10
1.1638695
20
0.7085574
40
0.9701926
50
214.6614282
51
269.7483293
0
LINE
8
DEFAULT_255_2_778
10
18.2917079
20
44.4637741
11
18.2938079
21
44.4346741
0
LINE
8
DEFAULT_255_2_778
10
18.2938079
20
44.4346741
11
18.2999079
21
44.4068741
0
LINE
8
DEFAULT_255_2_778
10
18.2999079
20
44.4068741
11
18.3300079
21
44.3468741
0
LINE
8
DEFAULT_255_2_778
10
18.3300079
20
44.3468741
11
18.4298079
21
44.2764741
0
LINE
8
DEFAULT_255_2_778
10
18.4298079
20
44.2764741
11
18.4369079
21
44.2743741
0
LINE
8
DEFAULT_255_2_778
10
19.8215079
20
44.3108741
11
19.8212079
21
44.3116741
0
LINE
8
DEFAULT_255_2_778
10
19.8212079
20
44.3116741
11
19.8210079
21
44.3124741
0
LINE
8
DEFAULT_255_2_778
10
19.8210079
20
44.3124741
11
19.8210079
21
44.3126741
0
LINE
8
DEFAULT_255_2_778
10
19.8210079
20
44.3126741
11
19.8202079
21
44.3161741
0
LINE
8
DEFAULT_255_2_778
10
19.8202079
20
44.3161741
11
19.8196079
21
44.3201741
0
LINE
8
DEFAULT_255_2_778
10
19.8196079
20
44.3201741
11
19.8196079
21
44.3214741
0
LINE
8
DEFAULT_255_2_778
10
19.8196079
20
44.3214741
11
19.8191079
21
44.3285741
0
LINE
8
DEFAULT_255_2_778
10
19.8191079
20
44.3285741
11
19.8183079
21
44.3394741
0
LINE
8
DEFAULT_255_2_778
10
19.8183079
20
44.3394741
11
19.8181079
21
44.3478741
0
LINE
8
DEFAULT_255_2_778
10
19.8181079
20
44.3478741
11
19.8173079
21
44.3677741
0
LINE
8
DEFAULT_255_2_778
10
19.8173079
20
44.3677741
11
19.8173079
21
44.3730741
0
LINE
8
DEFAULT_255_2_778
10
19.8173079
20
44.3730741
11
19.8170079
21
44.3830741
0
LINE
8
DEFAULT_255_2_778
10
19.8170079
20
44.3830741
11
19.8165079
21
44.4034741
0
LINE
8
DEFAULT_255_2_778
10
19.8165079
20
44.4034741
11
19.8162079
21
44.4177741
0
LINE
8
DEFAULT_255_2_778
10
19.8162079
20
44.4177741
11
19.8159079
21
44.4381741
0
LINE
8
DEFAULT_255_2_778
10
19.8159079
20
44.4381741
11
19.8157079
21
44.4531741
0
LINE
8
DEFAULT_255_2_778
10
19.8157079
20
44.4531741
11
19.8157079
21
44.4735741
0
LINE
8
DEFAULT_255_2_778
10
19.8157079
20
44.4735741
11
19.8157079
21
44.4941741
0
LINE
8
DEFAULT_255_2_778
10
19.8157079
20
44.4941741
11
19.8157079
21
44.5145741
0
LINE
8
DEFAULT_255_2_778
10
19.8157079
20
44.5145741
11
20.3702079
21
44.5190741
0
LINE
8
DEFAULT_255_2_778
10
20.3702079
20
44.5190741
11
20.3702079
21
44.5111741
0
LINE
8
DEFAULT_255_2_778
10
20.3702079
20
44.5111741
11
20.3705079
21
44.4992741
0
LINE
8
DEFAULT_255_2_778
10
20.3705079
20
44.4992741
11
20.3713079
21
44.4873741
0
LINE
8
DEFAULT_255_2_778
10
20.3713079
20
44.4873741
11
20.3724079
21
44.4762741
0
LINE
8
DEFAULT_255_2_778
10
20.3724079
20
44.4762741
11
20.3737079
21
44.4650741
0
LINE
8
DEFAULT_255_2_778
10
20.3737079
20
44.4650741
11
20.3750079
21
44.4542741
0
LINE
8
DEFAULT_255_2_778
10
20.3750079
20
44.4542741
11
20.3766079
21
44.4441741
0
LINE
8
DEFAULT_255_2_778
10
20.3766079
20
44.4441741
11
20.3784079
21
44.4336741
0
LINE
8
DEFAULT_255_2_778
10
20.3784079
20
44.4336741
11
20.3806079
21
44.4238741
0
LINE
8
DEFAULT_255_2_778
10
20.3806079
20
44.4238741
11
20.3829079
21
44.4140741
0
LINE
8
DEFAULT_255_2_778
10
20.3829079
20
44.4140741
11
20.3856079
21
44.4045741
0
LINE
8
DEFAULT_255_2_778
10
20.3856079
20
44.4045741
11
20.3882079
21
44.3955741
0
LINE
8
DEFAULT_255_2_778
10
20.3882079
20
44.3955741
11
20.3898079
21
44.3902741
0
LINE
8
DEFAULT_255_2_778
10
20.3898079
20
44.3902741
11
20.3927079
21
44.3822741
0
LINE
8
DEFAULT_255_2_778
10
20.3927079
20
44.3822741
11
20.3956079
21
44.3751741
0
LINE
8
DEFAULT_255_2_778
10
20.3956079
20
44.3751741
11
20.3986079
21
44.3682741
0
LINE
8
DEFAULT_255_2_778
10
20.3986079
20
44.3682741
11
20.4015079
21
44.3619741
0
LINE
8
DEFAULT_255_2_778
10
20.4015079
20
44.3619741
11
20.4046079
21
44.3558741
0
LINE
8
DEFAULT_255_2_778
10
20.4046079
20
44.3558741
11
20.4078079
21
44.3502741
0
LINE
8
DEFAULT_255_2_778
10
20.4078079
20
44.3502741
11
20.4102079
21
44.3468741
0
LINE
8
DEFAULT_255_2_778
10
20.4102079
20
44.3468741
11
20.4134079
21
44.3423741
0
LINE
8
DEFAULT_255_2_778
10
20.4134079
20
44.3423741
11
20.4163079
21
44.3380741
0
LINE
8
DEFAULT_255_2_778
10
20.4163079
20
44.3380741
11
20.4195079
21
44.3341741
0
LINE
8
DEFAULT_255_2_778
10
20.4195079
20
44.3341741
11
20.4226079
21
44.3309741
0
LINE
8
DEFAULT_255_2_778
10
20.4226079
20
44.3309741
11
20.4255079
21
44.3277741
0
LINE
8
DEFAULT_255_2_778
10
20.4255079
20
44.3277741
11
20.4287079
21
44.3253741
0
LINE
8
DEFAULT_255_2_778
10
20.4287079
20
44.3253741
11
20.4319079
21
44.3230741
0
LINE
8
DEFAULT_255_2_778
10
20.4314079
20
46.3558741
11
20.4282079
21
46.3534741
0
LINE
8
DEFAULT_255_2_778
10
20.4282079
20
46.3534741
11
20.4250079
21
46.3505741
0
LINE
8
DEFAULT_255_2_778
10
20.4250079
20
46.3505741
11
20.4218079
21
46.3476741
0
LINE
8
DEFAULT_255_2_778
10
20.4218079
20
46.3476741
11
20.4187079
21
46.3441741
0
LINE
8
DEFAULT_255_2_778
10
20.4187079
20
46.3441741
11
20.4158079
21
46.3401741
0
LINE
8
DEFAULT_255_2_778
10
20.4158079
20
46.3401741
11
20.4128079
21
46.3359741
0
LINE
8
DEFAULT_255_2_778
10
20.4128079
20
46.3359741
11
20.4097079
21
46.3314741
0
LINE
8
DEFAULT_255_2_778
10
20.4097079
20
46.3314741
11
20.4075079
21
46.3280741
0
LINE
8
DEFAULT_255_2_778
10
20.4075079
20
46.3280741
11
20.4044079
21
46.3224741
0
LINE
8
DEFAULT_255_2_778
10
20.4044079
20
46.3224741
11
20.4012079
21
46.3166741
0
LINE
8
DEFAULT_255_2_778
10
20.4012079
20
46.3166741
11
20.3983079
21
46.3100741
0
LINE
8
DEFAULT_255_2_778
10
20.3983079
20
46.3100741
11
20.3954079
21
46.3034741
0
LINE
8
DEFAULT_255_2_778
10
20.3954079
20
46.3034741
11
20.3925079
21
46.2960741
0
LINE
8
DEFAULT_255_2_778
10
20.3925079
20
46.2960741
11
20.3898079
21
46.2883741
0
LINE
8
DEFAULT_255_2_778
10
20.3898079
20
46.2883741
11
20.3882079
21
46.2830741
0
LINE
8
DEFAULT_255_2_778
10
20.3882079
20
46.2830741
11
20.3856079
21
46.2740741
0
LINE
8
DEFAULT_255_2_778
10
20.3856079
20
46.2740741
11
20.3829079
21
46.2645741
0
LINE
8
DEFAULT_255_2_778
10
20.3829079
20
46.2645741
11
20.3806079
21
46.2547741
0
LINE
8
DEFAULT_255_2_778
10
20.3806079
20
46.2547741
11
20.3784079
21
46.2449741
0
LINE
8
DEFAULT_255_2_778
10
20.3784079
20
46.2449741
11
20.3766079
21
46.2348741
0
LINE
8
DEFAULT_255_2_778
10
20.3766079
20
46.2348741
11
20.3750079
21
46.2243741
0
LINE
8
DEFAULT_255_2_778
10
20.3750079
20
46.2243741
11
20.3734079
21
46.2134741
0
LINE
8
DEFAULT_255_2_778
10
20.3734079
20
46.2134741
11
20.3724079
21
46.2023741
0
LINE
8
DEFAULT_255_2_778
10
20.3724079
20
46.2023741
11
20.3713079
21
46.1912741
0
LINE
8
DEFAULT_255_2_778
10
20.3713079
20
46.1912741
11
20.3705079
21
46.1793741
0
LINE
8
DEFAULT_255_2_778
10
20.3705079
20
46.1793741
11
20.3700079
21
46.1674741
0
LINE
8
DEFAULT_255_2_778
10
20.3700079
20
46.1674741
11
20.3700079
21
46.1600741
0
LINE
8
DEFAULT_255_2_778
10
20.3700079
20
46.1600741
11
20.5547079
21
46.1592741
0
LINE
8
DEFAULT_255_2_778
10
18.2919079
20
44.5148741
11
18.2919079
21
44.5071741
0
LINE
8
DEFAULT_255_2_778
10
18.2919079
20
44.5071741
11
18.2925079
21
44.4997741
0
LINE
8
DEFAULT_255_2_778
10
18.2925079
20
44.4997741
11
18.2933079
21
44.4920741
0
LINE
8
DEFAULT_255_2_778
10
18.2933079
20
44.4920741
11
18.2943079
21
44.4844741
0
LINE
8
DEFAULT_255_2_778
10
18.2943079
20
44.4844741
11
18.2954079
21
44.4769741
0
LINE
8
DEFAULT_255_2_778
10
18.2954079
20
44.4769741
11
18.2962079
21
44.4735741
0
LINE
8
DEFAULT_255_2_778
10
18.2962079
20
44.4735741
11
18.2978079
21
44.4658741
0
LINE
8
DEFAULT_255_2_778
10
18.2978079
20
44.4658741
11
18.2996079
21
44.4584741
0
LINE
8
DEFAULT_255_2_778
10
18.2996079
20
44.4584741
11
18.3017079
21
44.4510741
0
LINE
8
DEFAULT_255_2_778
10
18.3017079
20
44.4510741
11
18.3041079
21
44.4439741
0
LINE
8
DEFAULT_255_2_778
10
18.3041079
20
44.4439741
11
18.3068079
21
44.4370741
0
LINE
8
DEFAULT_255_2_778
10
18.4877079
20
44.3113741
11
18.4875079
21
44.3121741
0
LINE
8
DEFAULT_255_2_778
10
18.4875079
20
44.3121741
11
18.4872079
21
44.3129741
0
LINE
8
DEFAULT_255_2_778
10
18.4872079
20
44.3129741
11
18.4872079
21
44.3132741
0
LINE
8
DEFAULT_255_2_778
10
18.4872079
20
44.3132741
11
18.4867079
21
44.3166741
0
LINE
8
DEFAULT_255_2_778
10
18.4867079
20
44.3166741
11
18.4861079
21
44.3206741
0
LINE
8
DEFAULT_255_2_778
10
18.4861079
20
44.3206741
11
18.4859079
21
44.3219741
0
LINE
8
DEFAULT_255_2_778
10
18.4859079
20
44.3219741
11
18.4851079
21
44.3290741
0
LINE
8
DEFAULT_255_2_778
10
18.4851079
20
44.3290741
11
18.4843079
21
44.3399741
0
LINE
8
DEFAULT_255_2_778
10
18.4843079
20
44.3399741
11
18.4838079
21
44.3484741
0
LINE
8
DEFAULT_255_2_778
10
18.4838079
20
44.3484741
11
18.4830079
21
44.3682741
0
LINE
8
DEFAULT_255_2_778
10
18.4830079
20
44.3682741
11
18.4827079
21
44.3735741
0
LINE
8
DEFAULT_255_2_778
10
18.4827079
20
44.3735741
11
18.4824079
21
44.3835741
0
LINE
8
DEFAULT_255_2_778
10
18.4824079
20
44.3835741
11
18.4819079
21
44.4039741
0
LINE
8
DEFAULT_255_2_778
10
18.4819079
20
44.4039741
11
18.4816079
21
44.4182741
0
LINE
8
DEFAULT_255_2_778
10
18.4816079
20
44.4182741
11
18.4814079
21
44.4386741
0
LINE
8
DEFAULT_255_2_778
10
18.4814079
20
44.4386741
11
18.4814079
21
44.4537741
0
LINE
8
DEFAULT_255_2_778
10
18.4814079
20
44.4537741
11
18.4811079
21
44.4740741
0
LINE
8
DEFAULT_255_2_778
10
18.4811079
20
44.4740741
11
18.4808079
21
44.4947741
0
LINE
8
DEFAULT_255_2_778
10
18.4808079
20
44.4947741
11
18.4808079
21
46.1647741
0
LINE
8
DEFAULT_255_2_778
10
18.4808079
20
46.1647741
11
18.4808079
21
46.1851741
0
LINE
8
DEFAULT_255_2_778
10
18.4808079
20
46.1851741
11
18.4811079
21
46.2055741
0
LINE
8
DEFAULT_255_2_778
10
18.4811079
20
46.2055741
11
18.4814079
21
46.2261741
0
LINE
8
DEFAULT_255_2_778
10
18.4814079
20
46.2261741
11
18.4814079
21
46.2412741
0
LINE
8
DEFAULT_255_2_778
10
18.4814079
20
46.2412741
11
18.4816079
21
46.2616741
0
LINE
8
DEFAULT_255_2_778
10
18.4816079
20
46.2616741
11
18.4819079
21
46.2756741
0
LINE
8
DEFAULT_255_2_778
10
18.4819079
20
46.2756741
11
18.4824079
21
46.2960741
0
LINE
8
DEFAULT_255_2_778
10
18.4824079
20
46.2960741
11
18.4827079
21
46.3060741
0
LINE
8
DEFAULT_255_2_778
10
18.4827079
20
46.3060741
11
18.4830079
21
46.3116741
0
LINE
8
DEFAULT_255_2_778
10
18.4830079
20
46.3116741
11
18.4838079
21
46.3314741
0
LINE
8
DEFAULT_255_2_778
10
18.4838079
20
46.3314741
11
18.4843079
21
46.3399741
0
LINE
8
DEFAULT_255_2_778
10
18.4843079
20
46.3399741
11
18.4851079
21
46.3507741
0
LINE
8
DEFAULT_255_2_778
10
18.4851079
20
46.3507741
11
18.4859079
21
46.3576741
0
LINE
8
DEFAULT_255_2_778
10
18.4859079
20
46.3576741
11
18.4861079
21
46.3589741
0
LINE
8
DEFAULT_255_2_778
10
18.4861079
20
46.3589741
11
18.4867079
21
46.3629741
0
LINE
8
DEFAULT_255_2_778
10
18.4867079
20
46.3629741
11
18.4872079
21
46.3663741
0
LINE
8
DEFAULT_255_2_778
10
18.4872079
20
46.3663741
11
18.4875079
21
46.3663741
0
LINE
8
DEFAULT_255_2_778
10
18.4875079
20
46.3663741
11
18.4877079
21
46.3674741
0
LINE
8
DEFAULT_255_2_778
10
18.4877079
20
46.3674741
11
18.4880079
21
46.3677741
0
LINE
8
DEFAULT_255_2_778
10
18.4880079
20
46.3677741
11
18.4462079
21
46.3632741
0
LINE
8
DEFAULT_255_2_778
10
18.3070079
20
46.2425741
11
18.3044079
21
46.2356741
0
LINE
8
DEFAULT_255_2_778
10
18.3044079
20
46.2356741
11
18.3020079
21
46.2288741
0
LINE
8
DEFAULT_255_2_778
10
18.3020079
20
46.2288741
11
18.2999079
21
46.2213741
0
LINE
8
DEFAULT_255_2_778
10
18.2999079
20
46.2213741
11
18.2980079
21
46.2139741
0
LINE
8
DEFAULT_255_2_778
10
18.2980079
20
46.2139741
11
18.2964079
21
46.2063741
0
LINE
8
DEFAULT_255_2_778
10
18.2964079
20
46.2063741
11
18.2956079
21
46.2028741
0
LINE
8
DEFAULT_255_2_778
10
18.2956079
20
46.2028741
11
18.2946079
21
46.1952741
0
LINE
8
DEFAULT_255_2_778
10
18.2946079
20
46.1952741
11
18.2935079
21
46.1877741
0
LINE
8
DEFAULT_255_2_778
10
18.2935079
20
46.1877741
11
18.2927079
21
46.1801741
0
LINE
8
DEFAULT_255_2_778
10
18.2927079
20
46.1801741
11
18.2922079
21
46.1724741
0
LINE
8
DEFAULT_255_2_778
10
18.2922079
20
46.1724741
11
18.2922079
21
46.1650741
0
LINE
8
DEFAULT_255_2_778
10
18.2922079
20
46.1650741
11
19.8157079
21
46.1650741
0
LINE
8
DEFAULT_255_2_778
10
19.8157079
20
46.1650741
11
19.8157079
21
44.5153741
0
LINE
8
DEFAULT_255_2_778
10
19.8157079
20
44.5153741
11
18.2919079
21
44.5148741
0
LINE
8
DEFAULT_255_2_778
10
18.4695079
20
46.4103741
11
18.3475079
21
46.3518741
0
LINE
8
DEFAULT_255_2_778
10
18.3475079
20
46.3518741
11
18.3041079
21
46.2833741
0
LINE
8
DEFAULT_255_2_778
10
18.3041079
20
46.2833741
11
18.3017079
21
46.2761741
0
LINE
8
DEFAULT_255_2_778
10
20.5547079
20
44.5201741
11
20.4075079
21
44.5193741
0
LINE
8
DEFAULT_255_2_778
10
20.4075079
20
44.5193741
11
20.3700079
21
44.5193741
0
LINE
8
DEFAULT_255_2_778
10
20.3700079
20
44.5193741
11
20.3700079
21
46.1600741
0
LINE
8
DEFAULT_255_2_778
10
20.3700079
20
46.1600741
11
19.8154079
21
46.1645741
0
LINE
8
DEFAULT_255_2_778
10
19.8154079
20
46.1645741
11
19.8154079
21
46.1848741
0
LINE
8
DEFAULT_255_2_778
10
19.8154079
20
46.1848741
11
19.8154079
21
46.2052741
0
LINE
8
DEFAULT_255_2_778
10
19.8154079
20
46.2052741
11
19.8154079
21
46.2258741
0
LINE
8
DEFAULT_255_2_778
10
19.8154079
20
46.2258741
11
19.8157079
21
46.2409741
0
LINE
8
DEFAULT_255_2_778
10
19.8157079
20
46.2409741
11
19.8159079
21
46.2613741
0
LINE
8
DEFAULT_255_2_778
10
19.8159079
20
46.2613741
11
19.8162079
21
46.2753741
0
LINE
8
DEFAULT_255_2_778
10
19.8162079
20
46.2753741
11
19.8167079
21
46.2957741
0
LINE
8
DEFAULT_255_2_778
10
19.8167079
20
46.2957741
11
19.8170079
21
46.3057741
0
LINE
8
DEFAULT_255_2_778
10
19.8170079
20
46.3057741
11
19.8170079
21
46.3113741
0
LINE
8
DEFAULT_255_2_778
10
19.8170079
20
46.3113741
11
19.8178079
21
46.3312741
0
LINE
8
DEFAULT_255_2_778
10
19.8178079
20
46.3312741
11
19.8181079
21
46.3396741
0
LINE
8
DEFAULT_255_2_778
10
19.8181079
20
46.3396741
11
19.8188079
21
46.3505741
0
LINE
8
DEFAULT_255_2_778
10
19.8188079
20
46.3505741
11
19.8194079
21
46.3573741
0
LINE
8
DEFAULT_255_2_778
10
19.8194079
20
46.3573741
11
19.8194079
21
46.3587741
0
LINE
8
DEFAULT_255_2_778
10
19.8194079
20
46.3587741
11
19.8199079
21
46.3626741
0
LINE
8
DEFAULT_255_2_778
10
19.8199079
20
46.3626741
11
19.8207079
21
46.3661741
0
LINE
8
DEFAULT_255_2_778
10
19.8207079
20
46.3661741
11
19.8207079
21
46.3661741
0
LINE
8
DEFAULT_255_2_778
10
19.8207079
20
46.3661741
11
19.8210079
21
46.3671741
0
LINE
8
DEFAULT_255_2_778
10
19.8210079
20
46.3671741
11
19.8212079
21
46.3674741
0
LINE
8
DEFAULT_255_2_778
10
19.8146079
20
46.4193741
11
20.0366079
21
46.4185741
0
LINE
8
DEFAULT_255_2_778
10
20.0366079
20
46.4185741
11
20.2935079
21
46.3970741
0
LINE
8
DEFAULT_255_2_778
10
20.2935079
20
46.3970741
11
20.4491079
21
46.3452741
0
LINE
8
DEFAULT_255_2_778
10
20.4491079
20
46.3452741
11
20.5218079
21
46.2870741
0
LINE
8
DEFAULT_255_2_778
10
20.5218079
20
46.2870741
11
20.5494079
21
46.2428741
0
LINE
8
DEFAULT_255_2_778
10
20.5494079
20
46.2428741
11
20.5599079
21
46.2124741
0
LINE
8
DEFAULT_255_2_778
10
20.5599079
20
46.2124741
11
20.5599079
21
44.4658741
0
LINE
8
DEFAULT_255_2_778
10
20.5599079
20
44.4658741
11
20.5446079
21
44.4256741
0
LINE
8
DEFAULT_255_2_778
10
20.5446079
20
44.4256741
11
20.5147079
21
44.3833741
0
LINE
8
DEFAULT_255_2_778
10
20.5147079
20
44.3833741
11
20.4364079
21
44.3267741
0
LINE
8
DEFAULT_255_2_778
10
20.4364079
20
44.3267741
11
20.2708079
21
44.2780741
0
LINE
8
DEFAULT_255_2_778
10
20.2708079
20
44.2780741
11
19.8149079
21
44.2595741
0
LINE
8
DEFAULT_255_2_778
10
19.8149079
20
44.2595741
11
18.5634079
21
44.2700741
0
LINE
8
DEFAULT_255_2_778
10
18.3335079
20
52.1941741
11
18.3356079
21
52.1649741
0
LINE
8
DEFAULT_255_2_778
10
18.3356079
20
52.1649741
11
18.3417079
21
52.1374741
0
LINE
8
DEFAULT_255_2_778
10
18.3417079
20
52.1374741
11
18.3718079
21
52.0771741
0
LINE
8
DEFAULT_255_2_778
10
18.3718079
20
52.0771741
11
18.4716079
21
52.0067741
0
LINE
8
DEFAULT_255_2_778
10
18.4716079
20
52.0067741
11
18.4787079
21
52.0046741
0
LINE
8
DEFAULT_255_2_778
10
19.8633079
20
52.0411741
11
19.8630079
21
52.0419741
0
LINE
8
DEFAULT_255_2_778
10
19.8630079
20
52.0419741
11
19.8628079
21
52.0427741
0
LINE
8
DEFAULT_255_2_778
10
19.8628079
20
52.0427741
11
19.8628079
21
52.0430741
0
LINE
8
DEFAULT_255_2_778
10
19.8628079
20
52.0430741
11
19.8620079
21
52.0464741
0
LINE
8
DEFAULT_255_2_778
10
19.8620079
20
52.0464741
11
19.8614079
21
52.0504741
0
LINE
8
DEFAULT_255_2_778
10
19.8614079
20
52.0504741
11
19.8612079
21
52.0517741
0
LINE
8
DEFAULT_255_2_778
10
19.8612079
20
52.0517741
11
19.8607079
21
52.0586741
0
LINE
8
DEFAULT_255_2_778
10
19.8607079
20
52.0586741
11
19.8599079
21
52.0694741
0
LINE
8
DEFAULT_255_2_778
10
19.8599079
20
52.0694741
11
19.8596079
21
52.0779741
0
LINE
8
DEFAULT_255_2_778
10
19.8596079
20
52.0779741
11
19.8588079
21
52.0977741
0
LINE
8
DEFAULT_255_2_778
10
19.8588079
20
52.0977741
11
19.8585079
21
52.1030741
0
LINE
8
DEFAULT_255_2_778
10
19.8585079
20
52.1030741
11
19.8583079
21
52.1131741
0
LINE
8
DEFAULT_255_2_778
10
19.8583079
20
52.1131741
11
19.8577079
21
52.1335741
0
LINE
8
DEFAULT_255_2_778
10
19.8577079
20
52.1335741
11
19.8575079
21
52.1477741
0
LINE
8
DEFAULT_255_2_778
10
19.8575079
20
52.1477741
11
19.8572079
21
52.1681741
0
LINE
8
DEFAULT_255_2_778
10
19.8572079
20
52.1681741
11
19.8572079
21
52.1832741
0
LINE
8
DEFAULT_255_2_778
10
19.8572079
20
52.1832741
11
19.8570079
21
52.2036741
0
LINE
8
DEFAULT_255_2_778
10
19.8570079
20
52.2036741
11
19.8570079
21
52.2242741
0
LINE
8
DEFAULT_255_2_778
10
19.8570079
20
52.2242741
11
19.8570079
21
52.2446741
0
LINE
8
DEFAULT_255_2_778
10
19.8570079
20
52.2446741
11
20.4115079
21
52.2491741
0
LINE
8
DEFAULT_255_2_778
10
20.4115079
20
52.2491741
11
20.4118079
21
52.2411741
0
LINE
8
DEFAULT_255_2_778
10
20.4118079
20
52.2411741
11
20.4120079
21
52.2292741
0
LINE
8
DEFAULT_255_2_778
10
20.4120079
20
52.2292741
11
20.4128079
21
52.2173741
0
LINE
8
DEFAULT_255_2_778
10
20.4128079
20
52.2173741
11
20.4139079
21
52.2062741
0
LINE
8
DEFAULT_255_2_778
10
20.4139079
20
52.2062741
11
20.4150079
21
52.1951741
0
LINE
8
DEFAULT_255_2_778
10
20.4150079
20
52.1951741
11
20.4163079
21
52.1843741
0
LINE
8
DEFAULT_255_2_778
10
20.4163079
20
52.1843741
11
20.4179079
21
52.1742741
0
LINE
8
DEFAULT_255_2_778
10
20.4179079
20
52.1742741
11
20.4197079
21
52.1636741
0
LINE
8
DEFAULT_255_2_778
10
20.4197079
20
52.1636741
11
20.4218079
21
52.1538741
0
LINE
8
DEFAULT_255_2_778
10
20.4218079
20
52.1538741
11
20.4242079
21
52.1440741
0
LINE
8
DEFAULT_255_2_778
10
20.4242079
20
52.1440741
11
20.4269079
21
52.1345741
0
LINE
8
DEFAULT_255_2_778
10
20.4269079
20
52.1345741
11
20.4295079
21
52.1255741
0
LINE
8
DEFAULT_255_2_778
10
20.4295079
20
52.1255741
11
20.4311079
21
52.1202741
0
LINE
8
DEFAULT_255_2_778
10
20.4311079
20
52.1202741
11
20.4340079
21
52.1123741
0
LINE
8
DEFAULT_255_2_778
10
20.4340079
20
52.1123741
11
20.4369079
21
52.1054741
0
LINE
8
DEFAULT_255_2_778
10
20.4369079
20
52.1054741
11
20.4398079
21
52.0985741
0
LINE
8
DEFAULT_255_2_778
10
20.4398079
20
52.0985741
11
20.4427079
21
52.0922741
0
LINE
8
DEFAULT_255_2_778
10
20.4427079
20
52.0922741
11
20.4459079
21
52.0864741
0
LINE
8
DEFAULT_255_2_778
10
20.4459079
20
52.0864741
11
20.4491079
21
52.0808741
0
LINE
8
DEFAULT_255_2_778
10
20.4491079
20
52.0808741
11
20.4515079
21
52.0774741
0
LINE
8
DEFAULT_255_2_778
10
20.4515079
20
52.0774741
11
20.4546079
21
52.0729741
0
LINE
8
DEFAULT_255_2_778
10
20.4546079
20
52.0729741
11
20.4578079
21
52.0686741
0
LINE
8
DEFAULT_255_2_778
10
20.4578079
20
52.0686741
11
20.4607079
21
52.0647741
0
LINE
8
DEFAULT_255_2_778
10
20.4607079
20
52.0647741
11
20.4639079
21
52.0615741
0
LINE
8
DEFAULT_255_2_778
10
20.4639079
20
52.0615741
11
20.4671079
21
52.0583741
0
LINE
8
DEFAULT_255_2_778
10
20.4671079
20
52.0583741
11
20.4703079
21
52.0559741
0
LINE
8
DEFAULT_255_2_778
10
20.4703079
20
52.0559741
11
20.4734079
21
52.0536741
0
LINE
8
DEFAULT_255_2_778
10
20.4729079
20
54.0863741
11
20.4697079
21
54.0840741
0
LINE
8
DEFAULT_255_2_778
10
20.4697079
20
54.0840741
11
20.4665079
21
54.0811741
0
LINE
8
DEFAULT_255_2_778
10
20.4665079
20
54.0811741
11
20.4634079
21
54.0782741
0
LINE
8
DEFAULT_255_2_778
10
20.4634079
20
54.0782741
11
20.4602079
21
54.0747741
0
LINE
8
DEFAULT_255_2_778
10
20.4602079
20
54.0747741
11
20.4573079
21
54.0707741
0
LINE
8
DEFAULT_255_2_778
10
20.4573079
20
54.0707741
11
20.4541079
21
54.0665741
0
LINE
8
DEFAULT_255_2_778
10
20.4541079
20
54.0665741
11
20.4509079
21
54.0620741
0
LINE
8
DEFAULT_255_2_778
10
20.4509079
20
54.0620741
11
20.4488079
21
54.0586741
0
LINE
8
DEFAULT_255_2_778
10
20.4488079
20
54.0586741
11
20.4457079
21
54.0530741
0
LINE
8
DEFAULT_255_2_778
10
20.4457079
20
54.0530741
11
20.4425079
21
54.0472741
0
LINE
8
DEFAULT_255_2_778
10
20.4425079
20
54.0472741
11
20.4393079
21
54.0406741
0
LINE
8
DEFAULT_255_2_778
10
20.4393079
20
54.0406741
11
20.4364079
21
54.0340741
0
LINE
8
DEFAULT_255_2_778
10
20.4364079
20
54.0340741
11
20.4335079
21
54.0266741
0
LINE
8
DEFAULT_255_2_778
10
20.4335079
20
54.0266741
11
20.4308079
21
54.0189741
0
LINE
8
DEFAULT_255_2_778
10
20.4308079
20
54.0189741
11
20.4292079
21
54.0136741
0
LINE
8
DEFAULT_255_2_778
10
20.4292079
20
54.0136741
11
20.4266079
21
54.0046741
0
LINE
8
DEFAULT_255_2_778
10
20.4266079
20
54.0046741
11
20.4239079
21
53.9951741
0
LINE
8
DEFAULT_255_2_778
10
20.4239079
20
53.9951741
11
20.4216079
21
53.9853741
0
LINE
8
DEFAULT_255_2_778
10
20.4216079
20
53.9853741
11
20.4195079
21
53.9755741
0
LINE
8
DEFAULT_255_2_778
10
20.4195079
20
53.9755741
11
20.4176079
21
53.9654741
0
LINE
8
DEFAULT_255_2_778
10
20.4176079
20
53.9654741
11
20.4160079
21
53.9549741
0
LINE
8
DEFAULT_255_2_778
10
20.4160079
20
53.9549741
11
20.4144079
21
53.9440741
0
LINE
8
DEFAULT_255_2_778
10
20.4144079
20
53.9440741
11
20.4134079
21
53.9329741
0
LINE
8
DEFAULT_255_2_778
10
20.4134079
20
53.9329741
11
20.4123079
21
53.9218741
0
LINE
8
DEFAULT_255_2_778
10
20.4123079
20
53.9218741
11
20.4115079
21
53.9099741
0
LINE
8
DEFAULT_255_2_778
10
20.4115079
20
53.9099741
11
20.4110079
21
53.8980741
0
LINE
8
DEFAULT_255_2_778
10
20.4110079
20
53.8980741
11
20.4110079
21
53.8906741
0
LINE
8
DEFAULT_255_2_778
10
20.4110079
20
53.8906741
11
20.5957079
21
53.8898741
0
LINE
8
DEFAULT_255_2_778
10
18.3329079
20
52.2454741
11
18.3329079
21
52.2377741
0
LINE
8
DEFAULT_255_2_778
10
18.3329079
20
52.2377741
11
18.3335079
21
52.2303741
0
LINE
8
DEFAULT_255_2_778
10
18.3335079
20
52.2303741
11
18.3343079
21
52.2226741
0
LINE
8
DEFAULT_255_2_778
10
18.3343079
20
52.2226741
11
18.3353079
21
52.2149741
0
LINE
8
DEFAULT_255_2_778
10
18.3353079
20
52.2149741
11
18.3364079
21
52.2075741
0
LINE
8
DEFAULT_255_2_778
10
18.3364079
20
52.2075741
11
18.3372079
21
52.2041741
0
LINE
8
DEFAULT_255_2_778
10
18.3372079
20
52.2041741
11
18.3388079
21
52.1964741
0
LINE
8
DEFAULT_255_2_778
10
18.3388079
20
52.1964741
11
18.3406079
21
52.1890741
0
LINE
8
DEFAULT_255_2_778
10
18.3406079
20
52.1890741
11
18.3427079
21
52.1816741
0
LINE
8
DEFAULT_255_2_778
10
18.3427079
20
52.1816741
11
18.3451079
21
52.1747741
0
LINE
8
DEFAULT_255_2_778
10
18.3451079
20
52.1747741
11
18.3478079
21
52.1679741
0
LINE
8
DEFAULT_255_2_778
10
18.5287079
20
52.0422741
11
18.5285079
21
52.0430741
0
LINE
8
DEFAULT_255_2_778
10
18.5285079
20
52.0430741
11
18.5285079
21
52.0438741
0
LINE
8
DEFAULT_255_2_778
10
18.5285079
20
52.0438741
11
18.5282079
21
52.0440741
0
LINE
8
DEFAULT_255_2_778
10
18.5282079
20
52.0440741
11
18.5277079
21
52.0475741
0
LINE
8
DEFAULT_255_2_778
10
18.5277079
20
52.0475741
11
18.5272079
21
52.0514741
0
LINE
8
DEFAULT_255_2_778
10
18.5272079
20
52.0514741
11
18.5272079
21
52.0528741
0
LINE
8
DEFAULT_255_2_778
10
18.5272079
20
52.0528741
11
18.5264079
21
52.0596741
0
LINE
8
DEFAULT_255_2_778
10
18.5264079
20
52.0596741
11
18.5256079
21
52.0705741
0
LINE
8
DEFAULT_255_2_778
10
18.5256079
20
52.0705741
11
18.5250079
21
52.0790741
0
LINE
8
DEFAULT_255_2_778
10
18.5250079
20
52.0790741
11
18.5242079
21
52.0988741
0
LINE
8
DEFAULT_255_2_778
10
18.5242079
20
52.0988741
11
18.5242079
21
52.1041741
0
LINE
8
DEFAULT_255_2_778
10
18.5242079
20
52.1041741
11
18.5240079
21
52.1141741
0
LINE
8
DEFAULT_255_2_778
10
18.5240079
20
52.1141741
11
18.5234079
21
52.1345741
0
LINE
8
DEFAULT_255_2_778
10
18.5234079
20
52.1345741
11
18.5232079
21
52.1488741
0
LINE
8
DEFAULT_255_2_778
10
18.5232079
20
52.1488741
11
18.5229079
21
52.1692741
0
LINE
8
DEFAULT_255_2_778
10
18.5229079
20
52.1692741
11
18.5227079
21
52.1843741
0
LINE
8
DEFAULT_255_2_778
10
18.5227079
20
52.1843741
11
18.5224079
21
52.2046741
0
LINE
8
DEFAULT_255_2_778
10
18.5224079
20
52.2046741
11
18.5224079
21
52.2253741
0
LINE
8
DEFAULT_255_2_778
10
18.5224079
20
52.2253741
11
18.5224079
21
53.8953741
0
LINE
8
DEFAULT_255_2_778
10
18.5224079
20
53.8953741
11
18.5224079
21
53.9157741
0
LINE
8
DEFAULT_255_2_778
10
18.5224079
20
53.9157741
11
18.5224079
21
53.9361741
0
LINE
8
DEFAULT_255_2_778
10
18.5224079
20
53.9361741
11
18.5227079
21
53.9567741
0
LINE
8
DEFAULT_255_2_778
10
18.5227079
20
53.9567741
11
18.5229079
21
53.9718741
0
LINE
8
DEFAULT_255_2_778
10
18.5229079
20
53.9718741
11
18.5232079
21
53.9922741
0
LINE
8
DEFAULT_255_2_778
10
18.5232079
20
53.9922741
11
18.5234079
21
54.0062741
0
LINE
8
DEFAULT_255_2_778
10
18.5234079
20
54.0062741
11
18.5240079
21
54.0266741
0
LINE
8
DEFAULT_255_2_778
10
18.5240079
20
54.0266741
11
18.5242079
21
54.0366741
0
LINE
8
DEFAULT_255_2_778
10
18.5242079
20
54.0366741
11
18.5242079
21
54.0422741
0
LINE
8
DEFAULT_255_2_778
10
18.5242079
20
54.0422741
11
18.5250079
21
54.0620741
0
LINE
8
DEFAULT_255_2_778
10
18.5250079
20
54.0620741
11
18.5256079
21
54.0705741
0
LINE
8
DEFAULT_255_2_778
10
18.5256079
20
54.0705741
11
18.5264079
21
54.0813741
0
LINE
8
DEFAULT_255_2_778
10
18.5264079
20
54.0813741
11
18.5272079
21
54.0882741
0
LINE
8
DEFAULT_255_2_778
10
18.5272079
20
54.0882741
11
18.5272079
21
54.0895741
0
LINE
8
DEFAULT_255_2_778
10
18.5272079
20
54.0895741
11
18.5277079
21
54.0935741
0
LINE
8
DEFAULT_255_2_778
10
18.5277079
20
54.0935741
11
18.5282079
21
54.0969741
0
LINE
8
DEFAULT_255_2_778
10
18.5282079
20
54.0969741
11
18.5285079
21
54.0969741
0
LINE
8
DEFAULT_255_2_778
10
18.5285079
20
54.0969741
11
18.5285079
21
54.0980741
0
LINE
8
DEFAULT_255_2_778
10
18.5285079
20
54.0980741
11
18.5287079
21
54.0983741
0
LINE
8
DEFAULT_255_2_778
10
18.5287079
20
54.0983741
11
18.4869079
21
54.0938741
0
LINE
8
DEFAULT_255_2_778
10
18.3478079
20
53.9731741
11
18.3451079
21
53.9662741
0
LINE
8
DEFAULT_255_2_778
10
18.3451079
20
53.9662741
11
18.3427079
21
53.9594741
0
LINE
8
DEFAULT_255_2_778
10
18.3427079
20
53.9594741
11
18.3406079
21
53.9519741
0
LINE
8
DEFAULT_255_2_778
10
18.3406079
20
53.9519741
11
18.3388079
21
53.9445741
0
LINE
8
DEFAULT_255_2_778
10
18.3388079
20
53.9445741
11
18.3372079
21
53.9369741
0
LINE
8
DEFAULT_255_2_778
10
18.3372079
20
53.9369741
11
18.3364079
21
53.9334741
0
LINE
8
DEFAULT_255_2_778
10
18.3364079
20
53.9334741
11
18.3353079
21
53.9257741
0
LINE
8
DEFAULT_255_2_778
10
18.3353079
20
53.9257741
11
18.3343079
21
53.9183741
0
LINE
8
DEFAULT_255_2_778
10
18.3343079
20
53.9183741
11
18.3335079
21
53.9107741
0
LINE
8
DEFAULT_255_2_778
10
18.3335079
20
53.9107741
11
18.3329079
21
53.9030741
0
LINE
8
DEFAULT_255_2_778
10
18.3329079
20
53.9030741
11
18.3329079
21
53.8956741
0
LINE
8
DEFAULT_255_2_778
10
18.3329079
20
53.8956741
11
19.8564079
21
53.8956741
0
LINE
8
DEFAULT_255_2_778
10
19.8564079
20
53.8956741
11
19.8564079
21
52.2459741
0
LINE
8
DEFAULT_255_2_778
10
19.8564079
20
52.2459741
11
18.3329079
21
52.2454741
0
LINE
8
DEFAULT_255_2_778
10
18.5105079
20
54.1409741
11
18.3885079
21
54.0824741
0
LINE
8
DEFAULT_255_2_778
10
18.3885079
20
54.0824741
11
18.3451079
21
54.0139741
0
LINE
8
DEFAULT_255_2_778
10
18.3451079
20
54.0139741
11
18.3427079
21
54.0070741
0
LINE
8
DEFAULT_255_2_778
10
20.5957079
20
52.2509741
11
20.4486079
21
52.2501741
0
LINE
8
DEFAULT_255_2_778
10
20.4486079
20
52.2501741
11
20.4110079
21
52.2501741
0
LINE
8
DEFAULT_255_2_778
10
20.4110079
20
52.2501741
11
20.4110079
21
53.8908741
0
LINE
8
DEFAULT_255_2_778
10
20.4110079
20
53.8908741
11
19.8564079
21
53.8953741
0
LINE
8
DEFAULT_255_2_778
10
19.8564079
20
53.8953741
11
19.8564079
21
53.9157741
0
LINE
8
DEFAULT_255_2_778
10
19.8564079
20
53.9157741
11
19.8564079
21
53.9361741
0
LINE
8
DEFAULT_255_2_778
10
19.8564079
20
53.9361741
11
19.8567079
21
53.9567741
0
LINE
8
DEFAULT_255_2_778
10
19.8567079
20
53.9567741
11
19.8567079
21
53.9718741
0
LINE
8
DEFAULT_255_2_778
10
19.8567079
20
53.9718741
11
19.8570079
21
53.9922741
0
LINE
8
DEFAULT_255_2_778
10
19.8570079
20
53.9922741
11
19.8572079
21
54.0062741
0
LINE
8
DEFAULT_255_2_778
10
19.8572079
20
54.0062741
11
19.8577079
21
54.0266741
0
LINE
8
DEFAULT_255_2_778
10
19.8577079
20
54.0266741
11
19.8580079
21
54.0366741
0
LINE
8
DEFAULT_255_2_778
10
19.8580079
20
54.0366741
11
19.8583079
21
54.0422741
0
LINE
8
DEFAULT_255_2_778
10
19.8583079
20
54.0422741
11
19.8591079
21
54.0620741
0
LINE
8
DEFAULT_255_2_778
10
19.8591079
20
54.0620741
11
19.8593079
21
54.0705741
0
LINE
8
DEFAULT_255_2_778
10
19.8593079
20
54.0705741
11
19.8601079
21
54.0813741
0
LINE
8
DEFAULT_255_2_778
10
19.8601079
20
54.0813741
11
19.8607079
21
54.0882741
0
LINE
8
DEFAULT_255_2_778
10
19.8607079
20
54.0882741
11
19.8609079
21
54.0895741
0
LINE
8
DEFAULT_255_2_778
10
19.8609079
20
54.0895741
11
19.8614079
21
54.0935741
0
LINE
8
DEFAULT_255_2_778
10
19.8614079
20
54.0935741
11
19.8622079
21
54.0969741
0
LINE
8
DEFAULT_255_2_778
10
19.8622079
20
54.0969741
11
19.8622079
21
54.0969741
0
LINE
8
DEFAULT_255_2_778
10
19.8622079
20
54.0969741
11
19.8625079
21
54.0980741
0
LINE
8
DEFAULT_255_2_778
10
19.8625079
20
54.0980741
11
19.8628079
21
54.0983741
0
LINE
8
DEFAULT_255_2_778
10
19.8562079
20
54.1501741
11
20.0781079
21
54.1493741
0
LINE
8
DEFAULT_255_2_778
10
20.0781079
20
54.1493741
11
20.3350079
21
54.1279741
0
LINE
8
DEFAULT_255_2_778
10
20.3350079
20
54.1279741
11
20.4906079
21
54.0760741
0
LINE
8
DEFAULT_255_2_778
10
20.4906079
20
54.0760741
11
20.5634079
21
54.0178741
0
LINE
8
DEFAULT_255_2_778
10
20.5634079
20
54.0178741
11
20.5909079
21
53.9736741
0
LINE
8
DEFAULT_255_2_778
10
20.5909079
20
53.9736741
11
20.6015079
21
53.9432741
0
LINE
8
DEFAULT_255_2_778
10
20.6015079
20
53.9432741
11
20.6015079
21
52.1967741
0
LINE
8
DEFAULT_255_2_778
10
20.6015079
20
52.1967741
11
20.5861079
21
52.1565741
0
LINE
8
DEFAULT_255_2_778
10
20.5861079
20
52.1565741
11
20.5562079
21
52.1141741
0
LINE
8
DEFAULT_255_2_778
10
20.5562079
20
52.1141741
11
20.4779079
21
52.0575741
0
LINE
8
DEFAULT_255_2_778
10
20.4779079
20
52.0575741
11
20.3126079
21
52.0088741
0
LINE
8
DEFAULT_255_2_778
10
20.3126079
20
52.0088741
11
19.8567079
21
51.9903741
0
LINE
8
DEFAULT_255_2_778
10
19.8567079
20
51.9903741
11
18.6052079
21
52.0009741
0
LINE
8
DEFAULT_255_2_778
10
21.2775079
20
42.6728741
11
21.2794079
21
42.7169741
0
LINE
8
DEFAULT_255_2_778
10
21.2794079
20
42.7169741
11
21.2836079
21
42.7529741
0
LINE
8
DEFAULT_255_2_778
10
21.2836079
20
42.7529741
11
21.2966079
21
42.8132741
0
LINE
8
DEFAULT_255_2_778
10
21.2966079
20
42.8132741
11
21.3257079
21
42.8947741
0
LINE
8
DEFAULT_255_2_778
10
21.3257079
20
42.8947741
11
21.3563079
21
42.9545741
0
LINE
8
DEFAULT_255_2_778
10
21.3563079
20
42.9545741
11
21.4101079
21
43.0329741
0
LINE
8
DEFAULT_255_2_778
10
21.4101079
20
43.0329741
11
21.4833079
21
43.1130741
0
LINE
8
DEFAULT_255_2_778
10
21.4833079
20
43.1130741
11
21.5879079
21
43.1969741
0
LINE
8
DEFAULT_255_2_778
10
21.5879079
20
43.1969741
11
21.7363079
21
43.2805741
0
LINE
8
DEFAULT_255_2_778
10
21.7363079
20
43.2805741
11
21.9556079
21
43.3556741
0
LINE
8
DEFAULT_255_2_778
10
21.9556079
20
43.3556741
11
22.1538079
21
43.3869741
0
LINE
8
DEFAULT_255_2_778
10
22.1538079
20
43.3869741
11
22.2588079
21
43.3908741
0
LINE
8
DEFAULT_255_2_778
10
21.7683079
20
47.6972741
11
21.5643079
21
47.6818741
0
LINE
8
DEFAULT_255_2_778
10
21.5643079
20
47.6818741
11
21.3571079
21
47.6316741
0
LINE
8
DEFAULT_255_2_778
10
21.3571079
20
47.6316741
11
21.2058079
21
47.5678741
0
LINE
8
DEFAULT_255_2_778
10
21.2058079
20
47.5678741
11
21.0526079
21
47.4704741
0
LINE
8
DEFAULT_255_2_778
10
21.0526079
20
47.4704741
11
20.9502079
21
47.3760741
0
LINE
8
DEFAULT_255_2_778
10
20.9502079
20
47.3760741
11
20.8872079
21
47.2956741
0
LINE
8
DEFAULT_255_2_778
10
20.8872079
20
47.2956741
11
20.8462079
21
47.2241741
0
LINE
8
DEFAULT_255_2_778
10
20.8462079
20
47.2241741
11
20.8267079
21
47.1799741
0
LINE
8
DEFAULT_255_2_778
10
20.8267079
20
47.1799741
11
20.8110079
21
47.1347741
0
LINE
8
DEFAULT_255_2_778
10
20.8110079
20
47.1347741
11
20.7994079
21
47.0892741
0
LINE
8
DEFAULT_255_2_778
10
20.7994079
20
47.0892741
11
20.7949079
21
47.0667741
0
LINE
8
DEFAULT_255_2_778
10
20.7949079
20
47.0667741
11
20.7915079
21
47.0442741
0
LINE
8
DEFAULT_255_2_778
10
20.7915079
20
47.0442741
11
20.7888079
21
47.0222741
0
LINE
8
DEFAULT_255_2_778
10
20.7888079
20
47.0222741
11
20.7870079
21
46.9789741
0
LINE
8
DEFAULT_255_2_778
10
20.7870079
20
46.9789741
11
20.7904079
21
46.7902741
0
LINE
8
DEFAULT_255_2_778
10
20.7904079
20
46.7902741
11
20.8087079
21
46.5018741
0
LINE
8
DEFAULT_255_2_778
10
20.8087079
20
46.5018741
11
20.8356079
21
46.2639741
0
LINE
8
DEFAULT_255_2_778
10
20.8356079
20
46.2639741
11
20.8356079
21
46.2761741
0
LINE
8
DEFAULT_255_2_778
10
20.8356079
20
46.2761741
11
20.8378079
21
46.3121741
0
LINE
8
DEFAULT_255_2_778
10
20.8378079
20
46.3121741
11
20.8439079
21
46.3568741
0
LINE
8
DEFAULT_255_2_778
10
20.8439079
20
46.3568741
11
20.8581079
21
46.4187741
0
LINE
8
DEFAULT_255_2_778
10
20.8581079
20
46.4187741
11
20.8835079
21
46.4894741
0
LINE
8
DEFAULT_255_2_778
10
20.8835079
20
46.4894741
11
20.9150079
21
46.5534741
0
LINE
8
DEFAULT_255_2_778
10
20.9150079
20
46.5534741
11
20.9701079
21
46.6373741
0
LINE
8
DEFAULT_255_2_778
10
20.9701079
20
46.6373741
11
21.0605079
21
46.7383741
0
LINE
8
DEFAULT_255_2_778
10
21.0605079
20
46.7383741
11
21.1746079
21
46.8325741
0
LINE
8
DEFAULT_255_2_778
10
21.1746079
20
46.8325741
11
21.3206079
21
46.9204741
0
LINE
8
DEFAULT_255_2_778
10
21.3206079
20
46.9204741
11
21.5101079
21
46.9963741
0
LINE
8
DEFAULT_255_2_778
10
21.5101079
20
46.9963741
11
21.7434079
21
47.0466741
0
LINE
8
DEFAULT_255_2_778
10
21.7434079
20
47.0466741
11
21.8120079
21
47.0532741
0
LINE
8
DEFAULT_255_2_778
10
21.2738079
20
42.6704741
11
21.2717079
21
42.7191741
0
LINE
8
DEFAULT_255_2_778
10
21.2717079
20
42.7191741
11
21.2558079
21
42.9503741
0
LINE
8
DEFAULT_255_2_778
10
21.2558079
20
42.9503741
11
21.2285079
21
43.1919741
0
LINE
8
DEFAULT_255_2_778
10
21.2285079
20
43.1919741
11
20.8351079
21
46.0745741
0
LINE
8
DEFAULT_255_2_778
10
20.8351079
20
46.0745741
11
20.8351079
21
46.2634741
0
LINE
8
DEFAULT_255_2_778
10
20.8351079
20
46.2634741
11
21.2285079
21
43.3850741
0
LINE
8
DEFAULT_255_2_778
10
21.2285079
20
43.3850741
11
21.2285079
21
43.1919741
0
LINE
8
DEFAULT_255_2_778
10
55.1338079
20
25.1507741
11
55.1317079
21
25.1251741
0
LINE
8
DEFAULT_255_2_778
10
55.1317079
20
25.1251741
11
55.1174079
21
25.0806741
0
LINE
8
DEFAULT_255_2_778
10
55.1174079
20
25.0806741
11
55.0582079
21
25.0121741
0
LINE
8
DEFAULT_255_2_778
10
55.0582079
20
25.0121741
11
54.9375079
21
24.9750741
0
LINE
8
DEFAULT_255_2_778
10
54.9375079
20
24.9750741
11
54.9402079
21
24.8869741
0
LINE
8
DEFAULT_255_2_778
10
54.9402079
20
24.8869741
11
54.9426079
21
24.8475741
0
LINE
8
DEFAULT_255_2_778
10
54.9426079
20
24.8475741
11
54.9441079
21
24.8388741
0
LINE
8
DEFAULT_255_2_778
10
54.9373079
20
22.7173741
11
54.9357079
21
22.6914741
0
LINE
8
DEFAULT_255_2_778
10
54.9357079
20
22.6914741
11
54.9317079
21
22.6647741
0
LINE
8
DEFAULT_255_2_778
10
54.9317079
20
22.6647741
11
54.9185079
21
22.6216741
0
LINE
8
DEFAULT_255_2_778
10
54.9185079
20
22.6216741
11
54.8915079
21
22.5694741
0
LINE
8
DEFAULT_255_2_778
10
54.8915079
20
22.5694741
11
54.8375079
21
22.5033741
0
LINE
8
DEFAULT_255_2_778
10
54.8375079
20
22.5033741
11
54.7317079
21
22.4213741
0
LINE
8
DEFAULT_255_2_778
10
54.7317079
20
22.4213741
11
54.5743079
21
22.3475741
0
LINE
8
DEFAULT_255_2_778
10
54.5743079
20
22.3475741
11
54.3493079
21
22.2924741
0
LINE
8
DEFAULT_255_2_778
10
54.3493079
20
22.2924741
11
54.1522079
21
22.2787741
0
LINE
8
DEFAULT_255_2_778
10
52.9746079
20
23.9543741
11
54.9444079
21
23.8831741
0
LINE
8
DEFAULT_255_2_778
10
55.1338079
20
23.6802741
11
55.1338079
21
19.8808741
0
LINE
8
DEFAULT_255_2_778
10
54.9444079
20
19.6778741
11
52.9746079
21
19.6066741
0
LINE
8
DEFAULT_255_2_778
10
55.1286079
20
25.0208741
11
55.1286079
21
24.6652741
0
LINE
8
DEFAULT_255_2_778
10
55.1286079
20
24.6652741
11
52.9746079
21
24.6652741
0
LINE
8
DEFAULT_255_2_778
10
52.9746079
20
23.8175741
11
54.9375079
21
23.7463741
0
LINE
8
DEFAULT_255_2_778
10
54.9375079
20
23.7463741
11
54.9375079
21
22.7163741
0
LINE
8
DEFAULT_255_2_778
10
54.9375079
20
22.7163741
11
55.0778079
21
22.6634741
0
LINE
8
DEFAULT_255_2_778
10
55.0778079
20
22.6634741
11
55.1225079
21
22.5991741
0
LINE
8
DEFAULT_255_2_778
10
55.1225079
20
22.5991741
11
55.1317079
21
22.5665741
0
LINE
8
DEFAULT_255_2_778
10
55.1317079
20
22.5665741
11
55.1301079
21
22.4993741
0
LINE
8
DEFAULT_255_2_778
10
55.1301079
20
22.4993741
11
55.1230079
21
22.4713741
0
LINE
8
DEFAULT_255_2_778
10
55.1230079
20
22.4713741
11
55.1031079
21
22.4239741
0
LINE
8
DEFAULT_255_2_778
10
55.1031079
20
22.4239741
11
55.0621079
21
22.3655741
0
LINE
8
DEFAULT_255_2_778
10
55.0621079
20
22.3655741
11
54.9746079
21
22.2853741
0
LINE
8
DEFAULT_255_2_778
10
54.9746079
20
22.2853741
11
54.8550079
21
22.2141741
0
LINE
8
DEFAULT_255_2_778
10
54.8550079
20
22.2141741
11
54.6430079
21
22.1358741
0
LINE
8
DEFAULT_255_2_778
10
54.6430079
20
22.1358741
11
54.3755079
21
22.0858741
0
LINE
8
DEFAULT_255_2_778
10
54.3755079
20
22.0858741
11
54.1525079
21
22.0739741
0
LINE
8
DEFAULT_255_2_778
10
54.1525079
20
22.0739741
11
52.9748079
21
22.0739741
0
LINE
8
DEFAULT_255_2_778
10
52.9748079
20
22.0739741
11
52.9748079
21
26.9883741
0
LINE
8
DEFAULT_255_2_778
10
52.9748079
20
26.9883741
11
54.2782079
21
26.9843741
0
LINE
8
DEFAULT_255_2_778
10
54.2782079
20
26.9843741
11
54.5682079
21
26.9422741
0
LINE
8
DEFAULT_255_2_778
10
54.5682079
20
26.9422741
11
54.7936079
21
26.8697741
0
LINE
8
DEFAULT_255_2_778
10
54.7936079
20
26.8697741
11
54.9494079
21
26.7851741
0
LINE
8
DEFAULT_255_2_778
10
54.9494079
20
26.7851741
11
55.0442079
21
26.7041741
0
LINE
8
DEFAULT_255_2_778
10
55.0442079
20
26.7041741
11
55.0976079
21
26.6321741
0
LINE
8
DEFAULT_255_2_778
10
55.0976079
20
26.6321741
11
55.1180079
21
26.5877741
0
LINE
8
DEFAULT_255_2_778
10
55.1180079
20
26.5877741
11
55.1301079
21
26.5440741
0
LINE
8
DEFAULT_255_2_778
10
55.1301079
20
26.5440741
11
55.1288079
21
26.4617741
0
LINE
8
DEFAULT_255_2_778
10
55.1288079
20
26.4617741
11
55.1129079
21
26.4213741
0
LINE
8
DEFAULT_255_2_778
10
55.1129079
20
26.4213741
11
55.0471079
21
26.3548741
0
LINE
8
DEFAULT_255_2_778
10
55.0471079
20
26.3548741
11
54.9378079
21
26.3252741
0
LINE
8
DEFAULT_255_2_778
10
52.9748079
20
21.2246741
11
54.1525079
21
21.2246741
0
LINE
8
DEFAULT_255_2_778
10
54.1525079
20
21.2246741
11
54.1525079
21
22.2779741
0
LINE
8
DEFAULT_255_2_778
10
54.1525079
20
22.2779741
11
52.9748079
21
22.2779741
0
LINE
8
DEFAULT_255_2_778
10
54.1525079
20
26.8406741
11
54.3753079
21
26.8197741
0
LINE
8
DEFAULT_255_2_778
10
54.3753079
20
26.8197741
11
54.5690079
21
26.7623741
0
LINE
8
DEFAULT_255_2_778
10
54.5690079
20
26.7623741
11
54.7203079
21
26.6811741
0
LINE
8
DEFAULT_255_2_778
10
54.7203079
20
26.6811741
11
54.8100079
21
26.6073741
0
LINE
8
DEFAULT_255_2_778
10
54.8100079
20
26.6073741
11
54.8701079
21
26.5345741
0
LINE
8
DEFAULT_255_2_778
10
54.8701079
20
26.5345741
11
54.9068079
21
26.4673741
0
LINE
8
DEFAULT_255_2_778
10
54.9068079
20
26.4673741
11
54.9238079
21
26.4189741
0
LINE
8
DEFAULT_255_2_778
10
54.9238079
20
26.4189741
11
54.9314079
21
26.3871741
0
LINE
8
DEFAULT_255_2_778
10
54.9314079
20
26.3871741
11
54.9341079
21
26.3712741
0
LINE
8
DEFAULT_255_2_778
10
54.9341079
20
26.3712741
11
54.9373079
21
26.3400741
0
LINE
8
DEFAULT_255_2_778
10
54.9373079
20
26.3400741
11
54.9375079
21
24.9737741
0
LINE
8
DEFAULT_255_2_778
10
54.9375079
20
24.9737741
11
52.9746079
21
24.9025741
0
LINE
8
DEFAULT_255_2_778
10
52.9746079
20
18.6560741
11
54.9375079
21
18.5848741
0
LINE
8
DEFAULT_255_2_778
10
54.9375079
20
18.5848741
11
54.9359079
21
17.9165741
0
LINE
8
DEFAULT_255_2_778
10
54.9359079
20
17.9165741
11
54.9320079
21
17.8898741
0
LINE
8
DEFAULT_255_2_778
10
54.9320079
20
17.8898741
11
54.9187079
21
17.8466741
0
LINE
8
DEFAULT_255_2_778
10
54.9187079
20
17.8466741
11
54.8918079
21
17.7945741
0
LINE
8
DEFAULT_255_2_778
10
54.8918079
20
17.7945741
11
54.8378079
21
17.7284741
0
LINE
8
DEFAULT_255_2_778
10
54.8378079
20
17.7284741
11
54.7319079
21
17.6463741
0
LINE
8
DEFAULT_255_2_778
10
54.7319079
20
17.6463741
11
54.5745079
21
17.5725741
0
LINE
8
DEFAULT_255_2_778
10
54.5745079
20
17.5725741
11
54.3496079
21
17.5175741
0
LINE
8
DEFAULT_255_2_778
10
54.3496079
20
17.5175741
11
54.1525079
21
17.5037741
0
LINE
8
DEFAULT_255_2_778
10
54.9378079
20
17.9419741
11
55.0780079
21
17.8890741
0
LINE
8
DEFAULT_255_2_778
10
55.0780079
20
17.8890741
11
55.1227079
21
17.8247741
0
LINE
8
DEFAULT_255_2_778
10
55.1227079
20
17.8247741
11
55.1320079
21
17.7921741
0
LINE
8
DEFAULT_255_2_778
10
55.1320079
20
17.7921741
11
55.1304079
21
17.7249741
0
LINE
8
DEFAULT_255_2_778
10
55.1304079
20
17.7249741
11
55.1233079
21
17.6969741
0
LINE
8
DEFAULT_255_2_778
10
55.1233079
20
17.6969741
11
55.1034079
21
17.6495741
0
LINE
8
DEFAULT_255_2_778
10
55.1034079
20
17.6495741
11
55.0624079
21
17.5910741
0
LINE
8
DEFAULT_255_2_778
10
55.0624079
20
17.5910741
11
54.9748079
21
17.5109741
0
LINE
8
DEFAULT_255_2_778
10
54.9748079
20
17.5109741
11
54.8277079
21
17.4273741
0
LINE
8
DEFAULT_255_2_778
10
54.8277079
20
17.4273741
11
54.6430079
21
17.3614741
0
LINE
8
DEFAULT_255_2_778
10
54.6430079
20
17.3614741
11
54.3755079
21
17.3114741
0
LINE
8
DEFAULT_255_2_778
10
54.3755079
20
17.3114741
11
54.1525079
21
17.2995741
0
LINE
8
DEFAULT_255_2_778
10
54.1525079
20
17.2995741
11
52.9748079
21
17.2995741
0
LINE
8
DEFAULT_255_2_778
10
52.9748079
20
17.2995741
11
52.9748079
21
21.3709741
0
LINE
8
DEFAULT_255_2_778
10
52.9748079
20
21.3709741
11
54.2782079
21
21.3669741
0
LINE
8
DEFAULT_255_2_778
10
54.2782079
20
21.3669741
11
54.5682079
21
21.3248741
0
LINE
8
DEFAULT_255_2_778
10
54.5682079
20
21.3248741
11
54.7936079
21
21.2524741
0
LINE
8
DEFAULT_255_2_778
10
54.7936079
20
21.2524741
11
54.9494079
21
21.1677741
0
LINE
8
DEFAULT_255_2_778
10
54.9494079
20
21.1677741
11
55.0442079
21
21.0867741
0
LINE
8
DEFAULT_255_2_778
10
55.0442079
20
21.0867741
11
55.0976079
21
21.0148741
0
LINE
8
DEFAULT_255_2_778
10
55.0976079
20
21.0148741
11
55.1230079
21
20.9560741
0
LINE
8
DEFAULT_255_2_778
10
55.1230079
20
20.9560741
11
55.1301079
21
20.9266741
0
LINE
8
DEFAULT_255_2_778
10
55.1301079
20
20.9266741
11
55.1288079
21
20.8444741
0
LINE
8
DEFAULT_255_2_778
10
55.1288079
20
20.8444741
11
55.1129079
21
20.8041741
0
LINE
8
DEFAULT_255_2_778
10
55.1129079
20
20.8041741
11
55.0407079
21
20.7338741
0
LINE
8
DEFAULT_255_2_778
10
55.0407079
20
20.7338741
11
54.9381079
21
20.7076741
0
LINE
8
DEFAULT_255_2_778
10
54.1528079
20
21.2230741
11
54.3755079
21
21.2021741
0
LINE
8
DEFAULT_255_2_778
10
54.3755079
20
21.2021741
11
54.5692079
21
21.1447741
0
LINE
8
DEFAULT_255_2_778
10
54.5692079
20
21.1447741
11
54.7206079
21
21.0637741
0
LINE
8
DEFAULT_255_2_778
10
54.7206079
20
21.0637741
11
54.8238079
21
20.9756741
0
LINE
8
DEFAULT_255_2_778
10
54.8238079
20
20.9756741
11
54.8801079
21
20.9018741
0
LINE
8
DEFAULT_255_2_778
10
54.8801079
20
20.9018741
11
54.9071079
21
20.8497741
0
LINE
8
DEFAULT_255_2_778
10
54.9071079
20
20.8497741
11
54.9240079
21
20.8018741
0
LINE
8
DEFAULT_255_2_778
10
54.9240079
20
20.8018741
11
54.9317079
21
20.7695741
0
LINE
8
DEFAULT_255_2_778
10
54.9317079
20
20.7695741
11
54.9344079
21
20.7536741
0
LINE
8
DEFAULT_255_2_778
10
54.9344079
20
20.7536741
11
54.9375079
21
20.7224741
0
LINE
8
DEFAULT_255_2_778
10
54.9375079
20
20.7224741
11
54.9378079
21
19.8117741
0
LINE
8
DEFAULT_255_2_778
10
54.9378079
20
19.8117741
11
52.9748079
21
19.7405741
0
LINE
8
DEFAULT_255_2_778
10
56.0937079
20
31.1435741
11
56.1779079
21
31.1851741
0
LINE
8
DEFAULT_255_2_778
10
56.1779079
20
31.1851741
11
56.1755079
21
32.2447741
0
LINE
8
DEFAULT_255_2_778
10
56.1755079
20
32.2447741
11
56.0937079
21
32.2812741
0
LINE
8
DEFAULT_255_2_778
10
55.1338079
20
32.2812741
11
56.0937079
21
32.2812741
0
LINE
8
DEFAULT_255_2_778
10
56.0937079
20
32.2812741
11
56.0937079
21
31.1435741
0
LINE
8
DEFAULT_255_2_778
10
56.0937079
20
31.1435741
11
55.1338079
21
31.1435741
0
LINE
8
DEFAULT_255_2_778
10
56.0937079
20
33.1753741
11
56.1779079
21
33.2168741
0
LINE
8
DEFAULT_255_2_778
10
56.1779079
20
33.2168741
11
56.1755079
21
34.2762741
0
LINE
8
DEFAULT_255_2_778
10
56.1755079
20
34.2762741
11
56.0937079
21
34.3127741
0
LINE
8
DEFAULT_255_2_778
10
55.1338079
20
34.3127741
11
56.0937079
21
34.3127741
0
LINE
8
DEFAULT_255_2_778
10
56.0937079
20
34.3127741
11
56.0937079
21
33.1753741
0
LINE
8
DEFAULT_255_2_778
10
56.0937079
20
33.1753741
11
55.1338079
21
33.1753741
0
LINE
8
DEFAULT_255_2_778
10
56.0937079
20
35.2067741
11
56.1779079
21
35.2483741
0
LINE
8
DEFAULT_255_2_778
10
56.1779079
20
35.2483741
11
56.1755079
21
36.3079741
0
LINE
8
DEFAULT_255_2_778
10
56.1755079
20
36.3079741
11
56.0937079
21
36.3444741
0
LINE
8
DEFAULT_255_2_778
10
55.1338079
20
36.3444741
11
56.0937079
21
36.3444741
0
LINE
8
DEFAULT_255_2_778
10
56.0937079
20
36.3444741
11
56.0937079
21
35.2067741
0
LINE
8
DEFAULT_255_2_778
10
56.0937079
20
35.2067741
11
55.1338079
21
35.2067741
0
LINE
8
DEFAULT_255_2_778
10
56.0937079
20
37.2382741
11
56.1779079
21
37.2803741
0
LINE
8
DEFAULT_255_2_778
10
56.1779079
20
37.2803741
11
56.1755079
21
38.3397741
0
LINE
8
DEFAULT_255_2_778
10
56.1755079
20
38.3397741
11
56.0937079
21
38.3762741
0
LINE
8
DEFAULT_255_2_778
10
55.1338079
20
38.3762741
11
56.0937079
21
38.3762741
0
LINE
8
DEFAULT_255_2_778
10
56.0937079
20
38.3762741
11
56.0937079
21
37.2385741
0
LINE
8
DEFAULT_255_2_778
10
56.0937079
20
37.2385741
11
55.1338079
21
37.2385741
0
LINE
8
DEFAULT_255_2_778
10
56.0937079
20
39.2702741
11
56.1779079
21
39.3117741
0
LINE
8
DEFAULT_255_2_778
10
56.1779079
20
39.3117741
11
56.1755079
21
40.3711741
0
LINE
8
DEFAULT_255_2_778
10
56.1755079
20
40.3711741
11
56.0937079
21
40.4079741
0
LINE
8
DEFAULT_255_2_778
10
55.1338079
20
40.4079741
11
56.0937079
21
40.4079741
0
LINE
8
DEFAULT_255_2_778
10
56.0937079
20
40.4079741
11
56.0937079
21
39.2702741
0
LINE
8
DEFAULT_255_2_778
10
56.0937079
20
39.2702741
11
55.1338079
21
39.2702741
0
LINE
8
DEFAULT_255_2_778
10
56.0937079
20
41.3017741
11
56.1779079
21
41.3432741
0
LINE
8
DEFAULT_255_2_778
10
56.1779079
20
41.3432741
11
56.1755079
21
42.4029741
0
LINE
8
DEFAULT_255_2_778
10
56.1755079
20
42.4029741
11
56.0937079
21
42.4394741
0
LINE
8
DEFAULT_255_2_778
10
55.1338079
20
42.4394741
11
56.0937079
21
42.4394741
0
LINE
8
DEFAULT_255_2_778
10
56.0937079
20
42.4394741
11
56.0937079
21
41.3017741
0
LINE
8
DEFAULT_255_2_778
10
56.0937079
20
41.3017741
11
55.1338079
21
41.3017741
0
LINE
8
DEFAULT_255_2_778
10
56.0937079
20
43.3332741
11
56.1779079
21
43.3752741
0
LINE
8
DEFAULT_255_2_778
10
56.1779079
20
43.3752741
11
56.1755079
21
44.4346741
0
LINE
8
DEFAULT_255_2_778
10
56.1755079
20
44.4346741
11
56.0937079
21
44.4711741
0
LINE
8
DEFAULT_255_2_778
10
55.1338079
20
44.4711741
11
56.0937079
21
44.4711741
0
LINE
8
DEFAULT_255_2_778
10
56.0937079
20
44.4711741
11
56.0937079
21
43.3334741
0
LINE
8
DEFAULT_255_2_778
10
56.0937079
20
43.3334741
11
55.1338079
21
43.3334741
0
LINE
8
DEFAULT_255_2_778
10
56.0937079
20
45.3652741
11
56.1779079
21
45.4067741
0
LINE
8
DEFAULT_255_2_778
10
56.1779079
20
45.4067741
11
56.1755079
21
46.4661741
0
LINE
8
DEFAULT_255_2_778
10
56.1755079
20
46.4661741
11
56.0937079
21
46.5029741
0
LINE
8
DEFAULT_255_2_778
10
55.1338079
20
46.5029741
11
56.0937079
21
46.5029741
0
LINE
8
DEFAULT_255_2_778
10
56.0937079
20
46.5029741
11
56.0937079
21
45.3652741
0
LINE
8
DEFAULT_255_2_778
10
56.0937079
20
45.3652741
11
55.1338079
21
45.3652741
0
LINE
8
DEFAULT_255_2_778
10
56.0937079
20
47.3966741
11
56.1779079
21
47.4382741
0
LINE
8
DEFAULT_255_2_778
10
56.1779079
20
47.4382741
11
56.1755079
21
48.4978741
0
LINE
8
DEFAULT_255_2_778
10
56.1755079
20
48.4978741
11
56.0937079
21
48.5343741
0
LINE
8
DEFAULT_255_2_778
10
55.1338079
20
48.5343741
11
56.0937079
21
48.5343741
0
LINE
8
DEFAULT_255_2_778
10
56.0937079
20
48.5343741
11
56.0937079
21
47.3966741
0
LINE
8
DEFAULT_255_2_778
10
56.0937079
20
47.3966741
11
55.1338079
21
47.3966741
0
LINE
8
DEFAULT_255_2_778
10
21.2775079
20
69.9680741
11
21.2794079
21
69.9235741
0
LINE
8
DEFAULT_255_2_778
10
21.2794079
20
69.9235741
11
21.2836079
21
69.8878741
0
LINE
8
DEFAULT_255_2_778
10
21.2836079
20
69.8878741
11
21.2966079
21
69.8275741
0
LINE
8
DEFAULT_255_2_778
10
21.2966079
20
69.8275741
11
21.3257079
21
69.7454741
0
LINE
8
DEFAULT_255_2_778
10
21.3257079
20
69.7454741
11
21.3563079
21
69.6857741
0
LINE
8
DEFAULT_255_2_778
10
21.3563079
20
69.6857741
11
21.4257079
21
69.5883741
0
LINE
8
DEFAULT_255_2_778
10
21.4257079
20
69.5883741
11
21.5027079
21
69.5094741
0
LINE
8
DEFAULT_255_2_778
10
21.5027079
20
69.5094741
11
21.6355079
21
69.4126741
0
LINE
8
DEFAULT_255_2_778
10
21.6355079
20
69.4126741
11
21.7929079
21
69.3353741
0
LINE
8
DEFAULT_255_2_778
10
21.7929079
20
69.3353741
11
21.9879079
21
69.2771741
0
LINE
8
DEFAULT_255_2_778
10
21.9879079
20
69.2771741
11
22.2218079
21
69.2499741
0
LINE
8
DEFAULT_255_2_778
10
22.2218079
20
69.2499741
11
22.2591079
21
69.2491741
0
LINE
8
DEFAULT_255_2_778
10
21.2291079
20
69.4457741
11
21.2563079
21
69.6875741
0
LINE
8
DEFAULT_255_2_778
10
21.2563079
20
69.6875741
11
21.2722079
21
69.9188741
0
LINE
8
DEFAULT_255_2_778
10
21.7683079
20
64.9409741
11
21.5643079
21
64.9568741
0
LINE
8
DEFAULT_255_2_778
10
21.5643079
20
64.9568741
11
21.3571079
21
65.0070741
0
LINE
8
DEFAULT_255_2_778
10
21.3571079
20
65.0070741
11
21.1777079
21
65.0853741
0
LINE
8
DEFAULT_255_2_778
10
21.1777079
20
65.0853741
11
21.0523079
21
65.1679741
0
LINE
8
DEFAULT_255_2_778
10
21.0523079
20
65.1679741
11
20.9499079
21
65.2621741
0
LINE
8
DEFAULT_255_2_778
10
20.9499079
20
65.2621741
11
20.8870079
21
65.3425741
0
LINE
8
DEFAULT_255_2_778
10
20.8870079
20
65.3425741
11
20.8460079
21
65.4140741
0
LINE
8
DEFAULT_255_2_778
10
20.8460079
20
65.4140741
11
20.8182079
21
65.4809741
0
LINE
8
DEFAULT_255_2_778
10
20.8182079
20
65.4809741
11
20.8044079
21
65.5264741
0
LINE
8
DEFAULT_255_2_778
10
20.8044079
20
65.5264741
11
20.7946079
21
65.5716741
0
LINE
8
DEFAULT_255_2_778
10
20.7946079
20
65.5716741
11
20.7912079
21
65.5936741
0
LINE
8
DEFAULT_255_2_778
10
20.7912079
20
65.5936741
11
20.7885079
21
65.6161741
0
LINE
8
DEFAULT_255_2_778
10
20.7885079
20
65.6161741
11
20.7867079
21
65.6595741
0
LINE
8
DEFAULT_255_2_778
10
20.7867079
20
65.6595741
11
20.8084079
21
66.1365741
0
LINE
8
DEFAULT_255_2_778
10
20.8084079
20
66.1365741
11
20.8354079
21
66.3741741
0
LINE
8
DEFAULT_255_2_778
10
20.8354079
20
66.3741741
11
21.2288079
21
69.2525741
0
LINE
8
DEFAULT_255_2_778
10
21.2288079
20
69.2525741
11
21.2288079
21
69.4457741
0
LINE
8
DEFAULT_255_2_778
10
21.2288079
20
69.4457741
11
20.8354079
21
66.5633741
0
LINE
8
DEFAULT_255_2_778
10
20.8354079
20
66.5633741
11
20.8375079
21
66.3257741
0
LINE
8
DEFAULT_255_2_778
10
20.8375079
20
66.3257741
11
20.8436079
21
66.2810741
0
LINE
8
DEFAULT_255_2_778
10
20.8436079
20
66.2810741
11
20.8579079
21
66.2194741
0
LINE
8
DEFAULT_255_2_778
10
20.8579079
20
66.2194741
11
20.8833079
21
66.1487741
0
LINE
8
DEFAULT_255_2_778
10
20.8833079
20
66.1487741
11
20.9272079
21
66.0632741
0
LINE
8
DEFAULT_255_2_778
10
20.9272079
20
66.0632741
11
21.0034079
21
65.9593741
0
LINE
8
DEFAULT_255_2_778
10
21.0034079
20
65.9593741
11
21.1037079
21
65.8606741
0
LINE
8
DEFAULT_255_2_778
10
21.1037079
20
65.8606741
11
21.2381079
21
65.7632741
0
LINE
8
DEFAULT_255_2_778
10
21.2381079
20
65.7632741
11
21.4093079
21
65.6775741
0
LINE
8
DEFAULT_255_2_778
10
21.4093079
20
65.6775741
11
21.6072079
21
65.6153741
0
LINE
8
DEFAULT_255_2_778
10
21.6072079
20
65.6153741
11
21.8125079
21
65.5841741
0
LINE
8
DEFAULT_255_2_778
10
19.8654079
20
42.0727741
11
19.8614079
21
42.0891741
0
LINE
8
DEFAULT_255_2_778
10
19.8614079
20
42.0891741
11
19.8596079
21
42.1116741
0
LINE
8
DEFAULT_255_2_778
10
19.8596079
20
42.1116741
11
19.8570079
21
42.5804741
0
LINE
8
DEFAULT_255_2_778
10
19.8570079
20
42.5804741
11
21.2775079
21
42.5460741
0
LINE
8
DEFAULT_255_2_778
10
22.2588079
20
124.6838741
11
22.2588079
21
69.2493741
0
LINE
8
DEFAULT_255_2_778
10
22.2051079
20
68.4633741
11
21.8120079
21
65.5846741
0
LINE
8
DEFAULT_255_2_778
10
21.7680079
20
64.9414741
11
21.7680079
21
47.6972741
0
LINE
8
DEFAULT_255_2_778
10
21.8120079
20
47.0540741
11
22.2051079
21
44.1756741
0
LINE
8
DEFAULT_255_2_778
10
22.2588079
20
43.3892741
11
22.2588079
21
5.1025741
0
LINE
8
DEFAULT_255_2_778
10
22.2588079
20
5.1025741
11
22.1546079
21
4.9228741
0
LINE
8
DEFAULT_255_2_778
10
22.1546079
20
4.9228741
11
22.0514079
21
4.9598741
0
LINE
8
DEFAULT_255_2_778
10
22.0514079
20
4.9598741
11
22.2348079
21
0.3905741
0
LINE
8
DEFAULT_255_2_778
10
22.2348079
20
0.3905741
11
24.2316079
21
0.3127741
0
LINE
8
DEFAULT_255_2_778
10
24.2316079
20
0.3127741
11
27.0671079
21
0.1923741
0
LINE
8
DEFAULT_255_2_778
10
27.0671079
20
0.1923741
11
28.9962079
21
0.1188741
0
LINE
8
DEFAULT_255_2_778
10
28.9962079
20
0.1188741
11
30.5943079
21
0.0711741
0
LINE
8
DEFAULT_255_2_778
10
30.5943079
20
0.0711741
11
32.0082079
21
0.0444741
0
LINE
8
DEFAULT_255_2_778
10
32.0082079
20
0.0444741
11
33.2996079
21
0.0354741
0
LINE
8
DEFAULT_255_2_778
10
33.2996079
20
0.0354741
11
34.5911079
21
0.0444741
0
LINE
8
DEFAULT_255_2_778
10
34.5911079
20
0.0444741
11
36.0047079
21
0.0711741
0
LINE
8
DEFAULT_255_2_778
10
36.0047079
20
0.0711741
11
37.6028079
21
0.1188741
0
LINE
8
DEFAULT_255_2_778
10
37.6028079
20
0.1188741
11
39.5319079
21
0.1923741
0
LINE
8
DEFAULT_255_2_778
10
39.5319079
20
0.1923741
11
42.3672079
21
0.3127741
0
LINE
8
DEFAULT_255_2_778
10
42.3672079
20
0.3127741
11
44.3642079
21
0.3905741
0
LINE
8
DEFAULT_255_2_778
10
44.3642079
20
0.3905741
11
44.5476079
21
4.9598741
0
LINE
8
DEFAULT_255_2_778
10
44.5476079
20
4.9598741
11
44.5407079
21
4.9591741
0
LINE
8
DEFAULT_255_2_778
10
44.5407079
20
4.9591741
11
44.4442079
21
4.9225741
0
LINE
8
DEFAULT_255_2_778
10
44.4442079
20
4.9225741
11
44.3399079
21
5.1022741
0
LINE
8
DEFAULT_255_2_778
10
44.3399079
20
5.1022741
11
44.3410079
21
47.4813741
0
LINE
8
DEFAULT_255_2_778
10
44.3410079
20
47.4813741
11
44.3447079
21
47.5363741
0
LINE
8
DEFAULT_255_2_778
10
44.3447079
20
47.5363741
11
44.3510079
21
47.5916741
0
LINE
8
DEFAULT_255_2_778
10
44.3510079
20
47.5916741
11
44.3547079
21
47.6191741
0
LINE
8
DEFAULT_255_2_778
10
44.3547079
20
47.6191741
11
44.3722079
21
47.7078741
0
LINE
8
DEFAULT_255_2_778
10
44.3722079
20
47.7078741
11
44.3857079
21
47.7620741
0
LINE
8
DEFAULT_255_2_778
10
44.3857079
20
47.7620741
11
44.4108079
21
47.8414741
0
LINE
8
DEFAULT_255_2_778
10
44.4108079
20
47.8414741
11
44.4526079
21
47.9454741
0
LINE
8
DEFAULT_255_2_778
10
44.4526079
20
47.9454741
11
44.5185079
21
48.0713741
0
LINE
8
DEFAULT_255_2_778
10
44.5185079
20
48.0713741
11
44.5907079
21
48.1806741
0
LINE
8
DEFAULT_255_2_778
10
44.5907079
20
48.1806741
11
44.6791079
21
48.2914741
0
LINE
8
DEFAULT_255_2_778
10
44.6791079
20
48.2914741
11
44.8201079
21
48.4393741
0
LINE
8
DEFAULT_255_2_778
10
44.8201079
20
48.4393741
11
44.9937079
21
48.5915741
0
LINE
8
DEFAULT_255_2_778
10
44.9937079
20
48.5915741
11
45.2577079
21
48.7870741
0
LINE
8
DEFAULT_255_2_778
10
45.2577079
20
48.7870741
11
45.5644079
21
48.9844741
0
LINE
8
DEFAULT_255_2_778
10
45.5644079
20
48.9844741
11
45.8118079
21
49.1333741
0
LINE
8
DEFAULT_255_2_778
10
45.8118079
20
49.1333741
11
45.7525079
21
48.9100741
0
LINE
8
DEFAULT_255_2_778
10
45.7525079
20
48.9100741
11
45.6869079
21
48.6402741
0
LINE
8
DEFAULT_255_2_778
10
45.6869079
20
48.6402741
11
45.4699079
21
47.6834741
0
LINE
8
DEFAULT_255_2_778
10
45.4699079
20
47.6834741
11
45.4046079
21
47.3829741
0
LINE
8
DEFAULT_255_2_778
10
45.4046079
20
47.3829741
11
45.3691079
21
47.4678741
0
LINE
8
DEFAULT_255_2_778
10
45.3691079
20
47.4678741
11
45.3249079
21
47.5527741
0
LINE
8
DEFAULT_255_2_778
10
45.3249079
20
47.5527741
11
45.2517079
21
47.6654741
0
LINE
8
DEFAULT_255_2_778
10
45.2517079
20
47.6654741
11
45.1617079
21
47.7768741
0
LINE
8
DEFAULT_255_2_778
10
45.1617079
20
47.7768741
11
45.0276079
21
47.9099741
0
LINE
8
DEFAULT_255_2_778
10
45.0276079
20
47.9099741
11
44.8789079
21
48.0263741
0
LINE
8
DEFAULT_255_2_778
10
44.8789079
20
48.0263741
11
44.6891079
21
48.1369741
0
LINE
8
DEFAULT_255_2_778
10
44.6891079
20
48.1369741
11
44.5910079
21
48.1801741
0
LINE
8
DEFAULT_255_2_778
10
44.5471079
20
5.1369741
11
45.2178079
21
5.1866741
0
LINE
8
DEFAULT_255_2_778
10
45.2178079
20
5.1866741
11
45.3210079
21
5.2286741
0
LINE
8
DEFAULT_255_2_778
10
45.3210079
20
5.2286741
11
45.3199079
21
5.2149741
0
LINE
8
DEFAULT_255_2_778
10
45.3199079
20
5.2149741
11
45.3091079
21
5.1863741
0
LINE
8
DEFAULT_255_2_778
10
45.3091079
20
5.1863741
11
45.2771079
21
5.1472741
0
LINE
8
DEFAULT_255_2_778
10
45.2771079
20
5.1472741
11
45.1776079
21
5.0852741
0
LINE
8
DEFAULT_255_2_778
10
45.1776079
20
5.0852741
11
44.9889079
21
5.0223741
0
LINE
8
DEFAULT_255_2_778
10
44.9889079
20
5.0223741
11
44.6497079
21
4.9672741
0
LINE
8
DEFAULT_255_2_778
10
44.6497079
20
4.9672741
11
44.5473079
21
4.9596741
0
LINE
8
DEFAULT_255_2_778
10
44.5473079
20
4.9596741
11
44.5471079
21
5.1371741
0
LINE
8
DEFAULT_255_2_778
10
44.5471079
20
5.1371741
11
44.3399079
21
5.1022741
0
LINE
8
DEFAULT_255_2_778
10
44.3399079
20
5.1022741
11
43.8150079
21
4.7863741
0
LINE
8
DEFAULT_255_2_778
10
43.8150079
20
4.7863741
11
43.2803079
21
4.4857741
0
LINE
8
DEFAULT_255_2_778
10
43.2803079
20
4.4857741
11
42.7365079
21
4.2008741
0
LINE
8
DEFAULT_255_2_778
10
42.7365079
20
4.2008741
11
42.3193079
21
3.9965741
0
LINE
8
DEFAULT_255_2_778
10
42.3193079
20
3.9965741
11
41.7629079
21
3.7414741
0
LINE
8
DEFAULT_255_2_778
10
41.7629079
20
3.7414741
11
41.1993079
21
3.5030741
0
LINE
8
DEFAULT_255_2_778
10
41.1993079
20
3.5030741
11
40.6281079
21
3.2816741
0
LINE
8
DEFAULT_255_2_778
10
40.6281079
20
3.2816741
11
40.0492079
21
3.0773741
0
LINE
8
DEFAULT_255_2_778
10
40.0492079
20
3.0773741
11
39.4639079
21
2.8897741
0
LINE
8
DEFAULT_255_2_778
10
39.4639079
20
2.8897741
11
39.0281079
21
2.7625741
0
LINE
8
DEFAULT_255_2_778
10
39.0281079
20
2.7625741
11
38.4326079
21
2.6053741
0
LINE
8
DEFAULT_255_2_778
10
38.4326079
20
2.6053741
11
37.8301079
21
2.4651741
0
LINE
8
DEFAULT_255_2_778
10
37.8301079
20
2.4651741
11
37.2213079
21
2.3423741
0
LINE
8
DEFAULT_255_2_778
10
37.2213079
20
2.3423741
11
36.6067079
21
2.2373741
0
LINE
8
DEFAULT_255_2_778
10
36.6067079
20
2.2373741
11
35.9873079
21
2.1497741
0
LINE
8
DEFAULT_255_2_778
10
35.9873079
20
2.1497741
11
35.3639079
21
2.0804741
0
LINE
8
DEFAULT_255_2_778
10
35.3639079
20
2.0804741
11
34.7374079
21
2.0293741
0
LINE
8
DEFAULT_255_2_778
10
34.7374079
20
2.0293741
11
34.1082079
21
1.9970741
0
LINE
8
DEFAULT_255_2_778
10
34.1082079
20
1.9970741
11
33.3023079
21
1.9817741
0
LINE
8
DEFAULT_255_2_778
10
33.3023079
20
1.9817741
11
32.4956079
21
1.9965741
0
LINE
8
DEFAULT_255_2_778
10
32.4956079
20
1.9965741
11
31.8664079
21
2.0293741
0
LINE
8
DEFAULT_255_2_778
10
31.8664079
20
2.0293741
11
31.2396079
21
2.0804741
0
LINE
8
DEFAULT_255_2_778
10
31.2396079
20
2.0804741
11
30.6160079
21
2.1497741
0
LINE
8
DEFAULT_255_2_778
10
30.6160079
20
2.1497741
11
29.9966079
21
2.2365741
0
LINE
8
DEFAULT_255_2_778
10
29.9966079
20
2.2365741
11
29.3819079
21
2.3415741
0
LINE
8
DEFAULT_255_2_778
10
29.3819079
20
2.3415741
11
28.7729079
21
2.4648741
0
LINE
8
DEFAULT_255_2_778
10
28.7729079
20
2.4648741
11
28.1702079
21
2.6048741
0
LINE
8
DEFAULT_255_2_778
10
28.1702079
20
2.6048741
11
27.5746079
21
2.7619741
0
LINE
8
DEFAULT_255_2_778
10
27.5746079
20
2.7619741
11
27.1375079
21
2.8897741
0
LINE
8
DEFAULT_255_2_778
10
27.1375079
20
2.8897741
11
26.5520079
21
3.0773741
0
LINE
8
DEFAULT_255_2_778
10
26.5520079
20
3.0773741
11
25.9733079
21
3.2816741
0
LINE
8
DEFAULT_255_2_778
10
25.9733079
20
3.2816741
11
25.4021079
21
3.5030741
0
LINE
8
DEFAULT_255_2_778
10
25.4021079
20
3.5030741
11
24.8385079
21
3.7409741
0
LINE
8
DEFAULT_255_2_778
10
24.8385079
20
3.7409741
11
24.2818079
21
3.9960741
0
LINE
8
DEFAULT_255_2_778
10
24.2818079
20
3.9960741
11
23.8633079
21
4.2013741
0
LINE
8
DEFAULT_255_2_778
10
23.8633079
20
4.2013741
11
23.3196079
21
4.4857741
0
LINE
8
DEFAULT_255_2_778
10
23.3196079
20
4.4857741
11
22.7848079
21
4.7863741
0
LINE
8
DEFAULT_255_2_778
10
22.7848079
20
4.7863741
11
22.2528079
21
5.1043741
0
LINE
8
DEFAULT_255_2_778
10
22.2528079
20
5.1043741
11
22.0527079
21
5.1371741
0
LINE
8
DEFAULT_255_2_778
10
22.0527079
20
5.1371741
11
21.3820079
21
5.1869741
0
LINE
8
DEFAULT_255_2_778
10
21.3820079
20
5.1869741
11
21.2788079
21
5.2289741
0
LINE
8
DEFAULT_255_2_778
10
21.2788079
20
5.2289741
11
21.2799079
21
5.2152741
0
LINE
8
DEFAULT_255_2_778
10
21.2799079
20
5.2152741
11
21.2907079
21
5.1866741
0
LINE
8
DEFAULT_255_2_778
10
21.2907079
20
5.1866741
11
21.3344079
21
5.1374741
0
LINE
8
DEFAULT_255_2_778
10
21.3344079
20
5.1374741
11
21.4429079
21
5.0765741
0
LINE
8
DEFAULT_255_2_778
10
21.4429079
20
5.0765741
11
21.6778079
21
5.0072741
0
LINE
8
DEFAULT_255_2_778
10
21.6778079
20
5.0072741
11
21.9945079
21
4.9638741
0
LINE
8
DEFAULT_255_2_778
10
21.9945079
20
4.9638741
11
22.0525079
21
4.9598741
0
LINE
8
DEFAULT_255_2_778
10
22.0525079
20
4.9598741
11
22.0525079
21
5.1374741
0
LINE
8
DEFAULT_255_2_778
10
22.1556079
20
4.9228741
11
22.6859079
21
4.5929741
0
LINE
8
DEFAULT_255_2_778
10
22.6859079
20
4.5929741
11
23.2264079
21
4.2785741
0
LINE
8
DEFAULT_255_2_778
10
23.2264079
20
4.2785741
11
23.4995079
21
4.1277741
0
LINE
8
DEFAULT_255_2_778
10
23.4995079
20
4.1277741
11
24.0532079
21
3.8375741
0
LINE
8
DEFAULT_255_2_778
10
24.0532079
20
3.8375741
11
24.6147079
21
3.5644741
0
LINE
8
DEFAULT_255_2_778
10
24.6147079
20
3.5644741
11
25.1830079
21
3.3086741
0
LINE
8
DEFAULT_255_2_778
10
25.1830079
20
3.3086741
11
25.7572079
21
3.0702741
0
LINE
8
DEFAULT_255_2_778
10
25.7572079
20
3.0702741
11
26.3361079
21
2.8498741
0
LINE
8
DEFAULT_255_2_778
10
26.3361079
20
2.8498741
11
26.9192079
21
2.6479741
0
LINE
8
DEFAULT_255_2_778
10
26.9192079
20
2.6479741
11
27.5055079
21
2.4643741
0
LINE
8
DEFAULT_255_2_778
10
27.5055079
20
2.4643741
11
28.0966079
21
2.2984741
0
LINE
8
DEFAULT_255_2_778
10
28.0966079
20
2.2984741
11
28.6932079
21
2.1500741
0
LINE
8
DEFAULT_255_2_778
10
28.6932079
20
2.1500741
11
29.2949079
21
2.0206741
0
LINE
8
DEFAULT_255_2_778
10
29.2949079
20
2.0206741
11
29.9008079
21
1.9087741
0
LINE
8
DEFAULT_255_2_778
10
29.9008079
20
1.9087741
11
30.5101079
21
1.8150741
0
LINE
8
DEFAULT_255_2_778
10
30.5101079
20
1.8150741
11
31.1221079
21
1.7393741
0
LINE
8
DEFAULT_255_2_778
10
31.1221079
20
1.7393741
11
31.4581079
21
1.7065741
0
LINE
8
DEFAULT_255_2_778
10
31.4581079
20
1.7065741
11
32.0725079
21
1.6597741
0
LINE
8
DEFAULT_255_2_778
10
32.0725079
20
1.6597741
11
32.6874079
21
1.6316741
0
LINE
8
DEFAULT_255_2_778
10
32.6874079
20
1.6316741
11
33.3023079
21
1.6226741
0
LINE
8
DEFAULT_255_2_778
10
33.3023079
20
1.6226741
11
33.9172079
21
1.6316741
0
LINE
8
DEFAULT_255_2_778
10
33.9172079
20
1.6316741
11
34.5321079
21
1.6597741
0
LINE
8
DEFAULT_255_2_778
10
34.5321079
20
1.6597741
11
35.1464079
21
1.7065741
0
LINE
8
DEFAULT_255_2_778
10
35.1464079
20
1.7065741
11
35.4811079
21
1.7401741
0
LINE
8
DEFAULT_255_2_778
10
35.4811079
20
1.7401741
11
36.0928079
21
1.8150741
0
LINE
8
DEFAULT_255_2_778
10
36.0928079
20
1.8150741
11
36.7024079
21
1.9087741
0
LINE
8
DEFAULT_255_2_778
10
36.7024079
20
1.9087741
11
37.3081079
21
2.0206741
0
LINE
8
DEFAULT_255_2_778
10
37.3081079
20
2.0206741
11
37.9097079
21
2.1508741
0
LINE
8
DEFAULT_255_2_778
10
37.9097079
20
2.1508741
11
38.5061079
21
2.2992741
0
LINE
8
DEFAULT_255_2_778
10
38.5061079
20
2.2992741
11
39.0972079
21
2.4651741
0
LINE
8
DEFAULT_255_2_778
10
39.0972079
20
2.4651741
11
39.6835079
21
2.6487741
0
LINE
8
DEFAULT_255_2_778
10
39.6835079
20
2.6487741
11
40.2664079
21
2.8506741
0
LINE
8
DEFAULT_255_2_778
10
40.2664079
20
2.8506741
11
40.8456079
21
3.0710741
0
LINE
8
DEFAULT_255_2_778
10
40.8456079
20
3.0710741
11
41.4197079
21
3.3094741
0
LINE
8
DEFAULT_255_2_778
10
41.4197079
20
3.3094741
11
41.9878079
21
3.5655741
0
LINE
8
DEFAULT_255_2_778
10
41.9878079
20
3.5655741
11
42.5492079
21
3.8385741
0
LINE
8
DEFAULT_255_2_778
10
42.5492079
20
3.8385741
11
43.1030079
21
4.1290741
0
LINE
8
DEFAULT_255_2_778
10
43.1030079
20
4.1290741
11
43.3742079
21
4.2785741
0
LINE
8
DEFAULT_255_2_778
10
43.3742079
20
4.2785741
11
43.9147079
21
4.5929741
0
LINE
8
DEFAULT_255_2_778
10
43.9147079
20
4.5929741
11
44.4449079
21
4.9228741
0
LINE
8
DEFAULT_255_2_778
10
21.2775079
20
70.6122741
11
21.2794079
21
70.5680741
0
LINE
8
DEFAULT_255_2_778
10
21.2794079
20
70.5680741
11
21.2836079
21
70.5321741
0
LINE
8
DEFAULT_255_2_778
10
21.2836079
20
70.5321741
11
21.2966079
21
70.4717741
0
LINE
8
DEFAULT_255_2_778
10
21.2966079
20
70.4717741
11
21.3257079
21
70.3902741
0
LINE
8
DEFAULT_255_2_778
10
21.3257079
20
70.3902741
11
21.3563079
21
70.3304741
0
LINE
8
DEFAULT_255_2_778
10
21.3563079
20
70.3304741
11
21.4257079
21
70.2328741
0
LINE
8
DEFAULT_255_2_778
10
21.4257079
20
70.2328741
11
21.5228079
21
70.1373741
0
LINE
8
DEFAULT_255_2_778
10
21.5228079
20
70.1373741
11
21.6606079
21
70.0428741
0
LINE
8
DEFAULT_255_2_778
10
21.6606079
20
70.0428741
11
21.8220079
21
69.9690741
0
LINE
8
DEFAULT_255_2_778
10
21.8220079
20
69.9690741
11
22.0204079
21
69.9156741
0
LINE
8
DEFAULT_255_2_778
10
22.0204079
20
69.9156741
11
22.2215079
21
69.8947741
0
LINE
8
DEFAULT_255_2_778
10
22.2215079
20
69.8947741
11
44.9318079
21
69.9021741
0
LINE
8
DEFAULT_255_2_778
10
44.9318079
20
69.9021741
11
45.1114079
21
69.9592741
0
LINE
8
DEFAULT_255_2_778
10
45.1114079
20
69.9592741
11
45.2392079
21
70.0547741
0
LINE
8
DEFAULT_255_2_778
10
45.2392079
20
70.0547741
11
45.2858079
21
70.1201741
0
LINE
8
DEFAULT_255_2_778
10
45.2858079
20
70.1201741
11
45.3088079
21
70.1754741
0
LINE
8
DEFAULT_255_2_778
10
45.3088079
20
70.1754741
11
45.3170079
21
70.2093741
0
LINE
8
DEFAULT_255_2_778
10
45.3170079
20
70.2093741
11
45.3199079
21
70.2318741
0
LINE
8
DEFAULT_255_2_778
10
45.3199079
20
70.2318741
11
45.3207079
21
70.2534741
0
LINE
8
DEFAULT_255_2_778
10
20.8134079
20
66.3776741
11
20.7925079
21
66.0910741
0
LINE
8
DEFAULT_255_2_778
10
20.7925079
20
66.0910741
11
20.7870079
21
65.8489741
0
LINE
8
DEFAULT_255_2_778
10
20.7870079
20
65.8489741
11
20.7870079
21
46.7910741
0
LINE
8
DEFAULT_255_2_778
10
20.7870079
20
46.7910741
11
20.7925079
21
46.5489741
0
LINE
8
DEFAULT_255_2_778
10
20.8081079
20
46.3171741
11
20.8356079
21
46.0756741
0
LINE
8
DEFAULT_255_2_778
10
22.2054079
20
68.4638741
11
22.0070079
21
68.4932741
0
LINE
8
DEFAULT_255_2_778
10
22.0070079
20
68.4932741
11
21.8069079
21
68.5554741
0
LINE
8
DEFAULT_255_2_778
10
21.8069079
20
68.5554741
11
21.6508079
21
68.6313741
0
LINE
8
DEFAULT_255_2_778
10
21.6508079
20
68.6313741
11
21.5016079
21
68.7353741
0
LINE
8
DEFAULT_255_2_778
10
21.5016079
20
68.7353741
11
21.3950079
21
68.8398741
0
LINE
8
DEFAULT_255_2_778
10
21.3950079
20
68.8398741
11
21.3296079
21
68.9276741
0
LINE
8
DEFAULT_255_2_778
10
21.3296079
20
68.9276741
11
21.2905079
21
68.9980741
0
LINE
8
DEFAULT_255_2_778
10
21.2905079
20
68.9980741
11
21.2611079
21
69.0686741
0
LINE
8
DEFAULT_255_2_778
10
21.2611079
20
69.0686741
11
21.2468079
21
69.1160741
0
LINE
8
DEFAULT_255_2_778
10
21.2468079
20
69.1160741
11
21.2368079
21
69.1628741
0
LINE
8
DEFAULT_255_2_778
10
21.2368079
20
69.1628741
11
21.2333079
21
69.1859741
0
LINE
8
DEFAULT_255_2_778
10
21.2333079
20
69.1859741
11
21.2307079
21
69.2086741
0
LINE
8
DEFAULT_255_2_778
10
21.2307079
20
69.2086741
11
21.2288079
21
69.2531741
0
LINE
8
DEFAULT_255_2_778
10
21.2288079
20
69.2531741
11
21.2558079
21
69.4909741
0
LINE
8
DEFAULT_255_2_778
10
21.2772079
20
69.9680741
11
21.2772079
21
124.1763741
0
LINE
8
DEFAULT_255_2_778
10
0.6691079
20
124.6841741
11
54.1530079
21
124.6841741
0
LINE
8
DEFAULT_255_2_778
10
54.1530079
20
124.6841741
11
54.1530079
21
124.1763741
0
LINE
8
DEFAULT_255_2_778
10
54.1530079
20
124.1763741
11
0.1783079
21
124.1763741
0
LINE
8
DEFAULT_255_2_778
10
0.1783079
20
124.1763741
11
0.1783079
21
0.7538741
0
LINE
8
DEFAULT_255_2_778
10
0.1783079
20
0.7538741
11
21.2775079
21
0.7538741
0
LINE
8
DEFAULT_255_2_778
10
21.2775079
20
0.7538741
11
21.2775079
21
42.6712741
0
LINE
8
DEFAULT_255_2_778
10
21.2775079
20
42.6712741
11
21.2722079
21
42.9098741
0
LINE
8
DEFAULT_255_2_778
10
21.2722079
20
42.9098741
11
21.2513079
21
43.1953741
0
LINE
8
DEFAULT_255_2_778
10
21.2513079
20
43.1953741
11
21.2288079
21
43.3858741
0
LINE
8
DEFAULT_255_2_778
10
21.2288079
20
43.3858741
11
21.2291079
21
43.4078741
0
LINE
8
DEFAULT_255_2_778
10
21.2291079
20
43.4078741
11
21.2307079
21
43.4305741
0
LINE
8
DEFAULT_255_2_778
10
21.2307079
20
43.4305741
11
21.2333079
21
43.4533741
0
LINE
8
DEFAULT_255_2_778
10
21.2333079
20
43.4533741
11
21.2368079
21
43.4763741
0
LINE
8
DEFAULT_255_2_778
10
21.2368079
20
43.4763741
11
21.2468079
21
43.5229741
0
LINE
8
DEFAULT_255_2_778
10
21.2468079
20
43.5229741
11
21.2611079
21
43.5705741
0
LINE
8
DEFAULT_255_2_778
10
21.2611079
20
43.5705741
11
21.2905079
21
43.6409741
0
LINE
8
DEFAULT_255_2_778
10
21.2905079
20
43.6409741
11
21.3296079
21
43.7112741
0
LINE
8
DEFAULT_255_2_778
10
21.3296079
20
43.7112741
11
21.3950079
21
43.7991741
0
LINE
8
DEFAULT_255_2_778
10
21.3950079
20
43.7991741
11
21.4780079
21
43.8835741
0
LINE
8
DEFAULT_255_2_778
10
21.4780079
20
43.8835741
11
21.5939079
21
43.9727741
0
LINE
8
DEFAULT_255_2_778
10
21.5939079
20
43.9727741
11
21.7421079
21
44.0555741
0
LINE
8
DEFAULT_255_2_778
10
21.7421079
20
44.0555741
11
21.9358079
21
44.1280741
0
LINE
8
DEFAULT_255_2_778
10
21.9358079
20
44.1280741
11
22.1533079
21
44.1706741
0
LINE
8
DEFAULT_255_2_778
10
22.1533079
20
44.1706741
11
22.2054079
21
44.1756741
0
LINE
8
DEFAULT_255_2_778
10
22.2591079
20
-0.2619259
11
22.2551079
21
-0.2508259
0
LINE
8
DEFAULT_255_2_778
10
22.2551079
20
-0.2508259
11
22.2530079
21
-0.2360259
0
LINE
8
DEFAULT_255_2_778
10
22.2530079
20
-0.2360259
11
22.2493079
21
-0.1918259
0
LINE
8
DEFAULT_255_2_778
10
22.2493079
20
-0.1918259
11
22.2453079
21
-0.1156259
0
LINE
8
DEFAULT_255_2_778
10
22.2453079
20
-0.1156259
11
22.2419079
21
-0.0219259
0
LINE
8
DEFAULT_255_2_778
10
22.2419079
20
-0.0219259
11
22.2393079
21
0.0780741
0
LINE
8
DEFAULT_255_2_778
10
22.2393079
20
0.0780741
11
22.2369079
21
0.1907741
0
LINE
8
DEFAULT_255_2_778
10
22.2369079
20
0.1907741
11
22.2342079
21
0.3902741
0
LINE
8
DEFAULT_255_2_778
10
22.2342079
20
0.3902741
11
21.9085079
21
0.4140741
0
LINE
8
DEFAULT_255_2_778
10
21.9085079
20
0.4140741
11
21.6807079
21
0.4595741
0
LINE
8
DEFAULT_255_2_778
10
21.6807079
20
0.4595741
11
21.4810079
21
0.5315741
0
LINE
8
DEFAULT_255_2_778
10
21.4810079
20
0.5315741
11
21.3463079
21
0.6196741
0
LINE
8
DEFAULT_255_2_778
10
21.3463079
20
0.6196741
11
21.3013079
21
0.6728741
0
LINE
8
DEFAULT_255_2_778
10
21.3013079
20
0.6728741
11
21.2838079
21
0.7120741
0
LINE
8
DEFAULT_255_2_778
10
21.2838079
20
0.7120741
11
21.2788079
21
0.7329741
0
LINE
8
DEFAULT_255_2_778
10
21.2788079
20
0.7329741
11
21.2772079
21
0.7532741
0
LINE
8
DEFAULT_255_2_778
10
22.2586079
20
-0.2621259
11
22.2591079
21
-0.2619259
0
LINE
8
DEFAULT_255_2_778
10
52.9754079
20
60.8906741
11
54.9452079
21
60.9618741
0
LINE
8
DEFAULT_255_2_778
10
55.1346079
20
61.1648741
11
55.1346079
21
124.0057741
0
LINE
8
DEFAULT_255_2_778
10
44.3399079
20
47.4268741
11
44.5434079
21
47.4109741
0
LINE
8
DEFAULT_255_2_778
10
44.5434079
20
47.4109741
11
44.7511079
21
47.3606741
0
LINE
8
DEFAULT_255_2_778
10
44.7511079
20
47.3606741
11
44.9302079
21
47.2823741
0
LINE
8
DEFAULT_255_2_778
10
44.9302079
20
47.2823741
11
45.0556079
21
47.1998741
0
LINE
8
DEFAULT_255_2_778
10
45.0556079
20
47.1998741
11
45.1580079
21
47.1056741
0
LINE
8
DEFAULT_255_2_778
10
45.1580079
20
47.1056741
11
45.2210079
21
47.0251741
0
LINE
8
DEFAULT_255_2_778
10
45.2210079
20
47.0251741
11
45.2622079
21
46.9537741
0
LINE
8
DEFAULT_255_2_778
10
45.2622079
20
46.9537741
11
45.2900079
21
46.8868741
0
LINE
8
DEFAULT_255_2_778
10
45.2900079
20
46.8868741
11
45.3038079
21
46.8413741
0
LINE
8
DEFAULT_255_2_778
10
45.3038079
20
46.8413741
11
45.3136079
21
46.7960741
0
LINE
8
DEFAULT_255_2_778
10
45.3136079
20
46.7960741
11
45.3170079
21
46.7741741
0
LINE
8
DEFAULT_255_2_778
10
45.3170079
20
46.7741741
11
45.3194079
21
46.7516741
0
LINE
8
DEFAULT_255_2_778
10
45.3194079
20
46.7516741
11
45.3210079
21
0.7538741
0
LINE
8
DEFAULT_255_2_778
10
44.3399079
20
-0.2616259
11
44.3407079
21
-0.2616259
0
LINE
8
DEFAULT_255_2_778
10
44.3407079
20
-0.2616259
11
44.3452079
21
-0.2420259
0
LINE
8
DEFAULT_255_2_778
10
44.3452079
20
-0.2420259
11
44.3478079
21
-0.2161259
0
LINE
8
DEFAULT_255_2_778
10
44.3478079
20
-0.2161259
11
44.3513079
21
-0.1621259
0
LINE
8
DEFAULT_255_2_778
10
44.3513079
20
-0.1621259
11
44.3537079
21
-0.1153259
0
LINE
8
DEFAULT_255_2_778
10
44.3537079
20
-0.1153259
11
44.3547079
21
-0.0830259
0
LINE
8
DEFAULT_255_2_778
10
44.3547079
20
-0.0830259
11
44.3571079
21
-0.0214259
0
LINE
8
DEFAULT_255_2_778
10
44.3571079
20
-0.0214259
11
44.3592079
21
0.0606741
0
LINE
8
DEFAULT_255_2_778
10
44.3592079
20
0.0606741
11
44.3619079
21
0.1873741
0
LINE
8
DEFAULT_255_2_778
10
44.3619079
20
0.1873741
11
44.3640079
21
0.3259741
0
LINE
8
DEFAULT_255_2_778
10
44.3640079
20
0.3259741
11
44.3648079
21
0.3910741
0
LINE
8
DEFAULT_255_2_778
10
44.3648079
20
0.3910741
11
44.6905079
21
0.4148741
0
LINE
8
DEFAULT_255_2_778
10
44.6905079
20
0.4148741
11
44.9183079
21
0.4603741
0
LINE
8
DEFAULT_255_2_778
10
44.9183079
20
0.4603741
11
45.1180079
21
0.5323741
0
LINE
8
DEFAULT_255_2_778
10
45.1180079
20
0.5323741
11
45.2527079
21
0.6204741
0
LINE
8
DEFAULT_255_2_778
10
45.2527079
20
0.6204741
11
45.2977079
21
0.6736741
0
LINE
8
DEFAULT_255_2_778
10
45.2977079
20
0.6736741
11
45.3152079
21
0.7127741
0
LINE
8
DEFAULT_255_2_778
10
45.3152079
20
0.7127741
11
45.3202079
21
0.7337741
0
LINE
8
DEFAULT_255_2_778
10
45.3202079
20
0.7337741
11
45.3215079
21
0.7540741
0
LINE
8
DEFAULT_255_2_778
10
45.3215079
20
0.7540741
11
45.3249079
21
0.7379741
0
LINE
8
DEFAULT_255_2_778
10
45.3249079
20
0.7379741
11
45.3493079
21
0.7072741
0
LINE
8
DEFAULT_255_2_778
10
45.3493079
20
0.7072741
11
45.4580079
21
0.6561741
0
LINE
8
DEFAULT_255_2_778
10
45.4580079
20
0.6561741
11
45.7462079
21
0.6141741
0
LINE
8
DEFAULT_255_2_778
10
45.7462079
20
0.6141741
11
54.3917079
21
0.6170741
0
LINE
8
DEFAULT_255_2_778
10
54.3917079
20
0.6170741
11
54.9404079
21
0.6694741
0
LINE
8
DEFAULT_255_2_778
10
54.9404079
20
0.6694741
11
55.0994079
21
0.7156741
0
LINE
8
DEFAULT_255_2_778
10
55.0994079
20
0.7156741
11
55.1338079
21
0.7464741
0
LINE
8
DEFAULT_255_2_778
10
55.1338079
20
0.7464741
11
55.1352079
21
0.7540741
0
LINE
8
DEFAULT_255_2_778
10
21.2775079
20
71.3306741
11
45.3204079
21
71.3306741
0
LINE
8
DEFAULT_255_2_778
10
52.9751079
20
61.9659741
11
54.3491079
21
61.9659741
0
LINE
8
DEFAULT_255_2_778
10
54.3491079
20
61.9659741
11
54.3491079
21
123.5934741
0
LINE
8
DEFAULT_255_2_778
10
37.2734079
20
56.9637741
11
37.5994079
21
57.0073741
0
LINE
8
DEFAULT_255_2_778
10
37.5994079
20
57.0073741
11
37.7015079
21
57.0391741
0
LINE
8
DEFAULT_255_2_778
10
37.7015079
20
57.0391741
11
54.2496079
21
57.0425741
0
LINE
8
DEFAULT_255_2_778
10
54.2496079
20
57.0425741
11
54.4613079
21
57.0753741
0
LINE
8
DEFAULT_255_2_778
10
54.4613079
20
57.0753741
11
54.6269079
21
57.1283741
0
LINE
8
DEFAULT_255_2_778
10
54.6269079
20
57.1283741
11
54.7706079
21
57.1989741
0
LINE
8
DEFAULT_255_2_778
10
54.7706079
20
57.1989741
11
54.8915079
21
57.2844741
0
LINE
8
DEFAULT_255_2_778
10
54.8915079
20
57.2844741
11
54.9886079
21
57.3801741
0
LINE
8
DEFAULT_255_2_778
10
54.9886079
20
57.3801741
11
55.0473079
21
57.4614741
0
LINE
8
DEFAULT_255_2_778
10
55.0473079
20
57.4614741
11
55.0854079
21
57.5341741
0
LINE
8
DEFAULT_255_2_778
10
55.0854079
20
57.5341741
11
55.1029079
21
57.5788741
0
LINE
8
DEFAULT_255_2_778
10
55.1029079
20
57.5788741
11
55.1164079
21
57.6244741
0
LINE
8
DEFAULT_255_2_778
10
55.1164079
20
57.6244741
11
55.1262079
21
57.6691741
0
LINE
8
DEFAULT_255_2_778
10
55.1262079
20
57.6691741
11
55.1323079
21
57.7138741
0
LINE
8
DEFAULT_255_2_778
10
55.1323079
20
57.7138741
11
55.1338079
21
57.7572741
0
LINE
8
DEFAULT_255_2_778
10
52.9748079
20
54.9169741
11
54.9447079
21
54.8454741
0
LINE
8
DEFAULT_255_2_778
10
55.1341079
20
54.6425741
11
55.1341079
21
25.0414741
0
LINE
8
DEFAULT_255_2_778
10
54.9447079
20
24.8385741
11
52.9748079
21
24.7671741
0
LINE
8
DEFAULT_255_2_778
10
52.9748079
20
55.6019741
11
21.6715079
21
55.5984741
0
LINE
8
DEFAULT_255_2_778
10
21.6715079
20
55.5984741
11
21.4939079
21
55.5736741
0
LINE
8
DEFAULT_255_2_778
10
21.4939079
20
55.5736741
11
21.2939079
21
55.5127741
0
LINE
8
DEFAULT_255_2_778
10
21.2939079
20
55.5127741
11
21.1240079
21
55.4259741
0
LINE
8
DEFAULT_255_2_778
10
21.1240079
20
55.4259741
11
20.9875079
21
55.3196741
0
LINE
8
DEFAULT_255_2_778
10
20.9875079
20
55.3196741
11
20.9161079
21
55.2413741
0
LINE
8
DEFAULT_255_2_778
10
20.9161079
20
55.2413741
11
20.8732079
21
55.1796741
0
LINE
8
DEFAULT_255_2_778
10
20.8732079
20
55.1796741
11
20.8351079
21
55.1069741
0
LINE
8
DEFAULT_255_2_778
10
20.8351079
20
55.1069741
11
20.8100079
21
55.0394741
0
LINE
8
DEFAULT_255_2_778
10
20.8100079
20
55.0394741
11
20.7983079
21
54.9941741
0
LINE
8
DEFAULT_255_2_778
10
20.7983079
20
54.9941741
11
20.7938079
21
54.9716741
0
LINE
8
DEFAULT_255_2_778
10
20.7938079
20
54.9716741
11
20.7904079
21
54.9492741
0
LINE
8
DEFAULT_255_2_778
10
20.7904079
20
54.9492741
11
20.7877079
21
54.9272741
0
LINE
8
DEFAULT_255_2_778
10
20.7877079
20
54.9272741
11
20.7859079
21
54.8835741
0
LINE
8
DEFAULT_255_2_778
10
18.6044079
20
54.1374741
11
19.8559079
21
54.1475741
0
LINE
8
DEFAULT_255_2_778
10
19.8559079
20
54.1475741
11
19.8580079
21
124.4205741
0
LINE
8
DEFAULT_255_2_778
10
19.8580079
20
124.4205741
11
19.8596079
21
124.4880741
0
LINE
8
DEFAULT_255_2_778
10
19.8596079
20
124.4880741
11
19.8620079
21
124.5629741
0
LINE
8
DEFAULT_255_2_778
10
19.8620079
20
124.5629741
11
19.8638079
21
124.6020741
0
LINE
8
DEFAULT_255_2_778
10
19.8638079
20
124.6020741
11
19.8670079
21
124.6481741
0
LINE
8
DEFAULT_255_2_778
10
19.8670079
20
124.6481741
11
19.8707079
21
124.6777741
0
LINE
8
DEFAULT_255_2_778
10
19.8707079
20
124.6777741
11
19.8734079
21
124.6830741
0
LINE
8
DEFAULT_255_2_778
10
19.8305079
20
4.2677741
11
19.8305079
21
42.0727741
0
LINE
8
DEFAULT_255_2_778
10
19.8477079
20
-0.2619259
11
19.8443079
21
-0.2423259
0
LINE
8
DEFAULT_255_2_778
10
19.8443079
20
-0.2423259
11
19.8427079
21
-0.2185259
0
LINE
8
DEFAULT_255_2_778
10
19.8427079
20
-0.2185259
11
19.8411079
21
-0.1849259
0
LINE
8
DEFAULT_255_2_778
10
19.8411079
20
-0.1849259
11
19.8395079
21
-0.1423259
0
LINE
8
DEFAULT_255_2_778
10
19.8395079
20
-0.1423259
11
19.8382079
21
-0.0904259
0
LINE
8
DEFAULT_255_2_778
10
19.8382079
20
-0.0904259
11
19.8360079
21
-0.0036259
0
LINE
8
DEFAULT_255_2_778
10
19.8360079
20
-0.0036259
11
19.8345079
21
0.0881741
0
LINE
8
DEFAULT_255_2_778
10
19.8345079
20
0.0881741
11
19.8323079
21
0.2638741
0
LINE
8
DEFAULT_255_2_778
10
19.8323079
20
0.2638741
11
19.8302079
21
4.1724741
0
LINE
8
DEFAULT_255_2_778
10
18.8230079
20
4.2870741
11
18.8230079
21
42.0915741
0
LINE
8
DEFAULT_255_2_778
10
45.8105079
20
-0.2619259
11
45.8105079
21
49.1339741
0
LINE
8
DEFAULT_255_2_778
10
45.8105079
20
49.1339741
11
54.2485079
21
49.1304741
0
LINE
8
DEFAULT_255_2_778
10
54.2485079
20
49.1304741
11
54.4258079
21
49.1056741
0
LINE
8
DEFAULT_255_2_778
10
54.4258079
20
49.1056741
11
54.6258079
21
49.0447741
0
LINE
8
DEFAULT_255_2_778
10
54.6258079
20
49.0447741
11
54.7695079
21
48.9741741
0
LINE
8
DEFAULT_255_2_778
10
54.7695079
20
48.9741741
11
54.8904079
21
48.8891741
0
LINE
8
DEFAULT_255_2_778
10
54.8904079
20
48.8891741
11
54.9875079
21
48.7934741
0
LINE
8
DEFAULT_255_2_778
10
54.9875079
20
48.7934741
11
55.0463079
21
48.7119741
0
LINE
8
DEFAULT_255_2_778
10
55.0463079
20
48.7119741
11
55.0844079
21
48.6391741
0
LINE
8
DEFAULT_255_2_778
10
55.0844079
20
48.6391741
11
55.1018079
21
48.5944741
0
LINE
8
DEFAULT_255_2_778
10
55.1018079
20
48.5944741
11
55.1153079
21
48.5492741
0
LINE
8
DEFAULT_255_2_778
10
55.1153079
20
48.5492741
11
55.1251079
21
48.5039741
0
LINE
8
DEFAULT_255_2_778
10
55.1251079
20
48.5039741
11
55.1312079
21
48.4595741
0
LINE
8
DEFAULT_255_2_778
10
55.1312079
20
48.4595741
11
55.1328079
21
48.4161741
0
LINE
8
DEFAULT_255_2_778
10
45.3191079
20
46.7087741
11
45.3212079
21
46.8164741
0
LINE
8
DEFAULT_255_2_778
10
45.3212079
20
46.8164741
11
45.3228079
21
46.8556741
0
LINE
8
DEFAULT_255_2_778
10
45.3228079
20
46.8556741
11
45.3249079
21
46.8944741
0
LINE
8
DEFAULT_255_2_778
10
45.3249079
20
46.8944741
11
45.3308079
21
46.9704741
0
LINE
8
DEFAULT_255_2_778
10
45.3308079
20
46.9704741
11
45.3342079
21
47.0074741
0
LINE
8
DEFAULT_255_2_778
10
45.3342079
20
47.0074741
11
45.3382079
21
47.0442741
0
LINE
8
DEFAULT_255_2_778
10
45.3382079
20
47.0442741
11
45.3477079
21
47.1159741
0
LINE
8
DEFAULT_255_2_778
10
45.3477079
20
47.1159741
11
45.3588079
21
47.1860741
0
LINE
8
DEFAULT_255_2_778
10
45.3588079
20
47.1860741
11
45.3792079
21
47.2871741
0
LINE
8
DEFAULT_255_2_778
10
45.3792079
20
47.2871741
11
45.4033079
21
47.3837741
0
LINE
8
DEFAULT_255_2_778
10
45.4033079
20
47.3837741
11
45.8102079
21
47.4149741
0
LINE
8
DEFAULT_255_2_778
10
45.8102079
20
47.4149741
11
54.3896079
21
47.4191741
0
LINE
8
DEFAULT_255_2_778
10
54.3896079
20
47.4191741
11
54.9060079
21
47.4657741
0
LINE
8
DEFAULT_255_2_778
10
54.9060079
20
47.4657741
11
55.0971079
21
47.5178741
0
LINE
8
DEFAULT_255_2_778
10
55.0971079
20
47.5178741
11
55.1315079
21
47.5485741
0
LINE
8
DEFAULT_255_2_778
10
55.1315079
20
47.5485741
11
55.1328079
21
47.5562741
0
LINE
8
DEFAULT_255_2_778
10
18.6039079
20
46.4185741
11
19.8554079
21
46.4285741
0
LINE
8
DEFAULT_255_2_778
10
19.8554079
20
46.4285741
11
19.8554079
21
51.9890741
0
LINE
8
DEFAULT_255_2_778
10
19.8554079
20
51.9890741
11
18.4774079
21
52.0006741
0
LINE
8
DEFAULT_255_2_778
10
18.2829079
20
52.2038741
11
18.2829079
21
53.9339741
0
LINE
8
DEFAULT_255_2_778
10
18.4774079
20
54.1372741
11
19.8554079
21
54.1493741
0
LINE
8
DEFAULT_255_2_778
10
1.1340079
20
42.4111741
11
1.1308079
21
42.4209741
0
LINE
8
DEFAULT_255_2_778
10
1.1308079
20
42.4209741
11
1.1282079
21
42.4500741
0
LINE
8
DEFAULT_255_2_778
10
1.1282079
20
42.4500741
11
1.1260079
21
42.4968741
0
LINE
8
DEFAULT_255_2_778
10
1.1260079
20
42.4968741
11
1.1255079
21
42.9188741
0
LINE
8
DEFAULT_255_2_778
10
1.1255079
20
42.9188741
11
0.1783079
21
42.9273741
0
LINE
8
DEFAULT_255_2_778
10
0.6604079
20
42.4195741
11
21.2651079
21
42.0473741
0
LINE
8
DEFAULT_255_2_778
10
1.1324079
20
72.9789741
11
1.1289079
21
72.9533741
0
LINE
8
DEFAULT_255_2_778
10
1.1289079
20
72.9533741
11
1.1263079
21
72.8734741
0
LINE
8
DEFAULT_255_2_778
10
1.1263079
20
72.8734741
11
1.1255079
21
42.9186741
0
LINE
8
DEFAULT_255_2_778
10
1.1255079
20
42.9186741
11
19.8570079
21
42.5802741
0
LINE
8
DEFAULT_255_2_778
10
19.8570079
20
42.5802741
11
19.8570079
21
44.2685741
0
LINE
8
DEFAULT_255_2_778
10
19.8570079
20
44.2685741
11
18.4790079
21
44.2801741
0
LINE
8
DEFAULT_255_2_778
10
18.2845079
20
44.4830741
11
18.2845079
21
46.2137741
0
LINE
8
DEFAULT_255_2_778
10
18.4790079
20
46.4166741
11
19.8570079
21
46.4293741
0
LINE
8
DEFAULT_255_2_778
10
45.3207079
20
42.0301741
11
45.3191079
21
42.0735741
0
LINE
8
DEFAULT_255_2_778
10
45.3191079
20
42.0735741
11
45.3167079
21
42.0954741
0
LINE
8
DEFAULT_255_2_778
10
45.3167079
20
42.0954741
11
45.3133079
21
42.1179741
0
LINE
8
DEFAULT_255_2_778
10
45.3133079
20
42.1179741
11
45.3035079
21
42.1632741
0
LINE
8
DEFAULT_255_2_778
10
45.3035079
20
42.1632741
11
45.2898079
21
42.2087741
0
LINE
8
DEFAULT_255_2_778
10
45.2898079
20
42.2087741
11
45.2620079
21
42.2756741
0
LINE
8
DEFAULT_255_2_778
10
45.2620079
20
42.2756741
11
45.2207079
21
42.3471741
0
LINE
8
DEFAULT_255_2_778
10
45.2207079
20
42.3471741
11
45.1577079
21
42.4275741
0
LINE
8
DEFAULT_255_2_778
10
45.1577079
20
42.4275741
11
45.0553079
21
42.5217741
0
LINE
8
DEFAULT_255_2_778
10
45.0553079
20
42.5217741
11
44.9299079
21
42.6042741
0
LINE
8
DEFAULT_255_2_778
10
44.9299079
20
42.6042741
11
44.7826079
21
42.6714741
0
LINE
8
DEFAULT_255_2_778
10
44.7826079
20
42.6714741
11
44.5786079
21
42.7270741
0
LINE
8
DEFAULT_255_2_778
10
44.5786079
20
42.7270741
11
44.3396079
21
42.7487741
0
LINE
8
DEFAULT_255_2_778
10
44.3396079
20
42.7487741
11
22.1538079
21
42.7445741
0
LINE
8
DEFAULT_255_2_778
10
22.1538079
20
42.7445741
11
21.9450079
21
42.7109741
0
LINE
8
DEFAULT_255_2_778
10
21.9450079
20
42.7109741
11
21.7643079
21
42.6505741
0
LINE
8
DEFAULT_255_2_778
10
21.7643079
20
42.6505741
11
21.5879079
21
42.5542741
0
LINE
8
DEFAULT_255_2_778
10
21.5879079
20
42.5542741
11
21.4595079
21
42.4465741
0
LINE
8
DEFAULT_255_2_778
10
21.4595079
20
42.4465741
11
21.3952079
21
42.3709741
0
LINE
8
DEFAULT_255_2_778
10
21.3952079
20
42.3709741
11
21.3455079
21
42.2920741
0
LINE
8
DEFAULT_255_2_778
10
21.3455079
20
42.2920741
11
21.3040079
21
42.1944741
0
LINE
8
DEFAULT_255_2_778
10
21.3040079
20
42.1944741
11
21.2860079
21
42.1219741
0
LINE
8
DEFAULT_255_2_778
10
21.2860079
20
42.1219741
11
21.2809079
21
42.0862741
0
LINE
8
DEFAULT_255_2_778
10
21.2809079
20
42.0862741
11
21.2788079
21
42.0621741
0
LINE
8
DEFAULT_255_2_778
10
21.2788079
20
42.0621741
11
21.2778079
21
42.0298741
0
LINE
8
DEFAULT_255_2_778
10
21.2778079
20
41.3117741
11
45.3207079
21
41.3117741
0
LINE
8
DEFAULT_255_2_778
10
21.2778079
20
34.7839741
11
21.2285079
21
34.7839741
0
LINE
8
DEFAULT_255_2_778
10
21.2285079
20
34.7839741
11
21.2285079
21
5.3250741
0
LINE
8
DEFAULT_255_2_778
10
21.2285079
20
5.3250741
11
21.2778079
21
5.3250741
0
LINE
8
DEFAULT_255_2_778
10
21.2778079
20
32.7519741
11
21.2285079
21
32.7519741
0
LINE
8
DEFAULT_255_2_778
10
1.1596079
20
-0.2616259
11
1.1562079
21
-0.2420259
0
LINE
8
DEFAULT_255_2_778
10
1.1562079
20
-0.2420259
11
1.1546079
21
-0.2182259
0
LINE
8
DEFAULT_255_2_778
10
1.1546079
20
-0.2182259
11
1.1530079
21
-0.1846259
0
LINE
8
DEFAULT_255_2_778
10
1.1530079
20
-0.1846259
11
1.1514079
21
-0.1420259
0
LINE
8
DEFAULT_255_2_778
10
1.1514079
20
-0.1420259
11
1.1501079
21
-0.0902259
0
LINE
8
DEFAULT_255_2_778
10
1.1501079
20
-0.0902259
11
1.1480079
21
-0.0034259
0
LINE
8
DEFAULT_255_2_778
10
1.1480079
20
-0.0034259
11
1.1464079
21
0.0883741
0
LINE
8
DEFAULT_255_2_778
10
1.1464079
20
0.0883741
11
1.1443079
21
0.2640741
0
LINE
8
DEFAULT_255_2_778
10
1.1443079
20
0.2640741
11
1.1422079
21
42.4111741
0
LINE
8
DEFAULT_255_2_778
10
1.1319079
20
107.9235741
11
1.1342079
21
124.6266741
0
LINE
8
DEFAULT_255_2_778
10
1.1342079
20
124.6266741
11
1.1377079
21
124.6682741
0
LINE
8
DEFAULT_255_2_778
10
1.1377079
20
124.6682741
11
1.1422079
21
124.6846741
0
LINE
8
DEFAULT_255_2_778
10
52.9748079
20
26.8430741
11
54.1525079
21
26.8430741
0
LINE
8
DEFAULT_255_2_778
10
54.1525079
20
26.8430741
11
54.1525079
21
52.9198741
0
LINE
8
DEFAULT_255_2_778
10
54.1525079
20
52.9198741
11
52.9748079
21
52.9198741
0
LINE
8
DEFAULT_255_2_778
10
52.9748079
20
18.7957741
11
54.9447079
21
18.7243741
0
LINE
8
DEFAULT_255_2_778
10
55.1341079
20
18.5213741
11
55.1341079
21
0.7546741
0
LINE
8
DEFAULT_255_2_778
10
1.1596079
20
-0.2616259
11
54.1528079
21
-0.2616259
0
LINE
8
DEFAULT_255_2_778
10
54.1528079
20
-0.2616259
11
54.1528079
21
17.5066741
0
LINE
8
DEFAULT_255_2_778
10
54.1528079
20
17.5066741
11
52.9751079
21
17.5066741
0
LINE
8
DEFAULT_255_2_778
10
21.2711079
20
4.2428741
11
11.5623079
21
4.4182741
0
LINE
8
DEFAULT_255_2_778
10
11.5623079
20
4.4182741
11
11.5623079
21
9.2411741
0
LINE
8
DEFAULT_255_2_778
10
11.5623079
20
9.2411741
11
11.7549079
21
9.2411741
0
LINE
8
DEFAULT_255_2_778
10
11.7549079
20
9.2411741
11
11.7549079
21
4.4148741
0
LINE
8
DEFAULT_255_2_778
10
21.2664079
20
4.1468741
11
3.8092079
21
4.4622741
0
LINE
8
DEFAULT_255_2_778
10
3.8092079
20
4.4622741
11
3.8092079
21
5.0207741
0
LINE
8
DEFAULT_255_2_778
10
21.2775079
20
7.3570741
11
21.2283079
21
7.3570741
0
ENDSEC
0
EOF