0
SECTION
2
HEADER
9
$MEASUREMENT
70
1
0
ENDSEC
0
SECTION
2
TABLES
0
TABLE
2
LTYPE
0
LTYPE
72
65
70
64
2
CONTINUOUS
3
______
73
0
40
0
0
ENDTAB
0
TABLE
2
LAYER
0
LAYER
2
DEFAULT_255_2_778
70
0
62
255
6
CONTINUOUS
0
ENDTAB
0
ENDSEC
0
SECTION
2
ENTITIES
0
ARC
8
DEFAULT_255_2_778
10
9.4284064
20
22.5361708
40
0.0442506
50
184.9301434
51
242.2698922
0
ARC
8
DEFAULT_255_2_778
10
9.8551194
20
22.6598258
40
0.4877479
50
182.7699408
51
195.1483586
0
ARC
8
DEFAULT_255_2_778
10
10.2790526
20
22.6970388
40
0.9131366
50
179.9520873
51
183.8167718
0
ARC
8
DEFAULT_255_2_778
10
10.0932192
20
25.7666571
40
0.7273486
50
169.5424519
51
180.6423856
0
ARC
8
DEFAULT_255_2_778
10
9.4990948
20
25.8842966
40
0.1219932
50
144.3932427
51
173.230811
0
ARC
8
DEFAULT_255_2_778
10
9.4095187
20
25.9464024
40
0.0131112
50
97.4607135
51
137.1243501
0
LINE
8
DEFAULT_255_2_778
10
11.0572163
20
26.0951024
11
10.9463163
21
22.3703024
0
LINE
8
DEFAULT_255_2_778
10
10.9463163
20
22.3703024
11
7.4374163
21
22.3703024
0
LINE
8
DEFAULT_255_2_778
10
7.4374163
20
22.3703024
11
7.4284163
21
26.0951024
0
LINE
8
DEFAULT_255_2_778
10
7.4284163
20
26.0951024
11
11.0572163
21
26.0951024
0
LINE
8
DEFAULT_255_2_778
10
7.4387163
20
26.0848024
11
7.5673163
21
25.9557024
0
LINE
8
DEFAULT_255_2_778
10
7.5673163
20
25.9557024
11
7.5673163
21
22.5005024
0
LINE
8
DEFAULT_255_2_778
10
7.5673163
20
22.5005024
11
7.4514163
21
22.3841024
0
LINE
8
DEFAULT_255_2_778
10
7.4514163
20
22.3841024
11
10.6981163
21
22.3841024
0
LINE
8
DEFAULT_255_2_778
10
10.6981163
20
22.3841024
11
10.7733163
21
22.3843024
0
LINE
8
DEFAULT_255_2_778
10
10.7733163
20
22.3843024
11
9.4078163
21
22.4970024
0
LINE
8
DEFAULT_255_2_778
10
9.3659163
20
22.6978024
11
9.3659163
21
25.7585024
0
LINE
8
DEFAULT_255_2_778
10
9.4078163
20
25.9594024
11
10.8854163
21
26.0813024
0
LINE
8
DEFAULT_255_2_778
10
10.8854163
20
26.0813024
11
10.8854163
21
26.0813024
0
ARC
8
DEFAULT_255_2_778
10
9.4483145
20
17.6284708
40
0.0442506
50
184.9301434
51
242.2698922
0
ARC
8
DEFAULT_255_2_778
10
9.8750275
20
17.7521258
40
0.4877479
50
182.7699408
51
195.1483586
0
ARC
8
DEFAULT_255_2_778
10
10.2989607
20
17.7893388
40
0.9131366
50
179.9520873
51
183.8167718
0
ARC
8
DEFAULT_255_2_778
10
10.1131272
20
20.8589571
40
0.7273486
50
169.5424519
51
180.6423856
0
ARC
8
DEFAULT_255_2_778
10
9.5190029
20
20.9765966
40
0.1219932
50
144.3932427
51
173.230811
0
ARC
8
DEFAULT_255_2_778
10
9.4294268
20
21.0387024
40
0.0131112
50
97.4607135
51
137.1243501
0
LINE
8
DEFAULT_255_2_778
10
11.0771244
20
21.1874024
11
10.9662244
21
17.4626024
0
LINE
8
DEFAULT_255_2_778
10
10.9662244
20
17.4626024
11
7.4573244
21
17.4626024
0
LINE
8
DEFAULT_255_2_778
10
7.4573244
20
17.4626024
11
7.4483244
21
21.1874024
0
LINE
8
DEFAULT_255_2_778
10
7.4483244
20
21.1874024
11
11.0771244
21
21.1874024
0
LINE
8
DEFAULT_255_2_778
10
7.4586244
20
21.1771024
11
7.5872244
21
21.0480024
0
LINE
8
DEFAULT_255_2_778
10
7.5872244
20
21.0480024
11
7.5872244
21
17.5928024
0
LINE
8
DEFAULT_255_2_778
10
7.5872244
20
17.5928024
11
7.4713244
21
17.4764024
0
LINE
8
DEFAULT_255_2_778
10
7.4713244
20
17.4764024
11
10.7180244
21
17.4764024
0
LINE
8
DEFAULT_255_2_778
10
10.7180244
20
17.4764024
11
10.7932244
21
17.4766024
0
LINE
8
DEFAULT_255_2_778
10
10.7932244
20
17.4766024
11
9.4277244
21
17.5893024
0
LINE
8
DEFAULT_255_2_778
10
9.3858244
20
17.7901024
11
9.3858244
21
20.8508024
0
LINE
8
DEFAULT_255_2_778
10
9.4277244
20
21.0517024
11
10.9053244
21
21.1736024
0
LINE
8
DEFAULT_255_2_778
10
10.9053244
20
21.1736024
11
10.9053244
21
21.1736024
0
ARC
8
DEFAULT_255_2_778
10
9.4483164
20
12.6283715
40
0.0442521
50
184.9239971
51
242.2681071
0
ARC
8
DEFAULT_255_2_778
10
9.8752986
20
12.7520632
40
0.4880179
50
182.7666804
51
195.1436852
0
ARC
8
DEFAULT_255_2_778
10
10.3002572
20
12.7893343
40
0.9144331
50
179.9518729
51
183.8140772
0
ARC
8
DEFAULT_255_2_778
10
10.1124287
20
15.8589349
40
0.7266499
50
169.5374937
51
180.641251
0
ARC
8
DEFAULT_255_2_778
10
9.518984
20
15.9765009
40
0.1219754
50
144.3896579
51
173.2258067
0
ARC
8
DEFAULT_255_2_778
10
9.4294271
20
16.0386013
40
0.0131122
50
97.4615022
51
137.12139
0
LINE
8
DEFAULT_255_2_778
10
11.0771244
20
16.1873024
11
10.9662244
21
12.4625024
0
LINE
8
DEFAULT_255_2_778
10
10.9662244
20
12.4625024
11
7.4573244
21
12.4625024
0
LINE
8
DEFAULT_255_2_778
10
7.4573244
20
12.4625024
11
7.4483244
21
16.1873024
0
LINE
8
DEFAULT_255_2_778
10
7.4483244
20
16.1873024
11
11.0771244
21
16.1873024
0
LINE
8
DEFAULT_255_2_778
10
7.4586244
20
16.1770024
11
7.5872244
21
16.0479024
0
LINE
8
DEFAULT_255_2_778
10
7.5872244
20
16.0479024
11
7.5872244
21
12.5927024
0
LINE
8
DEFAULT_255_2_778
10
7.5872244
20
12.5927024
11
7.4713244
21
12.4763024
0
LINE
8
DEFAULT_255_2_778
10
7.4713244
20
12.4763024
11
10.7180244
21
12.4763024
0
LINE
8
DEFAULT_255_2_778
10
10.7180244
20
12.4763024
11
10.7932244
21
12.4765024
0
LINE
8
DEFAULT_255_2_778
10
10.7932244
20
12.4765024
11
9.4277244
21
12.5892024
0
LINE
8
DEFAULT_255_2_778
10
9.3858244
20
12.7901024
11
9.3858244
21
15.8508024
0
LINE
8
DEFAULT_255_2_778
10
9.4277244
20
16.0516024
11
10.9053244
21
16.1735024
0
LINE
8
DEFAULT_255_2_778
10
10.9053244
20
16.1735024
11
10.9053244
21
16.1735024
0
ARC
8
DEFAULT_255_2_778
10
9.448286
20
37.51086
40
0.0442464
50
184.9416056
51
242.2743096
0
ARC
8
DEFAULT_255_2_778
10
9.8744582
20
37.6344418
40
0.4872041
50
182.776445
51
195.1577893
0
ARC
8
DEFAULT_255_2_778
10
10.2963347
20
37.6715391
40
0.9105341
50
179.9525167
51
183.8222237
0
ARC
8
DEFAULT_255_2_778
10
10.1151209
20
40.7411999
40
0.729364
50
169.6341063
51
180.6289426
0
ARC
8
DEFAULT_255_2_778
10
9.5221553
20
40.8576587
40
0.1253684
50
144.8846153
51
173.2302901
0
ARC
8
DEFAULT_255_2_778
10
9.4295968
20
40.9207939
40
0.0134342
50
98.112816
51
138.0544975
0
ARC
8
DEFAULT_255_2_778
10
9.4680731
20
32.6028118
40
0.0441977
50
184.8843722
51
242.2601581
0
ARC
8
DEFAULT_255_2_778
10
9.8952747
20
32.7263229
40
0.4881238
50
182.7572325
51
195.1140854
0
ARC
8
DEFAULT_255_2_778
10
10.3204909
20
32.7635338
40
0.9147904
50
179.9524051
51
183.8040804
0
ARC
8
DEFAULT_255_2_778
10
10.1369636
20
35.8332518
40
0.7313071
50
169.669024
51
180.6313363
0
ARC
8
DEFAULT_255_2_778
10
9.5421769
20
35.9496527
40
0.125534
50
144.9498728
51
173.2534581
0
ARC
8
DEFAULT_255_2_778
10
9.4494618
20
36.0127391
40
0.0134978
50
98.3532013
51
138.1421784
0
ARC
8
DEFAULT_255_2_778
10
9.4680731
20
27.6032118
40
0.0441977
50
184.8843722
51
242.2601581
0
ARC
8
DEFAULT_255_2_778
10
9.8952747
20
27.7267229
40
0.4881238
50
182.7572325
51
195.1140854
0
ARC
8
DEFAULT_255_2_778
10
10.3204909
20
27.7639338
40
0.9147904
50
179.9524051
51
183.8040804
0
ARC
8
DEFAULT_255_2_778
10
10.1367331
20
30.83346
40
0.7310767
50
169.6673378
51
180.6321801
0
ARC
8
DEFAULT_255_2_778
10
9.5417859
20
30.9499191
40
0.1251365
50
144.8975817
51
173.2680592
0
ARC
8
DEFAULT_255_2_778
10
9.4493925
20
31.0129029
40
0.0134247
50
98.1002569
51
138.0472969
0
ARC
8
DEFAULT_255_2_778
10
9.4480729
20
52.8857263
40
0.0440291
50
184.890147
51
242.4389196
0
ARC
8
DEFAULT_255_2_778
10
9.8740395
20
53.0093055
40
0.4867841
50
182.7744684
51
195.1637688
0
ARC
8
DEFAULT_255_2_778
10
10.2962966
20
53.0464385
40
0.910496
50
179.9524781
51
183.8223003
0
ARC
8
DEFAULT_255_2_778
10
10.1143761
20
56.1162172
40
0.7286194
50
169.628684
51
180.6309474
0
ARC
8
DEFAULT_255_2_778
10
9.5219684
20
56.2326219
40
0.1251813
50
144.8576072
51
173.2256787
0
ARC
8
DEFAULT_255_2_778
10
9.4295956
20
56.2956882
40
0.0134398
50
98.1045594
51
138.020712
0
LINE
8
DEFAULT_255_2_778
10
11.0771009
20
41.0700937
11
10.9662009
21
37.3452937
0
LINE
8
DEFAULT_255_2_778
10
10.9662009
20
37.3452937
11
7.4573009
21
37.3452937
0
LINE
8
DEFAULT_255_2_778
10
7.4573009
20
37.3452937
11
7.4483009
21
41.0700937
0
LINE
8
DEFAULT_255_2_778
10
7.4483009
20
41.0700937
11
11.0771009
21
41.0700937
0
LINE
8
DEFAULT_255_2_778
10
7.4586009
20
41.0596937
11
7.5872009
21
40.9305937
0
LINE
8
DEFAULT_255_2_778
10
7.5872009
20
40.9305937
11
7.5872009
21
37.4753937
0
LINE
8
DEFAULT_255_2_778
10
7.5872009
20
37.4753937
11
7.4713009
21
37.3589937
0
LINE
8
DEFAULT_255_2_778
10
7.4713009
20
37.3589937
11
10.7180009
21
37.3589937
0
LINE
8
DEFAULT_255_2_778
10
10.7180009
20
37.3589937
11
10.7932009
21
37.3589937
0
LINE
8
DEFAULT_255_2_778
10
10.7932009
20
37.3589937
11
9.4277009
21
37.4716937
0
LINE
8
DEFAULT_255_2_778
10
9.3858009
20
37.6722937
11
9.3858009
21
40.7331937
0
LINE
8
DEFAULT_255_2_778
10
9.4277009
20
40.9340937
11
10.9053009
21
41.0559937
0
LINE
8
DEFAULT_255_2_778
10
10.9053009
20
41.0559937
11
10.9053009
21
41.0559937
0
LINE
8
DEFAULT_255_2_778
10
11.0969009
20
36.1619937
11
10.9860009
21
32.4371937
0
LINE
8
DEFAULT_255_2_778
10
10.9860009
20
32.4371937
11
7.4771009
21
32.4371937
0
LINE
8
DEFAULT_255_2_778
10
7.4771009
20
32.4371937
11
7.4681009
21
36.1619937
0
LINE
8
DEFAULT_255_2_778
10
7.4681009
20
36.1619937
11
11.0969009
21
36.1619937
0
LINE
8
DEFAULT_255_2_778
10
7.4785009
20
36.1516937
11
7.6070009
21
36.0225937
0
LINE
8
DEFAULT_255_2_778
10
7.6070009
20
36.0225937
11
7.6070009
21
32.5673937
0
LINE
8
DEFAULT_255_2_778
10
7.6070009
20
32.5673937
11
7.4912009
21
32.4509937
0
LINE
8
DEFAULT_255_2_778
10
7.4912009
20
32.4509937
11
10.7379009
21
32.4509937
0
LINE
8
DEFAULT_255_2_778
10
10.7379009
20
32.4509937
11
10.8130009
21
32.4509937
0
LINE
8
DEFAULT_255_2_778
10
10.8130009
20
32.4509937
11
9.4475009
21
32.5636937
0
LINE
8
DEFAULT_255_2_778
10
9.4057009
20
32.7642937
11
9.4057009
21
35.8251937
0
LINE
8
DEFAULT_255_2_778
10
9.4475009
20
36.0260937
11
10.9252009
21
36.1479937
0
LINE
8
DEFAULT_255_2_778
10
10.9252009
20
36.1479937
11
10.9252009
21
36.1479937
0
LINE
8
DEFAULT_255_2_778
10
11.0969009
20
31.1621937
11
10.9860009
21
27.4373937
0
LINE
8
DEFAULT_255_2_778
10
10.9860009
20
27.4373937
11
7.4771009
21
27.4373937
0
LINE
8
DEFAULT_255_2_778
10
7.4771009
20
27.4373937
11
7.4681009
21
31.1621937
0
LINE
8
DEFAULT_255_2_778
10
7.4681009
20
31.1621937
11
11.0969009
21
31.1621937
0
LINE
8
DEFAULT_255_2_778
10
7.4785009
20
31.1518937
11
7.6070009
21
31.0227937
0
LINE
8
DEFAULT_255_2_778
10
7.6070009
20
31.0227937
11
7.6070009
21
27.5675937
0
LINE
8
DEFAULT_255_2_778
10
7.6070009
20
27.5675937
11
7.4912009
21
27.4511937
0
LINE
8
DEFAULT_255_2_778
10
7.4912009
20
27.4511937
11
10.7379009
21
27.4511937
0
LINE
8
DEFAULT_255_2_778
10
10.7379009
20
27.4511937
11
10.8130009
21
27.4513937
0
LINE
8
DEFAULT_255_2_778
10
10.8130009
20
27.4513937
11
9.4475009
21
27.5640937
0
LINE
8
DEFAULT_255_2_778
10
9.4057009
20
27.7646937
11
9.4057009
21
30.8253937
0
LINE
8
DEFAULT_255_2_778
10
9.4475009
20
31.0261937
11
10.9252009
21
31.1481937
0
LINE
8
DEFAULT_255_2_778
10
10.9252009
20
31.1481937
11
10.9252009
21
31.1481937
0
LINE
8
DEFAULT_255_2_778
10
11.0771009
20
56.4449937
11
10.9662009
21
52.7201937
0
LINE
8
DEFAULT_255_2_778
10
10.9662009
20
52.7201937
11
7.4573009
21
52.7201937
0
LINE
8
DEFAULT_255_2_778
10
7.4573009
20
52.7201937
11
7.4483009
21
56.4449937
0
LINE
8
DEFAULT_255_2_778
10
7.4483009
20
56.4449937
11
11.0771009
21
56.4449937
0
LINE
8
DEFAULT_255_2_778
10
7.4586009
20
56.4346937
11
7.5872009
21
56.3055937
0
LINE
8
DEFAULT_255_2_778
10
7.5872009
20
56.3055937
11
7.5872009
21
52.8503937
0
LINE
8
DEFAULT_255_2_778
10
7.5872009
20
52.8503937
11
7.4713009
21
52.7339937
0
LINE
8
DEFAULT_255_2_778
10
7.4713009
20
52.7339937
11
10.7180009
21
52.7339937
0
LINE
8
DEFAULT_255_2_778
10
10.7180009
20
52.7339937
11
10.7932009
21
52.7339937
0
LINE
8
DEFAULT_255_2_778
10
10.7932009
20
52.7339937
11
9.4277009
21
52.8466937
0
LINE
8
DEFAULT_255_2_778
10
9.3858009
20
53.0471937
11
9.3858009
21
56.1081937
0
LINE
8
DEFAULT_255_2_778
10
9.4277009
20
56.3089937
11
10.9053009
21
56.4309937
0
LINE
8
DEFAULT_255_2_778
10
10.9053009
20
56.4309937
11
10.9053009
21
56.4309937
0
ARC
8
DEFAULT_255_2_778
10
9.4678803
20
47.9778602
40
0.0440037
50
184.795267
51
242.2922577
0
ARC
8
DEFAULT_255_2_778
10
9.8960727
20
48.1014765
40
0.4889043
50
182.7580079
51
195.0918678
0
ARC
8
DEFAULT_255_2_778
10
10.320843
20
48.1386422
40
0.915123
50
179.9524033
51
183.8026297
0
ARC
8
DEFAULT_255_2_778
10
10.1378721
20
51.2081358
40
0.7321959
50
169.6806861
51
180.6286389
0
ARC
8
DEFAULT_255_2_778
10
9.542131
20
51.3245999
40
0.125475
50
144.9906298
51
173.2734791
0
ARC
8
DEFAULT_255_2_778
10
9.4493159
20
51.3876776
40
0.0133601
50
98.1569108
51
138.1784334
0
LINE
8
DEFAULT_255_2_778
10
11.0969203
20
51.5372024
11
10.9860203
21
47.8124024
0
LINE
8
DEFAULT_255_2_778
10
10.9860203
20
47.8124024
11
7.4771203
21
47.8124024
0
LINE
8
DEFAULT_255_2_778
10
7.4771203
20
47.8124024
11
7.4681203
21
51.5372024
0
LINE
8
DEFAULT_255_2_778
10
7.4681203
20
51.5372024
11
11.0969203
21
51.5372024
0
LINE
8
DEFAULT_255_2_778
10
7.4784203
20
51.5269024
11
7.6070203
21
51.3978024
0
LINE
8
DEFAULT_255_2_778
10
7.6070203
20
51.3978024
11
7.6070203
21
47.9426024
0
LINE
8
DEFAULT_255_2_778
10
7.6070203
20
47.9426024
11
7.4911203
21
47.8262024
0
LINE
8
DEFAULT_255_2_778
10
7.4911203
20
47.8262024
11
10.7378203
21
47.8262024
0
LINE
8
DEFAULT_255_2_778
10
10.7378203
20
47.8262024
11
10.8130203
21
47.8262024
0
LINE
8
DEFAULT_255_2_778
10
10.8130203
20
47.8262024
11
9.4474203
21
47.9389024
0
LINE
8
DEFAULT_255_2_778
10
9.4057203
20
48.1394024
11
9.4057203
21
51.2001024
0
LINE
8
DEFAULT_255_2_778
10
9.4474203
20
51.4009024
11
10.9251203
21
51.5229024
0
LINE
8
DEFAULT_255_2_778
10
10.9251203
20
51.5229024
11
10.9251203
21
51.5229024
0
ARC
8
DEFAULT_255_2_778
10
9.4678803
20
42.9777602
40
0.0440037
50
184.795267
51
242.2922577
0
ARC
8
DEFAULT_255_2_778
10
9.8960727
20
43.1013765
40
0.4889043
50
182.7580079
51
195.0918678
0
ARC
8
DEFAULT_255_2_778
10
10.320843
20
43.1385422
40
0.915123
50
179.9524033
51
183.8026297
0
ARC
8
DEFAULT_255_2_778
10
10.1378721
20
46.2080358
40
0.7321959
50
169.6806861
51
180.6286389
0
ARC
8
DEFAULT_255_2_778
10
9.542131
20
46.3244999
40
0.125475
50
144.9906298
51
173.2734791
0
ARC
8
DEFAULT_255_2_778
10
9.4493159
20
46.3875776
40
0.0133601
50
98.1569108
51
138.1784334
0
LINE
8
DEFAULT_255_2_778
10
11.0969203
20
46.5371024
11
10.9860203
21
42.8123024
0
LINE
8
DEFAULT_255_2_778
10
10.9860203
20
42.8123024
11
7.4771203
21
42.8123024
0
LINE
8
DEFAULT_255_2_778
10
7.4771203
20
42.8123024
11
7.4681203
21
46.5371024
0
LINE
8
DEFAULT_255_2_778
10
7.4681203
20
46.5371024
11
11.0969203
21
46.5371024
0
LINE
8
DEFAULT_255_2_778
10
7.4784203
20
46.5268024
11
7.6070203
21
46.3977024
0
LINE
8
DEFAULT_255_2_778
10
7.6070203
20
46.3977024
11
7.6070203
21
42.9425024
0
LINE
8
DEFAULT_255_2_778
10
7.6070203
20
42.9425024
11
7.4911203
21
42.8261024
0
LINE
8
DEFAULT_255_2_778
10
7.4911203
20
42.8261024
11
10.7378203
21
42.8261024
0
LINE
8
DEFAULT_255_2_778
10
10.7378203
20
42.8261024
11
10.8130203
21
42.8261024
0
LINE
8
DEFAULT_255_2_778
10
10.8130203
20
42.8261024
11
9.4474203
21
42.9388024
0
LINE
8
DEFAULT_255_2_778
10
9.4057203
20
43.1393024
11
9.4057203
21
46.2000024
0
LINE
8
DEFAULT_255_2_778
10
9.4474203
20
46.4008024
11
10.9251203
21
46.5228024
0
LINE
8
DEFAULT_255_2_778
10
10.9251203
20
46.5228024
11
10.9251203
21
46.5228024
0
ARC
8
DEFAULT_255_2_778
10
9.4480963
20
68.135735
40
0.0440291
50
184.890147
51
242.4389196
0
ARC
8
DEFAULT_255_2_778
10
9.874063
20
68.2593142
40
0.4867841
50
182.7744684
51
195.1637688
0
ARC
8
DEFAULT_255_2_778
10
10.2963201
20
68.2964472
40
0.910496
50
179.9524781
51
183.8223003
0
ARC
8
DEFAULT_255_2_778
10
10.1143996
20
71.3659259
40
0.7286194
50
169.628684
51
180.6309474
0
ARC
8
DEFAULT_255_2_778
10
9.5219919
20
71.4823306
40
0.1251813
50
144.8576072
51
173.2256787
0
ARC
8
DEFAULT_255_2_778
10
9.4296191
20
71.5453969
40
0.0134398
50
98.1045594
51
138.020712
0
LINE
8
DEFAULT_255_2_778
10
11.0771244
20
71.6950024
11
10.9662244
21
67.9702024
0
LINE
8
DEFAULT_255_2_778
10
10.9662244
20
67.9702024
11
7.4573244
21
67.9702024
0
LINE
8
DEFAULT_255_2_778
10
7.4573244
20
67.9702024
11
7.4483244
21
71.6950024
0
LINE
8
DEFAULT_255_2_778
10
7.4483244
20
71.6950024
11
11.0771244
21
71.6950024
0
LINE
8
DEFAULT_255_2_778
10
7.4586244
20
71.6847024
11
7.5872244
21
71.5556024
0
LINE
8
DEFAULT_255_2_778
10
7.5872244
20
71.5556024
11
7.5872244
21
68.1004024
0
LINE
8
DEFAULT_255_2_778
10
7.5872244
20
68.1004024
11
7.4713244
21
67.9840024
0
LINE
8
DEFAULT_255_2_778
10
7.4713244
20
67.9840024
11
10.7180244
21
67.9840024
0
LINE
8
DEFAULT_255_2_778
10
10.7180244
20
67.9840024
11
10.7932244
21
67.9840024
0
LINE
8
DEFAULT_255_2_778
10
10.7932244
20
67.9840024
11
9.4277244
21
68.0967024
0
LINE
8
DEFAULT_255_2_778
10
9.3858244
20
68.2972024
11
9.3858244
21
71.3579024
0
LINE
8
DEFAULT_255_2_778
10
9.4277244
20
71.5587024
11
10.9053244
21
71.6807024
0
LINE
8
DEFAULT_255_2_778
10
10.9053244
20
71.6807024
11
10.9053244
21
71.6807024
0
ARC
8
DEFAULT_255_2_778
10
9.4678803
20
63.2279602
40
0.0440037
50
184.795267
51
242.2922577
0
ARC
8
DEFAULT_255_2_778
10
9.8960727
20
63.3515765
40
0.4889043
50
182.7580079
51
195.0918678
0
ARC
8
DEFAULT_255_2_778
10
10.320843
20
63.3887422
40
0.915123
50
179.9524033
51
183.8026297
0
ARC
8
DEFAULT_255_2_778
10
10.1378721
20
66.4582358
40
0.7321959
50
169.6806861
51
180.6286389
0
ARC
8
DEFAULT_255_2_778
10
9.542131
20
66.5746999
40
0.125475
50
144.9906298
51
173.2734791
0
ARC
8
DEFAULT_255_2_778
10
9.4493159
20
66.6377776
40
0.0133601
50
98.1569108
51
138.1784334
0
LINE
8
DEFAULT_255_2_778
10
11.0969203
20
66.7873024
11
10.9860203
21
63.0625024
0
LINE
8
DEFAULT_255_2_778
10
10.9860203
20
63.0625024
11
7.4771203
21
63.0625024
0
LINE
8
DEFAULT_255_2_778
10
7.4771203
20
63.0625024
11
7.4681203
21
66.7873024
0
LINE
8
DEFAULT_255_2_778
10
7.4681203
20
66.7873024
11
11.0969203
21
66.7873024
0
LINE
8
DEFAULT_255_2_778
10
7.4784203
20
66.7770024
11
7.6070203
21
66.6479024
0
LINE
8
DEFAULT_255_2_778
10
7.6070203
20
66.6479024
11
7.6070203
21
63.1927024
0
LINE
8
DEFAULT_255_2_778
10
7.6070203
20
63.1927024
11
7.4911203
21
63.0763024
0
LINE
8
DEFAULT_255_2_778
10
7.4911203
20
63.0763024
11
10.7378203
21
63.0763024
0
LINE
8
DEFAULT_255_2_778
10
10.7378203
20
63.0763024
11
10.8130203
21
63.0763024
0
LINE
8
DEFAULT_255_2_778
10
10.8130203
20
63.0763024
11
9.4474203
21
63.1890024
0
LINE
8
DEFAULT_255_2_778
10
9.4057203
20
63.3895024
11
9.4057203
21
66.4502024
0
LINE
8
DEFAULT_255_2_778
10
9.4474203
20
66.6510024
11
10.9251203
21
66.7730024
0
LINE
8
DEFAULT_255_2_778
10
10.9251203
20
66.7730024
11
10.9251203
21
66.7730024
0
ARC
8
DEFAULT_255_2_778
10
9.4678803
20
58.2278602
40
0.0440037
50
184.795267
51
242.2922577
0
ARC
8
DEFAULT_255_2_778
10
9.8960727
20
58.3514765
40
0.4889043
50
182.7580079
51
195.0918678
0
ARC
8
DEFAULT_255_2_778
10
10.320843
20
58.3886422
40
0.915123
50
179.9524033
51
183.8026297
0
ARC
8
DEFAULT_255_2_778
10
10.1378721
20
61.4581358
40
0.7321959
50
169.6806861
51
180.6286389
0
ARC
8
DEFAULT_255_2_778
10
9.542131
20
61.5745999
40
0.125475
50
144.9906298
51
173.2734791
0
ARC
8
DEFAULT_255_2_778
10
9.4493159
20
61.6376776
40
0.0133601
50
98.1569108
51
138.1784334
0
LINE
8
DEFAULT_255_2_778
10
11.0969203
20
61.7872024
11
10.9860203
21
58.0624024
0
LINE
8
DEFAULT_255_2_778
10
10.9860203
20
58.0624024
11
7.4771203
21
58.0624024
0
LINE
8
DEFAULT_255_2_778
10
7.4771203
20
58.0624024
11
7.4681203
21
61.7872024
0
LINE
8
DEFAULT_255_2_778
10
7.4681203
20
61.7872024
11
11.0969203
21
61.7872024
0
LINE
8
DEFAULT_255_2_778
10
7.4784203
20
61.7769024
11
7.6070203
21
61.6478024
0
LINE
8
DEFAULT_255_2_778
10
7.6070203
20
61.6478024
11
7.6070203
21
58.1926024
0
LINE
8
DEFAULT_255_2_778
10
7.6070203
20
58.1926024
11
7.4911203
21
58.0762024
0
LINE
8
DEFAULT_255_2_778
10
7.4911203
20
58.0762024
11
10.7378203
21
58.0762024
0
LINE
8
DEFAULT_255_2_778
10
10.7378203
20
58.0762024
11
10.8130203
21
58.0762024
0
LINE
8
DEFAULT_255_2_778
10
10.8130203
20
58.0762024
11
9.4474203
21
58.1889024
0
LINE
8
DEFAULT_255_2_778
10
9.4057203
20
58.3894024
11
9.4057203
21
61.4501024
0
LINE
8
DEFAULT_255_2_778
10
9.4474203
20
61.6509024
11
10.9251203
21
61.7729024
0
LINE
8
DEFAULT_255_2_778
10
10.9251203
20
61.7729024
11
10.9251203
21
61.7729024
0
ARC
8
DEFAULT_255_2_778
10
9.4480963
20
83.385831
40
0.0440291
50
184.890147
51
242.4389196
0
ARC
8
DEFAULT_255_2_778
10
9.874063
20
83.5094101
40
0.4867841
50
182.7744684
51
195.1637688
0
ARC
8
DEFAULT_255_2_778
10
10.2963201
20
83.5465432
40
0.910496
50
179.9524781
51
183.8223003
0
ARC
8
DEFAULT_255_2_778
10
10.1143996
20
86.6160219
40
0.7286194
50
169.628684
51
180.6309474
0
ARC
8
DEFAULT_255_2_778
10
9.5219919
20
86.7324266
40
0.1251813
50
144.8576072
51
173.2256787
0
ARC
8
DEFAULT_255_2_778
10
9.4296191
20
86.7954929
40
0.0134398
50
98.1045594
51
138.020712
0
LINE
8
DEFAULT_255_2_778
10
11.0771244
20
86.9450984
11
10.9662244
21
83.2202984
0
LINE
8
DEFAULT_255_2_778
10
10.9662244
20
83.2202984
11
7.4573244
21
83.2202984
0
LINE
8
DEFAULT_255_2_778
10
7.4573244
20
83.2202984
11
7.4483244
21
86.9450984
0
LINE
8
DEFAULT_255_2_778
10
7.4483244
20
86.9450984
11
11.0771244
21
86.9450984
0
LINE
8
DEFAULT_255_2_778
10
7.4586244
20
86.9344984
11
7.5872244
21
86.8053984
0
LINE
8
DEFAULT_255_2_778
10
7.5872244
20
86.8053984
11
7.5872244
21
83.3501984
0
LINE
8
DEFAULT_255_2_778
10
7.5872244
20
83.3501984
11
7.4713244
21
83.2337984
0
LINE
8
DEFAULT_255_2_778
10
7.4713244
20
83.2337984
11
10.7180244
21
83.2337984
0
LINE
8
DEFAULT_255_2_778
10
10.7180244
20
83.2337984
11
10.7932244
21
83.2340984
0
LINE
8
DEFAULT_255_2_778
10
10.7932244
20
83.2340984
11
9.4277244
21
83.3467984
0
LINE
8
DEFAULT_255_2_778
10
9.3858244
20
83.5472984
11
9.3858244
21
86.6079984
0
LINE
8
DEFAULT_255_2_778
10
9.4277244
20
86.8087984
11
10.9053244
21
86.9307984
0
LINE
8
DEFAULT_255_2_778
10
10.9053244
20
86.9307984
11
10.9053244
21
86.9307984
0
ARC
8
DEFAULT_255_2_778
10
9.4680941
20
78.4777938
40
0.0442215
50
184.8470437
51
242.1275304
0
ARC
8
DEFAULT_255_2_778
10
9.8964932
20
78.6014128
40
0.4893262
50
182.7599766
51
195.0859153
0
ARC
8
DEFAULT_255_2_778
10
10.3208813
20
78.6385428
40
0.9151614
50
179.9524416
51
183.8025535
0
ARC
8
DEFAULT_255_2_778
10
10.1386207
20
81.7079185
40
0.7329442
50
169.6860817
51
180.6266435
0
ARC
8
DEFAULT_255_2_778
10
9.5423187
20
81.8244367
40
0.1256628
50
145.0175759
51
173.2780412
0
ARC
8
DEFAULT_255_2_778
10
9.4493171
20
81.8875832
40
0.0133546
50
98.1652346
51
138.2122556
0
LINE
8
DEFAULT_255_2_778
10
11.0969203
20
82.0373024
11
10.9860203
21
78.3125024
0
LINE
8
DEFAULT_255_2_778
10
10.9860203
20
78.3125024
11
7.4771203
21
78.3125024
0
LINE
8
DEFAULT_255_2_778
10
7.4771203
20
78.3125024
11
7.4681203
21
82.0373024
0
LINE
8
DEFAULT_255_2_778
10
7.4681203
20
82.0373024
11
11.0969203
21
82.0373024
0
LINE
8
DEFAULT_255_2_778
10
7.4784203
20
82.0267024
11
7.6070203
21
81.8976024
0
LINE
8
DEFAULT_255_2_778
10
7.6070203
20
81.8976024
11
7.6070203
21
78.4424024
0
LINE
8
DEFAULT_255_2_778
10
7.6070203
20
78.4424024
11
7.4911203
21
78.3260024
0
LINE
8
DEFAULT_255_2_778
10
7.4911203
20
78.3260024
11
10.7378203
21
78.3260024
0
LINE
8
DEFAULT_255_2_778
10
10.7378203
20
78.3260024
11
10.8130203
21
78.3260024
0
LINE
8
DEFAULT_255_2_778
10
10.8130203
20
78.3260024
11
9.4474203
21
78.4387024
0
LINE
8
DEFAULT_255_2_778
10
9.4057203
20
78.6393024
11
9.4057203
21
81.6999024
0
LINE
8
DEFAULT_255_2_778
10
9.4474203
20
81.9008024
11
10.9251203
21
82.0227024
0
LINE
8
DEFAULT_255_2_778
10
10.9251203
20
82.0227024
11
10.9251203
21
82.0227024
0
ARC
8
DEFAULT_255_2_778
10
9.4678601
20
73.4778804
40
0.0439806
50
184.832827
51
242.4247962
0
ARC
8
DEFAULT_255_2_778
10
9.8948554
20
73.6013887
40
0.4877032
50
182.7552597
51
195.1200474
0
ARC
8
DEFAULT_255_2_778
10
10.3204526
20
73.6386353
40
0.9147521
50
179.9523667
51
183.8041566
0
ARC
8
DEFAULT_255_2_778
10
10.1367331
20
76.708162
40
0.7310767
50
169.6673378
51
180.6321801
0
ARC
8
DEFAULT_255_2_778
10
9.5417859
20
76.8246211
40
0.1251365
50
144.8975817
51
173.2680592
0
ARC
8
DEFAULT_255_2_778
10
9.4493925
20
76.8876049
40
0.0134247
50
98.1002569
51
138.0472969
0
ARC
8
DEFAULT_255_2_778
10
9.4480799
20
98.7607313
40
0.044035
50
184.8727372
51
242.4326254
0
ARC
8
DEFAULT_255_2_778
10
9.8748521
20
98.8844197
40
0.4875937
50
182.7646756
51
195.1497289
0
ARC
8
DEFAULT_255_2_778
10
10.3001955
20
98.9217271
40
0.9143949
50
179.9518345
51
183.8141534
0
ARC
8
DEFAULT_255_2_778
10
10.1143761
20
101.9912192
40
0.7286194
50
169.628684
51
180.6309474
0
ARC
8
DEFAULT_255_2_778
10
9.5219684
20
102.1076239
40
0.1251813
50
144.8576072
51
173.2256787
0
ARC
8
DEFAULT_255_2_778
10
9.4295956
20
102.1706902
40
0.0134398
50
98.1045594
51
138.020712
0
LINE
8
DEFAULT_255_2_778
10
11.0969009
20
77.0371957
11
10.9860009
21
73.3123957
0
LINE
8
DEFAULT_255_2_778
10
10.9860009
20
73.3123957
11
7.4771009
21
73.3123957
0
LINE
8
DEFAULT_255_2_778
10
7.4771009
20
73.3123957
11
7.4681009
21
77.0371957
0
LINE
8
DEFAULT_255_2_778
10
7.4681009
20
77.0371957
11
11.0969009
21
77.0371957
0
LINE
8
DEFAULT_255_2_778
10
7.4785009
20
77.0265957
11
7.6070009
21
76.8974957
0
LINE
8
DEFAULT_255_2_778
10
7.6070009
20
76.8974957
11
7.6070009
21
73.4422957
0
LINE
8
DEFAULT_255_2_778
10
7.6070009
20
73.4422957
11
7.4912009
21
73.3258957
0
LINE
8
DEFAULT_255_2_778
10
7.4912009
20
73.3258957
11
10.7379009
21
73.3258957
0
LINE
8
DEFAULT_255_2_778
10
10.7379009
20
73.3258957
11
10.8130009
21
73.3261957
0
LINE
8
DEFAULT_255_2_778
10
10.8130009
20
73.3261957
11
9.4475009
21
73.4388957
0
LINE
8
DEFAULT_255_2_778
10
9.4057009
20
73.6393957
11
9.4057009
21
76.7000957
0
LINE
8
DEFAULT_255_2_778
10
9.4475009
20
76.9008957
11
10.9252009
21
77.0228957
0
LINE
8
DEFAULT_255_2_778
10
10.9252009
20
77.0228957
11
10.9252009
21
77.0228957
0
LINE
8
DEFAULT_255_2_778
10
11.0771009
20
102.3199957
11
10.9662009
21
98.5951957
0
LINE
8
DEFAULT_255_2_778
10
10.9662009
20
98.5951957
11
7.4573009
21
98.5951957
0
LINE
8
DEFAULT_255_2_778
10
7.4573009
20
98.5951957
11
7.4483009
21
102.3199957
0
LINE
8
DEFAULT_255_2_778
10
7.4483009
20
102.3199957
11
11.0771009
21
102.3199957
0
LINE
8
DEFAULT_255_2_778
10
7.4586009
20
102.3093957
11
7.5872009
21
102.1802957
0
LINE
8
DEFAULT_255_2_778
10
7.5872009
20
102.1802957
11
7.5872009
21
98.7250957
0
LINE
8
DEFAULT_255_2_778
10
7.5872009
20
98.7250957
11
7.4713009
21
98.6086957
0
LINE
8
DEFAULT_255_2_778
10
7.4713009
20
98.6086957
11
10.7180009
21
98.6086957
0
LINE
8
DEFAULT_255_2_778
10
10.7180009
20
98.6086957
11
10.7932009
21
98.6089957
0
LINE
8
DEFAULT_255_2_778
10
10.7932009
20
98.6089957
11
9.4277009
21
98.7216957
0
LINE
8
DEFAULT_255_2_778
10
9.3858009
20
98.9224957
11
9.3858009
21
101.9831957
0
LINE
8
DEFAULT_255_2_778
10
9.4277009
20
102.1839957
11
10.9053009
21
102.3059957
0
LINE
8
DEFAULT_255_2_778
10
10.9053009
20
102.3059957
11
10.9053009
21
102.3059957
0
ARC
8
DEFAULT_255_2_778
10
9.4680941
20
93.8526938
40
0.0442215
50
184.8470437
51
242.1275304
0
ARC
8
DEFAULT_255_2_778
10
9.8964932
20
93.9763128
40
0.4893262
50
182.7599766
51
195.0859153
0
ARC
8
DEFAULT_255_2_778
10
10.3208813
20
94.0134428
40
0.9151614
50
179.9524416
51
183.8025535
0
ARC
8
DEFAULT_255_2_778
10
10.1348589
20
97.0830624
40
0.7291843
50
169.5824135
51
180.6411889
0
ARC
8
DEFAULT_255_2_778
10
9.5390572
20
97.2006061
40
0.1222033
50
144.464308
51
173.2760674
0
ARC
8
DEFAULT_255_2_778
10
9.4492357
20
97.2627002
40
0.0131283
50
97.9482698
51
137.1304351
0
LINE
8
DEFAULT_255_2_778
10
11.0969203
20
97.4122024
11
10.9860203
21
93.6874024
0
LINE
8
DEFAULT_255_2_778
10
10.9860203
20
93.6874024
11
7.4771203
21
93.6874024
0
LINE
8
DEFAULT_255_2_778
10
7.4771203
20
93.6874024
11
7.4681203
21
97.4122024
0
LINE
8
DEFAULT_255_2_778
10
7.4681203
20
97.4122024
11
11.0969203
21
97.4122024
0
LINE
8
DEFAULT_255_2_778
10
7.4784203
20
97.4016024
11
7.6070203
21
97.2725024
0
LINE
8
DEFAULT_255_2_778
10
7.6070203
20
97.2725024
11
7.6070203
21
93.8173024
0
LINE
8
DEFAULT_255_2_778
10
7.6070203
20
93.8173024
11
7.4911203
21
93.7009024
0
LINE
8
DEFAULT_255_2_778
10
7.4911203
20
93.7009024
11
10.7378203
21
93.7009024
0
LINE
8
DEFAULT_255_2_778
10
10.7378203
20
93.7009024
11
10.8130203
21
93.7009024
0
LINE
8
DEFAULT_255_2_778
10
10.8130203
20
93.7009024
11
9.4474203
21
93.8136024
0
LINE
8
DEFAULT_255_2_778
10
9.4057203
20
94.0142024
11
9.4057203
21
97.0749024
0
LINE
8
DEFAULT_255_2_778
10
9.4474203
20
97.2757024
11
10.9251203
21
97.3976024
0
LINE
8
DEFAULT_255_2_778
10
10.9251203
20
97.3976024
11
10.9251203
21
97.3976024
0
ARC
8
DEFAULT_255_2_778
10
9.4678874
20
88.8527653
40
0.0440096
50
184.7779208
51
242.2859419
0
ARC
8
DEFAULT_255_2_778
10
9.8968894
20
88.9764908
40
0.489718
50
182.7482676
51
195.0778889
0
ARC
8
DEFAULT_255_2_778
10
10.3247618
20
89.0138307
40
0.9190419
50
179.9517638
51
183.7945246
0
ARC
8
DEFAULT_255_2_778
10
10.1348589
20
92.0834645
40
0.7291843
50
169.5824135
51
180.6411889
0
ARC
8
DEFAULT_255_2_778
10
9.5390572
20
92.2010081
40
0.1222033
50
144.464308
51
173.2760674
0
ARC
8
DEFAULT_255_2_778
10
9.4492357
20
92.2631022
40
0.0131283
50
97.9482698
51
137.1304351
0
LINE
8
DEFAULT_255_2_778
10
11.0969203
20
92.4121044
11
10.9860203
21
88.6873044
0
LINE
8
DEFAULT_255_2_778
10
10.9860203
20
88.6873044
11
7.4771203
21
88.6873044
0
LINE
8
DEFAULT_255_2_778
10
7.4771203
20
88.6873044
11
7.4681203
21
92.4121044
0
LINE
8
DEFAULT_255_2_778
10
7.4681203
20
92.4121044
11
11.0969203
21
92.4121044
0
LINE
8
DEFAULT_255_2_778
10
7.4784203
20
92.4015044
11
7.6070203
21
92.2724044
0
LINE
8
DEFAULT_255_2_778
10
7.6070203
20
92.2724044
11
7.6070203
21
88.8172044
0
LINE
8
DEFAULT_255_2_778
10
7.6070203
20
88.8172044
11
7.4911203
21
88.7008044
0
LINE
8
DEFAULT_255_2_778
10
7.4911203
20
88.7008044
11
10.7378203
21
88.7008044
0
LINE
8
DEFAULT_255_2_778
10
10.7378203
20
88.7008044
11
10.8130203
21
88.7010044
0
LINE
8
DEFAULT_255_2_778
10
10.8130203
20
88.7010044
11
9.4474203
21
88.8138044
0
LINE
8
DEFAULT_255_2_778
10
9.4057203
20
89.0146044
11
9.4057203
21
92.0753044
0
LINE
8
DEFAULT_255_2_778
10
9.4474203
20
92.2761044
11
10.9251203
21
92.3981044
0
LINE
8
DEFAULT_255_2_778
10
10.9251203
20
92.3981044
11
10.9251203
21
92.3981044
0
LINE
8
DEFAULT_255_2_778
10
3.5170802
20
17.7994001
11
3.6974802
21
17.8275001
0
LINE
8
DEFAULT_255_2_778
10
3.6974802
20
17.8275001
11
3.6974802
21
20.4315001
0
LINE
8
DEFAULT_255_2_778
10
3.5170802
20
12.7009001
11
3.6974802
21
12.7290001
0
LINE
8
DEFAULT_255_2_778
10
3.6974802
20
12.7290001
11
3.6974802
21
15.3330001
0
LINE
8
DEFAULT_255_2_778
10
3.5170802
20
27.9967001
11
3.6974802
21
28.0248001
0
LINE
8
DEFAULT_255_2_778
10
3.6974802
20
28.0248001
11
3.6974802
21
30.6288001
0
LINE
8
DEFAULT_255_2_778
10
3.5170802
20
22.8982001
11
3.6974802
21
22.9263001
0
LINE
8
DEFAULT_255_2_778
10
3.6974802
20
22.9263001
11
3.6974802
21
25.5303001
0
LINE
8
DEFAULT_255_2_778
10
5.993807
20
17.696171
11
5.443207
21
16.997171
0
LINE
8
DEFAULT_255_2_778
10
5.443207
20
16.997171
11
5.405607
21
17.046071
0
LINE
8
DEFAULT_255_2_778
10
5.405607
20
17.046071
11
2.587607
21
17.046071
0
LINE
8
DEFAULT_255_2_778
10
2.587607
20
17.046071
11
2.304207
21
21.257771
0
LINE
8
DEFAULT_255_2_778
10
2.304207
20
21.257771
11
5.405907
21
21.257771
0
LINE
8
DEFAULT_255_2_778
10
5.405907
20
21.257771
11
5.458807
21
21.261171
0
LINE
8
DEFAULT_255_2_778
10
5.458807
20
21.261171
11
6.270007
21
20.385671
0
LINE
8
DEFAULT_255_2_778
10
6.270007
20
20.385671
11
6.488607
21
20.135671
0
LINE
8
DEFAULT_255_2_778
10
5.994107
20
12.597671
11
5.443507
21
11.898671
0
LINE
8
DEFAULT_255_2_778
10
5.443507
20
11.898671
11
5.405907
21
11.947571
0
LINE
8
DEFAULT_255_2_778
10
5.405907
20
11.947571
11
2.587607
21
11.947571
0
LINE
8
DEFAULT_255_2_778
10
2.587607
20
11.947571
11
2.304207
21
16.159271
0
LINE
8
DEFAULT_255_2_778
10
2.304207
20
16.159271
11
5.405907
21
16.159271
0
LINE
8
DEFAULT_255_2_778
10
5.405907
20
16.159271
11
5.458807
21
16.162671
0
LINE
8
DEFAULT_255_2_778
10
5.458807
20
16.162671
11
6.270007
21
15.287171
0
LINE
8
DEFAULT_255_2_778
10
6.270007
20
15.287171
11
6.488607
21
15.037071
0
LINE
8
DEFAULT_255_2_778
10
3.7137271
20
20.4188019
11
3.7137271
21
17.8399019
0
LINE
8
DEFAULT_255_2_778
10
3.7137271
20
17.8399019
11
5.9846271
21
17.8399019
0
LINE
8
DEFAULT_255_2_778
10
5.9846271
20
17.8399019
11
6.0187271
21
17.7992019
0
LINE
8
DEFAULT_255_2_778
10
6.0187271
20
17.7992019
11
3.5171271
21
17.7994019
0
LINE
8
DEFAULT_255_2_778
10
3.5171271
20
17.7994019
11
3.2774271
21
17.6962019
0
LINE
8
DEFAULT_255_2_778
10
3.7137271
20
15.3203019
11
3.7137271
21
12.7414019
0
LINE
8
DEFAULT_255_2_778
10
3.7137271
20
12.7414019
11
5.9846271
21
12.7414019
0
LINE
8
DEFAULT_255_2_778
10
5.9846271
20
12.7414019
11
6.0187271
21
12.7006019
0
LINE
8
DEFAULT_255_2_778
10
6.0187271
20
12.7006019
11
3.5171271
21
12.7009019
0
LINE
8
DEFAULT_255_2_778
10
3.5171271
20
12.7009019
11
3.2774271
21
12.5977019
0
LINE
8
DEFAULT_255_2_778
10
3.5171271
20
38.1940019
11
3.6976271
21
38.2221019
0
LINE
8
DEFAULT_255_2_778
10
3.6976271
20
38.2221019
11
3.6976271
21
40.8261019
0
LINE
8
DEFAULT_255_2_778
10
3.5171271
20
33.0955019
11
3.6976271
21
33.1236019
0
LINE
8
DEFAULT_255_2_778
10
3.6976271
20
33.1236019
11
3.6976271
21
35.7149019
0
LINE
8
DEFAULT_255_2_778
10
5.993807
20
27.893471
11
5.443207
21
27.194471
0
LINE
8
DEFAULT_255_2_778
10
5.443207
20
27.194471
11
5.405607
21
27.243371
0
LINE
8
DEFAULT_255_2_778
10
5.405607
20
27.243371
11
2.587607
21
27.243371
0
LINE
8
DEFAULT_255_2_778
10
2.587607
20
27.243371
11
2.304207
21
31.455071
0
LINE
8
DEFAULT_255_2_778
10
2.304207
20
31.455071
11
5.405907
21
31.455071
0
LINE
8
DEFAULT_255_2_778
10
5.405907
20
31.455071
11
5.458807
21
31.458471
0
LINE
8
DEFAULT_255_2_778
10
5.458807
20
31.458471
11
6.270007
21
30.582971
0
LINE
8
DEFAULT_255_2_778
10
6.270007
20
30.582971
11
6.488607
21
30.332971
0
LINE
8
DEFAULT_255_2_778
10
5.994107
20
22.794971
11
5.443507
21
22.095971
0
LINE
8
DEFAULT_255_2_778
10
5.443507
20
22.095971
11
5.405907
21
22.144871
0
LINE
8
DEFAULT_255_2_778
10
5.405907
20
22.144871
11
2.587607
21
22.144871
0
LINE
8
DEFAULT_255_2_778
10
2.587607
20
22.144871
11
2.304207
21
26.356471
0
LINE
8
DEFAULT_255_2_778
10
2.304207
20
26.356471
11
5.405907
21
26.356471
0
LINE
8
DEFAULT_255_2_778
10
5.405907
20
26.356471
11
5.458807
21
26.359971
0
LINE
8
DEFAULT_255_2_778
10
5.458807
20
26.359971
11
6.270007
21
25.484471
0
LINE
8
DEFAULT_255_2_778
10
6.270007
20
25.484471
11
6.488607
21
25.234371
0
LINE
8
DEFAULT_255_2_778
10
3.7137271
20
25.5175823
11
3.7137271
21
22.9386823
0
LINE
8
DEFAULT_255_2_778
10
3.7137271
20
22.9386823
11
5.9846271
21
22.9386823
0
LINE
8
DEFAULT_255_2_778
10
5.9846271
20
22.9386823
11
6.0187271
21
22.8979823
0
LINE
8
DEFAULT_255_2_778
10
6.0187271
20
22.8979823
11
3.5171271
21
22.8981823
0
LINE
8
DEFAULT_255_2_778
10
3.5171271
20
22.8981823
11
3.2774271
21
22.7949823
0
LINE
8
DEFAULT_255_2_778
10
5.984634
20
25.5173726
11
6.018734
21
25.5580726
0
LINE
8
DEFAULT_255_2_778
10
6.018734
20
25.5580726
11
3.517134
21
25.5580726
0
LINE
8
DEFAULT_255_2_778
10
3.517134
20
25.5580726
11
3.697534
21
25.5300726
0
LINE
8
DEFAULT_255_2_778
10
3.697534
20
25.5300726
11
3.713734
21
25.5175726
0
LINE
8
DEFAULT_255_2_778
10
3.713734
20
25.5175726
11
5.984634
21
25.5175726
0
LINE
8
DEFAULT_255_2_778
10
5.984634
20
25.5175726
11
6.328634
21
25.1132726
0
LINE
8
DEFAULT_255_2_778
10
6.328634
20
25.1132726
11
6.328634
21
23.3432726
0
LINE
8
DEFAULT_255_2_778
10
6.328634
20
23.3432726
11
6.484734
21
23.2249726
0
LINE
8
DEFAULT_255_2_778
10
6.484734
20
23.2249726
11
6.488634
21
25.2344726
0
LINE
8
DEFAULT_255_2_778
10
6.488634
20
25.2344726
11
6.328634
21
25.1132726
0
LINE
8
DEFAULT_255_2_778
10
5.984634
20
20.4190726
11
6.018734
21
20.4597726
0
LINE
8
DEFAULT_255_2_778
10
6.018734
20
20.4597726
11
3.517134
21
20.4597726
0
LINE
8
DEFAULT_255_2_778
10
3.517134
20
20.4597726
11
3.697534
21
20.4317726
0
LINE
8
DEFAULT_255_2_778
10
3.697534
20
20.4317726
11
3.713734
21
20.4193726
0
LINE
8
DEFAULT_255_2_778
10
3.713734
20
20.4193726
11
5.984634
21
20.4193726
0
LINE
8
DEFAULT_255_2_778
10
5.984634
20
20.4193726
11
6.328634
21
20.0150726
0
LINE
8
DEFAULT_255_2_778
10
6.328634
20
20.0150726
11
6.328634
21
18.2449726
0
LINE
8
DEFAULT_255_2_778
10
6.328634
20
18.2449726
11
6.484734
21
18.1267726
0
LINE
8
DEFAULT_255_2_778
10
6.484734
20
18.1267726
11
6.488634
21
20.1362726
0
LINE
8
DEFAULT_255_2_778
10
6.488634
20
20.1362726
11
6.328634
21
20.0150726
0
LINE
8
DEFAULT_255_2_778
10
5.4530617
20
26.3478556
11
5.9938617
21
25.6612556
0
LINE
8
DEFAULT_255_2_778
10
5.9938617
20
25.6612556
11
3.2773617
21
25.6612556
0
LINE
8
DEFAULT_255_2_778
10
3.2773617
20
25.6612556
11
3.5170617
21
25.5580556
0
LINE
8
DEFAULT_255_2_778
10
5.4530617
20
21.2493556
11
5.9938617
21
20.5627556
0
LINE
8
DEFAULT_255_2_778
10
5.9938617
20
20.5627556
11
3.2773617
21
20.5627556
0
LINE
8
DEFAULT_255_2_778
10
3.2773617
20
20.5627556
11
3.5170617
21
20.4595556
0
LINE
8
DEFAULT_255_2_778
10
3.7136841
20
30.6160199
11
3.7136841
21
28.0371199
0
LINE
8
DEFAULT_255_2_778
10
3.7136841
20
28.0371199
11
5.9845841
21
28.0371199
0
LINE
8
DEFAULT_255_2_778
10
5.9845841
20
28.0371199
11
6.0186841
21
27.9964199
0
LINE
8
DEFAULT_255_2_778
10
6.0186841
20
27.9964199
11
3.5170841
21
27.9966199
0
LINE
8
DEFAULT_255_2_778
10
3.7137271
20
35.7148163
11
3.7137271
21
33.1359163
0
LINE
8
DEFAULT_255_2_778
10
3.7137271
20
33.1359163
11
5.9846271
21
33.1359163
0
LINE
8
DEFAULT_255_2_778
10
5.9846271
20
33.1359163
11
6.0187271
21
33.0952163
0
LINE
8
DEFAULT_255_2_778
10
6.0187271
20
33.0952163
11
3.5171271
21
33.0954163
0
LINE
8
DEFAULT_255_2_778
10
3.5171271
20
33.0954163
11
3.2774271
21
32.9922163
0
LINE
8
DEFAULT_255_2_778
10
5.4531271
20
31.4465163
11
5.9939271
21
30.7600163
0
LINE
8
DEFAULT_255_2_778
10
5.9939271
20
30.7600163
11
3.2774271
21
30.7600163
0
LINE
8
DEFAULT_255_2_778
10
3.2774271
20
30.7600163
11
3.5171271
21
30.6568163
0
LINE
8
DEFAULT_255_2_778
10
3.5171271
20
30.6568163
11
6.0187271
21
30.6570163
0
LINE
8
DEFAULT_255_2_778
10
3.5170802
20
48.3913001
11
3.6974802
21
48.4194001
0
LINE
8
DEFAULT_255_2_778
10
3.6974802
20
48.4194001
11
3.6974802
21
51.0234001
0
LINE
8
DEFAULT_255_2_778
10
3.5170802
20
43.2928001
11
3.6974802
21
43.3209001
0
LINE
8
DEFAULT_255_2_778
10
3.6974802
20
43.3209001
11
3.6974802
21
45.9249001
0
LINE
8
DEFAULT_255_2_778
10
3.6974802
20
58.6167001
11
3.6974802
21
61.2207001
0
LINE
8
DEFAULT_255_2_778
10
3.5170802
20
53.4901001
11
3.6974802
21
53.5182001
0
LINE
8
DEFAULT_255_2_778
10
3.6974802
20
53.5182001
11
3.6974802
21
56.1222001
0
LINE
8
DEFAULT_255_2_778
10
5.993807
20
38.090771
11
5.443207
21
37.391771
0
LINE
8
DEFAULT_255_2_778
10
5.443207
20
37.391771
11
5.405607
21
37.440671
0
LINE
8
DEFAULT_255_2_778
10
5.405607
20
37.440671
11
2.587607
21
37.440671
0
LINE
8
DEFAULT_255_2_778
10
2.587607
20
37.440671
11
2.304207
21
41.652371
0
LINE
8
DEFAULT_255_2_778
10
2.304207
20
41.652371
11
5.405907
21
41.652371
0
LINE
8
DEFAULT_255_2_778
10
5.405907
20
41.652371
11
5.458807
21
41.655771
0
LINE
8
DEFAULT_255_2_778
10
5.458807
20
41.655771
11
6.270007
21
40.780271
0
LINE
8
DEFAULT_255_2_778
10
6.270007
20
40.780271
11
6.488607
21
40.530271
0
LINE
8
DEFAULT_255_2_778
10
5.994107
20
32.992271
11
5.443507
21
32.293271
0
LINE
8
DEFAULT_255_2_778
10
5.443507
20
32.293271
11
5.405907
21
32.342171
0
LINE
8
DEFAULT_255_2_778
10
5.405907
20
32.342171
11
2.587607
21
32.342171
0
LINE
8
DEFAULT_255_2_778
10
2.587607
20
32.342171
11
2.304207
21
36.553771
0
LINE
8
DEFAULT_255_2_778
10
2.304207
20
36.553771
11
5.405907
21
36.553771
0
LINE
8
DEFAULT_255_2_778
10
5.405907
20
36.553771
11
5.458807
21
36.557271
0
LINE
8
DEFAULT_255_2_778
10
5.458807
20
36.557271
11
6.270007
21
35.681771
0
LINE
8
DEFAULT_255_2_778
10
6.270007
20
35.681771
11
6.488607
21
35.431671
0
LINE
8
DEFAULT_255_2_778
10
5.993807
20
48.288071
11
5.443207
21
47.589071
0
LINE
8
DEFAULT_255_2_778
10
5.443207
20
47.589071
11
5.405607
21
47.637971
0
LINE
8
DEFAULT_255_2_778
10
5.405607
20
47.637971
11
2.587607
21
47.637971
0
LINE
8
DEFAULT_255_2_778
10
2.587607
20
47.637971
11
2.304207
21
51.849671
0
LINE
8
DEFAULT_255_2_778
10
2.304207
20
51.849671
11
5.405907
21
51.849671
0
LINE
8
DEFAULT_255_2_778
10
5.405907
20
51.849671
11
5.458807
21
51.853071
0
LINE
8
DEFAULT_255_2_778
10
5.458807
20
51.853071
11
6.270007
21
50.977571
0
LINE
8
DEFAULT_255_2_778
10
6.270007
20
50.977571
11
6.488607
21
50.727571
0
LINE
8
DEFAULT_255_2_778
10
5.994107
20
43.189571
11
5.443507
21
42.490571
0
LINE
8
DEFAULT_255_2_778
10
5.443507
20
42.490571
11
5.405907
21
42.539471
0
LINE
8
DEFAULT_255_2_778
10
5.405907
20
42.539471
11
2.587607
21
42.539471
0
LINE
8
DEFAULT_255_2_778
10
2.587607
20
42.539471
11
2.304207
21
46.751171
0
LINE
8
DEFAULT_255_2_778
10
2.304207
20
46.751171
11
5.405907
21
46.751171
0
LINE
8
DEFAULT_255_2_778
10
5.405907
20
46.751171
11
5.458807
21
46.754571
0
LINE
8
DEFAULT_255_2_778
10
5.458807
20
46.754571
11
6.270007
21
45.879071
0
LINE
8
DEFAULT_255_2_778
10
6.270007
20
45.879071
11
6.488607
21
45.628971
0
LINE
8
DEFAULT_255_2_778
10
3.7136841
20
40.8134199
11
3.7136841
21
38.2345199
0
LINE
8
DEFAULT_255_2_778
10
3.7136841
20
38.2345199
11
5.9845841
21
38.2345199
0
LINE
8
DEFAULT_255_2_778
10
5.9845841
20
38.2345199
11
6.0186841
21
38.1938199
0
LINE
8
DEFAULT_255_2_778
10
6.0186841
20
38.1938199
11
3.5170841
21
38.1940199
0
LINE
8
DEFAULT_255_2_778
10
3.5171271
20
48.3912925
11
3.2774271
21
48.2880925
0
LINE
8
DEFAULT_255_2_778
10
3.2774271
20
48.2880925
11
5.9939271
21
48.2880925
0
LINE
8
DEFAULT_255_2_778
10
5.9939271
20
48.2880925
11
6.0187271
21
48.3912925
0
LINE
8
DEFAULT_255_2_778
10
5.4531271
20
46.7423925
11
5.9939271
21
46.0557925
0
LINE
8
DEFAULT_255_2_778
10
5.9939271
20
46.0557925
11
3.2774271
21
46.0557925
0
LINE
8
DEFAULT_255_2_778
10
3.2774271
20
46.0557925
11
3.5171271
21
45.9525925
0
LINE
8
DEFAULT_255_2_778
10
3.5171271
20
45.9525925
11
6.0187271
21
45.9528925
0
LINE
8
DEFAULT_255_2_778
10
6.0187271
20
43.2927925
11
5.9939271
21
43.1895925
0
LINE
8
DEFAULT_255_2_778
10
5.9939271
20
43.1895925
11
3.2774271
21
43.1895925
0
LINE
8
DEFAULT_255_2_778
10
3.2774271
20
43.1895925
11
3.5171271
21
43.2927925
0
LINE
8
DEFAULT_255_2_778
10
3.5171271
20
43.2927925
11
6.0187271
21
43.2924925
0
LINE
8
DEFAULT_255_2_778
10
6.0187271
20
43.2924925
11
5.9846271
21
43.3332925
0
LINE
8
DEFAULT_255_2_778
10
5.9846271
20
43.3332925
11
3.7137271
21
43.3332925
0
LINE
8
DEFAULT_255_2_778
10
3.7137271
20
43.3332925
11
3.7137271
21
45.9121925
0
LINE
8
DEFAULT_255_2_778
10
5.4531271
20
41.6438925
11
5.9939271
21
40.9572925
0
LINE
8
DEFAULT_255_2_778
10
5.9939271
20
40.9572925
11
3.2774271
21
40.9572925
0
LINE
8
DEFAULT_255_2_778
10
3.2774271
20
40.9572925
11
3.5171271
21
40.8540925
0
LINE
8
DEFAULT_255_2_778
10
3.5171271
20
40.8540925
11
6.0187271
21
40.8540925
0
LINE
8
DEFAULT_255_2_778
10
3.7136841
20
51.0107199
11
3.7136841
21
48.4318199
0
LINE
8
DEFAULT_255_2_778
10
3.7136841
20
48.4318199
11
5.9845841
21
48.4318199
0
LINE
8
DEFAULT_255_2_778
10
5.9845841
20
48.4318199
11
6.0186841
21
48.3911199
0
LINE
8
DEFAULT_255_2_778
10
6.0186841
20
48.3911199
11
3.5170841
21
48.3913199
0
LINE
8
DEFAULT_255_2_778
10
3.5170802
20
68.7859001
11
3.6974802
21
68.8140001
0
LINE
8
DEFAULT_255_2_778
10
3.6974802
20
68.8140001
11
3.6974802
21
71.4180001
0
LINE
8
DEFAULT_255_2_778
10
3.5170802
20
63.6874001
11
3.6974802
21
63.7155001
0
LINE
8
DEFAULT_255_2_778
10
3.6974802
20
63.7155001
11
3.6974802
21
66.3195001
0
LINE
8
DEFAULT_255_2_778
10
5.4435738
20
57.7866085
11
5.4059738
21
57.8356085
0
LINE
8
DEFAULT_255_2_778
10
5.4059738
20
57.8356085
11
2.5876738
21
57.8356085
0
LINE
8
DEFAULT_255_2_778
10
2.5876738
20
57.8356085
11
2.3042738
21
62.0472085
0
LINE
8
DEFAULT_255_2_778
10
2.3042738
20
62.0472085
11
5.4059738
21
62.0472085
0
LINE
8
DEFAULT_255_2_778
10
5.4059738
20
62.0472085
11
5.4588738
21
62.0507085
0
LINE
8
DEFAULT_255_2_778
10
5.4588738
20
62.0507085
11
6.2700738
21
61.1751085
0
LINE
8
DEFAULT_255_2_778
10
6.2700738
20
61.1751085
11
6.4886738
21
60.9251085
0
LINE
8
DEFAULT_255_2_778
10
5.9941738
20
53.3871085
11
5.4435738
21
52.6881085
0
LINE
8
DEFAULT_255_2_778
10
5.4435738
20
52.6881085
11
5.4059738
21
52.7371085
0
LINE
8
DEFAULT_255_2_778
10
5.4059738
20
52.7371085
11
2.5876738
21
52.7371085
0
LINE
8
DEFAULT_255_2_778
10
2.5876738
20
52.7371085
11
2.3042738
21
56.9487085
0
LINE
8
DEFAULT_255_2_778
10
2.3042738
20
56.9487085
11
5.4059738
21
56.9487085
0
LINE
8
DEFAULT_255_2_778
10
5.4059738
20
56.9487085
11
5.4588738
21
56.9521085
0
LINE
8
DEFAULT_255_2_778
10
5.4588738
20
56.9521085
11
6.2700738
21
56.0766085
0
LINE
8
DEFAULT_255_2_778
10
6.2700738
20
56.0766085
11
6.4886738
21
55.8266085
0
LINE
8
DEFAULT_255_2_778
10
5.4530738
20
56.9397085
11
5.9938738
21
56.2531085
0
LINE
8
DEFAULT_255_2_778
10
5.9938738
20
56.2531085
11
3.2773738
21
56.2531085
0
LINE
8
DEFAULT_255_2_778
10
3.2773738
20
56.2531085
11
3.5171738
21
56.1499085
0
LINE
8
DEFAULT_255_2_778
10
3.5171738
20
56.1499085
11
6.0187738
21
56.1502085
0
LINE
8
DEFAULT_255_2_778
10
6.0187738
20
53.4901085
11
5.9938738
21
53.3869085
0
LINE
8
DEFAULT_255_2_778
10
5.9938738
20
53.3869085
11
3.2773738
21
53.3869085
0
LINE
8
DEFAULT_255_2_778
10
3.2773738
20
53.3869085
11
3.5171738
21
53.4901085
0
LINE
8
DEFAULT_255_2_778
10
3.5171738
20
53.4901085
11
6.0187738
21
53.4898085
0
LINE
8
DEFAULT_255_2_778
10
6.0187738
20
53.4898085
11
5.9846738
21
53.5305085
0
LINE
8
DEFAULT_255_2_778
10
5.9846738
20
53.5305085
11
3.7136738
21
53.5305085
0
LINE
8
DEFAULT_255_2_778
10
3.7136738
20
53.5305085
11
3.7136738
21
56.1094085
0
LINE
8
DEFAULT_255_2_778
10
5.4530738
20
51.8412085
11
5.9938738
21
51.1546085
0
LINE
8
DEFAULT_255_2_778
10
5.9938738
20
51.1546085
11
3.2773738
21
51.1546085
0
LINE
8
DEFAULT_255_2_778
10
3.2773738
20
51.1546085
11
3.5171738
21
51.0514085
0
LINE
8
DEFAULT_255_2_778
10
3.5171738
20
51.0514085
11
6.0187738
21
51.0517085
0
LINE
8
DEFAULT_255_2_778
10
6.0187738
20
63.6871085
11
5.9938738
21
63.5839085
0
LINE
8
DEFAULT_255_2_778
10
5.9938738
20
63.5839085
11
3.2773738
21
63.5839085
0
LINE
8
DEFAULT_255_2_778
10
3.2773738
20
63.5839085
11
3.5171738
21
63.6871085
0
LINE
8
DEFAULT_255_2_778
10
3.5171738
20
63.6871085
11
6.0187738
21
63.6868085
0
LINE
8
DEFAULT_255_2_778
10
3.2607738
20
35.8373085
11
3.6978738
21
35.7148085
0
LINE
8
DEFAULT_255_2_778
10
3.6978738
20
35.7148085
11
3.7139738
21
35.7148085
0
LINE
8
DEFAULT_255_2_778
10
3.7139738
20
35.7148085
11
5.9848738
21
35.7148085
0
LINE
8
DEFAULT_255_2_778
10
5.9848738
20
35.7148085
11
6.3288738
21
35.3105085
0
LINE
8
DEFAULT_255_2_778
10
6.3288738
20
35.3105085
11
6.3288738
21
33.5405085
0
LINE
8
DEFAULT_255_2_778
10
6.3288738
20
33.5405085
11
6.4849738
21
33.4222085
0
LINE
8
DEFAULT_255_2_778
10
6.4849738
20
33.4222085
11
6.4889738
21
35.4317085
0
LINE
8
DEFAULT_255_2_778
10
6.4889738
20
35.4317085
11
6.3288738
21
35.3105085
0
LINE
8
DEFAULT_255_2_778
10
3.5173738
20
30.6568085
11
3.6978738
21
30.6287085
0
LINE
8
DEFAULT_255_2_778
10
3.6978738
20
30.6287085
11
3.7139738
21
30.6163085
0
LINE
8
DEFAULT_255_2_778
10
3.7139738
20
30.6163085
11
5.9848738
21
30.6163085
0
LINE
8
DEFAULT_255_2_778
10
5.9848738
20
30.6163085
11
6.3288738
21
30.2120085
0
LINE
8
DEFAULT_255_2_778
10
6.3288738
20
30.2120085
11
6.3288738
21
28.4420085
0
LINE
8
DEFAULT_255_2_778
10
6.3288738
20
28.4420085
11
6.4849738
21
28.3237085
0
LINE
8
DEFAULT_255_2_778
10
6.4849738
20
28.3237085
11
6.4889738
21
30.3332085
0
LINE
8
DEFAULT_255_2_778
10
6.4889738
20
30.3332085
11
6.3288738
21
30.2120085
0
LINE
8
DEFAULT_255_2_778
10
3.517134
20
45.9526059
11
3.697534
21
45.9246059
0
LINE
8
DEFAULT_255_2_778
10
3.697534
20
45.9246059
11
3.713734
21
45.9121059
0
LINE
8
DEFAULT_255_2_778
10
3.713734
20
45.9121059
11
5.984634
21
45.9121059
0
LINE
8
DEFAULT_255_2_778
10
5.984634
20
45.9121059
11
6.328634
21
45.5078059
0
LINE
8
DEFAULT_255_2_778
10
6.328634
20
45.5078059
11
6.328634
21
43.7378059
0
LINE
8
DEFAULT_255_2_778
10
6.328634
20
43.7378059
11
6.484734
21
43.6195059
0
LINE
8
DEFAULT_255_2_778
10
6.484734
20
43.6195059
11
6.488634
21
45.6290059
0
LINE
8
DEFAULT_255_2_778
10
6.488634
20
45.6290059
11
6.328634
21
45.5078059
0
LINE
8
DEFAULT_255_2_778
10
3.517134
20
40.8541059
11
3.697534
21
40.8260059
0
LINE
8
DEFAULT_255_2_778
10
3.697534
20
40.8260059
11
3.713734
21
40.8136059
0
LINE
8
DEFAULT_255_2_778
10
3.713734
20
40.8136059
11
5.984634
21
40.8136059
0
LINE
8
DEFAULT_255_2_778
10
5.984634
20
40.8136059
11
6.328634
21
40.4093059
0
LINE
8
DEFAULT_255_2_778
10
6.328634
20
40.4093059
11
6.328634
21
38.6393059
0
LINE
8
DEFAULT_255_2_778
10
6.328634
20
38.6393059
11
6.484734
21
38.5210059
0
LINE
8
DEFAULT_255_2_778
10
6.484734
20
38.5210059
11
6.488634
21
40.5305059
0
LINE
8
DEFAULT_255_2_778
10
6.488634
20
40.5305059
11
6.328634
21
40.4093059
0
LINE
8
DEFAULT_255_2_778
10
5.993807
20
68.682775
11
5.443207
21
67.983775
0
LINE
8
DEFAULT_255_2_778
10
5.443207
20
67.983775
11
5.405607
21
68.032675
0
LINE
8
DEFAULT_255_2_778
10
5.405607
20
68.032675
11
2.587607
21
68.032675
0
LINE
8
DEFAULT_255_2_778
10
2.587607
20
68.032675
11
2.304207
21
72.244375
0
LINE
8
DEFAULT_255_2_778
10
2.304207
20
72.244375
11
5.405907
21
72.244375
0
LINE
8
DEFAULT_255_2_778
10
5.405907
20
72.244375
11
5.458807
21
72.247775
0
LINE
8
DEFAULT_255_2_778
10
5.458807
20
72.247775
11
6.270007
21
71.372275
0
LINE
8
DEFAULT_255_2_778
10
6.270007
20
71.372275
11
6.488607
21
71.122275
0
LINE
8
DEFAULT_255_2_778
10
6.484607
20
64.014175
11
6.270007
21
63.770475
0
LINE
8
DEFAULT_255_2_778
10
6.270007
20
63.770475
11
5.443507
21
62.885175
0
LINE
8
DEFAULT_255_2_778
10
5.443507
20
62.885175
11
5.405907
21
62.934175
0
LINE
8
DEFAULT_255_2_778
10
5.405907
20
62.934175
11
2.587607
21
62.934175
0
LINE
8
DEFAULT_255_2_778
10
2.587607
20
62.934175
11
2.304207
21
67.145775
0
LINE
8
DEFAULT_255_2_778
10
2.304207
20
67.145775
11
5.405907
21
67.145775
0
LINE
8
DEFAULT_255_2_778
10
5.405907
20
67.145775
11
5.458807
21
67.149275
0
LINE
8
DEFAULT_255_2_778
10
5.458807
20
67.149275
11
6.270007
21
66.273775
0
LINE
8
DEFAULT_255_2_778
10
6.270007
20
66.273775
11
6.488607
21
66.023675
0
LINE
8
DEFAULT_255_2_778
10
5.984634
20
66.3065726
11
6.018734
21
66.3472726
0
LINE
8
DEFAULT_255_2_778
10
6.018734
20
66.3472726
11
3.517134
21
66.3472726
0
LINE
8
DEFAULT_255_2_778
10
3.517134
20
66.3472726
11
3.697534
21
66.3192726
0
LINE
8
DEFAULT_255_2_778
10
3.697534
20
66.3192726
11
3.713734
21
66.3067726
0
LINE
8
DEFAULT_255_2_778
10
3.713734
20
66.3067726
11
5.984634
21
66.3067726
0
LINE
8
DEFAULT_255_2_778
10
5.984634
20
66.3067726
11
6.328634
21
65.9024726
0
LINE
8
DEFAULT_255_2_778
10
6.328634
20
65.9024726
11
6.328634
21
64.1324726
0
LINE
8
DEFAULT_255_2_778
10
6.328634
20
64.1324726
11
6.484734
21
64.0141726
0
LINE
8
DEFAULT_255_2_778
10
6.484734
20
64.0141726
11
6.488634
21
66.0236726
0
LINE
8
DEFAULT_255_2_778
10
6.488634
20
66.0236726
11
6.328634
21
65.9024726
0
LINE
8
DEFAULT_255_2_778
10
5.984634
20
61.2082726
11
6.018734
21
61.2489726
0
LINE
8
DEFAULT_255_2_778
10
6.018734
20
61.2489726
11
3.517134
21
61.2489726
0
LINE
8
DEFAULT_255_2_778
10
3.517134
20
61.2489726
11
3.697534
21
61.2209726
0
LINE
8
DEFAULT_255_2_778
10
3.697534
20
61.2209726
11
3.713734
21
61.2085726
0
LINE
8
DEFAULT_255_2_778
10
3.713734
20
61.2085726
11
5.984634
21
61.2085726
0
LINE
8
DEFAULT_255_2_778
10
5.984634
20
61.2085726
11
6.328634
21
60.8042726
0
LINE
8
DEFAULT_255_2_778
10
6.328634
20
60.8042726
11
6.328634
21
59.0341726
0
LINE
8
DEFAULT_255_2_778
10
6.328634
20
59.0341726
11
6.484734
21
58.9159726
0
LINE
8
DEFAULT_255_2_778
10
6.484734
20
58.9159726
11
6.488634
21
60.9254726
0
LINE
8
DEFAULT_255_2_778
10
6.488634
20
60.9254726
11
6.328634
21
60.8042726
0
LINE
8
DEFAULT_255_2_778
10
5.4530617
20
67.1370516
11
5.9938617
21
66.4504516
0
LINE
8
DEFAULT_255_2_778
10
5.9938617
20
66.4504516
11
3.2773617
21
66.4504516
0
LINE
8
DEFAULT_255_2_778
10
3.2773617
20
66.4504516
11
3.5170617
21
66.3472516
0
LINE
8
DEFAULT_255_2_778
10
5.4530617
20
62.0385516
11
5.9938617
21
61.3519516
0
LINE
8
DEFAULT_255_2_778
10
5.9938617
20
61.3519516
11
3.2773617
21
61.3519516
0
LINE
8
DEFAULT_255_2_778
10
3.2773617
20
61.3519516
11
3.5170617
21
61.2487516
0
LINE
8
DEFAULT_255_2_778
10
3.713677
20
71.4052561
11
3.713677
21
68.8264561
0
LINE
8
DEFAULT_255_2_778
10
3.713677
20
68.8264561
11
5.984577
21
68.8264561
0
LINE
8
DEFAULT_255_2_778
10
5.984577
20
68.8264561
11
6.018677
21
68.7856561
0
LINE
8
DEFAULT_255_2_778
10
6.018677
20
68.7856561
11
3.517077
21
68.7859561
0
LINE
8
DEFAULT_255_2_778
10
3.517077
20
68.7859561
11
3.277377
21
68.6827561
0
LINE
8
DEFAULT_255_2_778
10
3.277377
20
68.6827561
11
5.993877
21
68.6827561
0
LINE
8
DEFAULT_255_2_778
10
5.993877
20
68.6827561
11
6.018677
21
68.7859561
0
LINE
8
DEFAULT_255_2_778
10
5.984577
20
71.4052561
11
6.018677
21
71.4460561
0
LINE
8
DEFAULT_255_2_778
10
6.018677
20
71.4460561
11
3.517077
21
71.4460561
0
LINE
8
DEFAULT_255_2_778
10
3.517077
20
71.4460561
11
3.697577
21
71.4179561
0
LINE
8
DEFAULT_255_2_778
10
3.697577
20
71.4179561
11
3.713677
21
71.4055561
0
LINE
8
DEFAULT_255_2_778
10
3.713677
20
71.4055561
11
5.984577
21
71.4055561
0
LINE
8
DEFAULT_255_2_778
10
5.984577
20
71.4055561
11
6.328577
21
71.0012561
0
LINE
8
DEFAULT_255_2_778
10
6.328577
20
71.0012561
11
6.328577
21
69.2312561
0
LINE
8
DEFAULT_255_2_778
10
6.328577
20
69.2312561
11
6.484677
21
69.1129561
0
LINE
8
DEFAULT_255_2_778
10
6.484677
20
69.1129561
11
6.488577
21
71.1224561
0
LINE
8
DEFAULT_255_2_778
10
6.488577
20
71.1224561
11
6.328577
21
71.0012561
0
LINE
8
DEFAULT_255_2_778
10
6.018677
20
73.8844561
11
5.993877
21
73.7812561
0
LINE
8
DEFAULT_255_2_778
10
5.993877
20
73.7812561
11
3.277377
21
73.7812561
0
LINE
8
DEFAULT_255_2_778
10
3.277377
20
73.7812561
11
3.517077
21
73.8844561
0
LINE
8
DEFAULT_255_2_778
10
3.517077
20
73.8844561
11
6.018677
21
73.8841561
0
LINE
8
DEFAULT_255_2_778
10
6.018677
20
73.8841561
11
5.984577
21
73.9249561
0
LINE
8
DEFAULT_255_2_778
10
5.984577
20
73.9249561
11
3.713677
21
73.9249561
0
LINE
8
DEFAULT_255_2_778
10
3.713677
20
73.9249561
11
3.713677
21
76.5038561
0
LINE
8
DEFAULT_255_2_778
10
3.517077
20
78.9829561
11
3.697577
21
79.0110561
0
LINE
8
DEFAULT_255_2_778
10
3.697577
20
79.0110561
11
3.713677
21
79.0234561
0
LINE
8
DEFAULT_255_2_778
10
3.713677
20
79.0234561
11
5.984577
21
79.0234561
0
LINE
8
DEFAULT_255_2_778
10
5.984577
20
79.0234561
11
6.018677
21
78.9826561
0
LINE
8
DEFAULT_255_2_778
10
6.018677
20
78.9826561
11
3.517077
21
78.9829561
0
LINE
8
DEFAULT_255_2_778
10
3.517077
20
78.9829561
11
3.277377
21
78.8797561
0
LINE
8
DEFAULT_255_2_778
10
3.277377
20
78.8797561
11
5.993877
21
78.8797561
0
LINE
8
DEFAULT_255_2_778
10
5.993877
20
78.8797561
11
6.018677
21
78.9829561
0
LINE
8
DEFAULT_255_2_778
10
5.4530617
20
77.3343516
11
5.9938617
21
76.6477516
0
LINE
8
DEFAULT_255_2_778
10
5.9938617
20
76.6477516
11
3.2773617
21
76.6477516
0
LINE
8
DEFAULT_255_2_778
10
3.2773617
20
76.6477516
11
3.5170617
21
76.5445516
0
LINE
8
DEFAULT_255_2_778
10
5.4530617
20
72.2358516
11
5.9938617
21
71.5492516
0
LINE
8
DEFAULT_255_2_778
10
5.9938617
20
71.5492516
11
3.2773617
21
71.5492516
0
LINE
8
DEFAULT_255_2_778
10
3.2773617
20
71.5492516
11
3.5170617
21
71.4460516
0
LINE
8
DEFAULT_255_2_778
10
3.517134
20
56.1499018
11
3.697534
21
56.1219018
0
LINE
8
DEFAULT_255_2_778
10
3.697534
20
56.1219018
11
3.713734
21
56.1094018
0
LINE
8
DEFAULT_255_2_778
10
3.713734
20
56.1094018
11
5.984634
21
56.1094018
0
LINE
8
DEFAULT_255_2_778
10
5.984634
20
56.1094018
11
6.328634
21
55.7051018
0
LINE
8
DEFAULT_255_2_778
10
6.328634
20
55.7051018
11
6.328634
21
53.9351018
0
LINE
8
DEFAULT_255_2_778
10
6.328634
20
53.9351018
11
6.484734
21
53.8168018
0
LINE
8
DEFAULT_255_2_778
10
6.484734
20
53.8168018
11
6.488634
21
55.8263018
0
LINE
8
DEFAULT_255_2_778
10
6.488634
20
55.8263018
11
6.328634
21
55.7051018
0
LINE
8
DEFAULT_255_2_778
10
3.517134
20
51.0514018
11
3.697534
21
51.0233018
0
LINE
8
DEFAULT_255_2_778
10
3.697534
20
51.0233018
11
3.713734
21
51.0109018
0
LINE
8
DEFAULT_255_2_778
10
3.713734
20
51.0109018
11
5.984634
21
51.0109018
0
LINE
8
DEFAULT_255_2_778
10
5.984634
20
51.0109018
11
6.328634
21
50.6066018
0
LINE
8
DEFAULT_255_2_778
10
6.328634
20
50.6066018
11
6.328634
21
48.8366018
0
LINE
8
DEFAULT_255_2_778
10
6.328634
20
48.8366018
11
6.484734
21
48.7183018
0
LINE
8
DEFAULT_255_2_778
10
6.484734
20
48.7183018
11
6.488634
21
50.7278018
0
LINE
8
DEFAULT_255_2_778
10
6.488634
20
50.7278018
11
6.328634
21
50.6066018
0
LINE
8
DEFAULT_255_2_778
10
5.9845933
20
81.6026669
11
6.0186933
21
81.6433669
0
LINE
8
DEFAULT_255_2_778
10
6.0186933
20
81.6433669
11
3.5170933
21
81.6433669
0
LINE
8
DEFAULT_255_2_778
10
3.5170933
20
81.6433669
11
3.6974933
21
81.6152669
0
LINE
8
DEFAULT_255_2_778
10
3.6974933
20
81.6152669
11
3.7136933
21
81.6028669
0
LINE
8
DEFAULT_255_2_778
10
3.7136933
20
81.6028669
11
5.9845933
21
81.6028669
0
LINE
8
DEFAULT_255_2_778
10
5.9845933
20
81.6028669
11
6.3284933
21
81.1985669
0
LINE
8
DEFAULT_255_2_778
10
6.3284933
20
81.1985669
11
6.4885933
21
81.3197669
0
LINE
8
DEFAULT_255_2_778
10
6.4885933
20
81.3197669
11
6.4845933
21
79.3102669
0
LINE
8
DEFAULT_255_2_778
10
6.4845933
20
79.3102669
11
6.3284933
21
79.4285669
0
LINE
8
DEFAULT_255_2_778
10
6.3284933
20
79.4285669
11
6.3284933
21
81.1985669
0
LINE
8
DEFAULT_255_2_778
10
3.2405933
20
81.9005669
11
3.2405933
21
78.7263669
0
LINE
8
DEFAULT_255_2_778
10
3.2405933
20
78.7263669
11
2.5875933
21
78.2302669
0
LINE
8
DEFAULT_255_2_778
10
2.5875933
20
78.2302669
11
5.4056933
21
78.2302669
0
LINE
8
DEFAULT_255_2_778
10
5.4056933
20
78.2302669
11
5.4431933
21
78.1812669
0
LINE
8
DEFAULT_255_2_778
10
5.4431933
20
78.1812669
11
5.9937933
21
78.8803669
0
LINE
8
DEFAULT_255_2_778
10
5.9845933
20
76.5043669
11
6.0186933
21
76.5450669
0
LINE
8
DEFAULT_255_2_778
10
6.0186933
20
76.5450669
11
3.5170933
21
76.5450669
0
LINE
8
DEFAULT_255_2_778
10
3.5170933
20
76.5450669
11
3.6974933
21
76.5170669
0
LINE
8
DEFAULT_255_2_778
10
3.6974933
20
76.5170669
11
3.7136933
21
76.5046669
0
LINE
8
DEFAULT_255_2_778
10
3.7136933
20
76.5046669
11
5.9845933
21
76.5046669
0
LINE
8
DEFAULT_255_2_778
10
5.9845933
20
76.5046669
11
6.3284933
21
76.1003669
0
LINE
8
DEFAULT_255_2_778
10
6.3284933
20
76.1003669
11
6.4885933
21
76.2215669
0
LINE
8
DEFAULT_255_2_778
10
6.4885933
20
76.2215669
11
6.4845933
21
74.2119669
0
LINE
8
DEFAULT_255_2_778
10
6.4845933
20
74.2119669
11
6.3284933
21
74.3302669
0
LINE
8
DEFAULT_255_2_778
10
6.3284933
20
74.3302669
11
6.3284933
21
76.1003669
0
LINE
8
DEFAULT_255_2_778
10
3.2405933
20
76.8022669
11
3.2405933
21
73.6280669
0
LINE
8
DEFAULT_255_2_778
10
3.2405933
20
73.6280669
11
2.5875933
21
73.1319669
0
LINE
8
DEFAULT_255_2_778
10
2.5875933
20
73.1319669
11
5.4056933
21
73.1319669
0
LINE
8
DEFAULT_255_2_778
10
5.4056933
20
73.1319669
11
5.4431933
21
73.0830669
0
LINE
8
DEFAULT_255_2_778
10
5.4431933
20
73.0830669
11
5.9937933
21
73.7820669
0
LINE
8
DEFAULT_255_2_778
10
6.0186933
20
84.0817669
11
5.9937933
21
83.9785669
0
LINE
8
DEFAULT_255_2_778
10
5.9937933
20
83.9785669
11
3.2773933
21
83.9785669
0
LINE
8
DEFAULT_255_2_778
10
3.2773933
20
83.9785669
11
3.5170933
21
84.0817669
0
LINE
8
DEFAULT_255_2_778
10
3.5170933
20
84.0817669
11
6.0186933
21
84.0814669
0
LINE
8
DEFAULT_255_2_778
10
6.0186933
20
84.0814669
11
5.9845933
21
84.1222669
0
LINE
8
DEFAULT_255_2_778
10
5.9845933
20
84.1222669
11
3.7136933
21
84.1222669
0
LINE
8
DEFAULT_255_2_778
10
3.7136933
20
84.1222669
11
3.6974933
21
84.1097669
0
LINE
8
DEFAULT_255_2_778
10
3.6974933
20
84.1097669
11
3.5170933
21
84.0817669
0
LINE
8
DEFAULT_255_2_778
10
3.5170933
20
89.1802669
11
3.6974933
21
89.2083669
0
LINE
8
DEFAULT_255_2_778
10
3.6974933
20
89.2083669
11
3.7136933
21
89.2207669
0
LINE
8
DEFAULT_255_2_778
10
3.7136933
20
89.2207669
11
5.9845933
21
89.2207669
0
LINE
8
DEFAULT_255_2_778
10
5.9845933
20
89.2207669
11
6.0186933
21
89.1799669
0
LINE
8
DEFAULT_255_2_778
10
6.0186933
20
89.1799669
11
3.5170933
21
89.1802669
0
LINE
8
DEFAULT_255_2_778
10
3.5170933
20
89.1802669
11
3.2773933
21
89.0770669
0
LINE
8
DEFAULT_255_2_778
10
3.2773933
20
89.0770669
11
5.9937933
21
89.0770669
0
LINE
8
DEFAULT_255_2_778
10
5.9937933
20
89.0770669
11
6.0186933
21
89.1802669
0
LINE
8
DEFAULT_255_2_778
10
5.4530617
20
87.5316516
11
5.9938617
21
86.8450516
0
LINE
8
DEFAULT_255_2_778
10
5.9938617
20
86.8450516
11
3.2773617
21
86.8450516
0
LINE
8
DEFAULT_255_2_778
10
3.2773617
20
86.8450516
11
3.5170617
21
86.7418516
0
LINE
8
DEFAULT_255_2_778
10
5.4530617
20
82.4331516
11
5.9938617
21
81.7465516
0
LINE
8
DEFAULT_255_2_778
10
5.9938617
20
81.7465516
11
3.2773617
21
81.7465516
0
LINE
8
DEFAULT_255_2_778
10
3.2773617
20
81.7465516
11
3.5170617
21
81.6433516
0
LINE
8
DEFAULT_255_2_778
10
3.517134
20
96.9391539
11
3.697534
21
96.9111539
0
LINE
8
DEFAULT_255_2_778
10
3.697534
20
96.9111539
11
3.713734
21
96.8986539
0
LINE
8
DEFAULT_255_2_778
10
3.713734
20
96.8986539
11
5.984634
21
96.8986539
0
LINE
8
DEFAULT_255_2_778
10
5.984634
20
96.8986539
11
6.328634
21
96.4943539
0
LINE
8
DEFAULT_255_2_778
10
6.328634
20
96.4943539
11
6.488634
21
96.6155539
0
LINE
8
DEFAULT_255_2_778
10
6.488634
20
96.6155539
11
6.484734
21
94.6060539
0
LINE
8
DEFAULT_255_2_778
10
6.484734
20
94.6060539
11
6.328634
21
94.7243539
0
LINE
8
DEFAULT_255_2_778
10
6.328634
20
94.7243539
11
5.984634
21
94.3200539
0
LINE
8
DEFAULT_255_2_778
10
5.984634
20
91.8004539
11
6.018734
21
91.8411539
0
LINE
8
DEFAULT_255_2_778
10
6.018734
20
91.8411539
11
3.517134
21
91.8411539
0
LINE
8
DEFAULT_255_2_778
10
3.517134
20
91.8411539
11
3.697534
21
91.8131539
0
LINE
8
DEFAULT_255_2_778
10
3.697534
20
91.8131539
11
3.713734
21
91.8006539
0
LINE
8
DEFAULT_255_2_778
10
3.713734
20
91.8006539
11
5.984634
21
91.8006539
0
LINE
8
DEFAULT_255_2_778
10
5.984634
20
91.8006539
11
6.328634
21
91.3963539
0
LINE
8
DEFAULT_255_2_778
10
6.328634
20
91.3963539
11
6.488634
21
91.5175539
0
LINE
8
DEFAULT_255_2_778
10
6.488634
20
91.5175539
11
6.484734
21
89.5080539
0
LINE
8
DEFAULT_255_2_778
10
6.484734
20
89.5080539
11
6.328634
21
89.6263539
0
LINE
8
DEFAULT_255_2_778
10
6.328634
20
89.6263539
11
5.984634
21
89.2220539
0
LINE
8
DEFAULT_255_2_778
10
5.4435326
20
93.4770824
11
6.2701326
21
94.3623824
0
LINE
8
DEFAULT_255_2_778
10
6.2701326
20
94.3623824
11
6.4846326
21
94.6060824
0
LINE
8
DEFAULT_255_2_778
10
5.4435326
20
98.5758824
11
6.2701326
21
99.4611824
0
LINE
8
DEFAULT_255_2_778
10
6.2701326
20
99.4611824
11
6.4846326
21
99.7048824
0
LINE
8
DEFAULT_255_2_778
10
6.0187375
20
17.7994693
11
5.9939375
21
17.6962693
0
LINE
8
DEFAULT_255_2_778
10
5.9939375
20
17.6962693
11
3.2774375
21
17.6962693
0
LINE
8
DEFAULT_255_2_778
10
3.2774375
20
17.6962693
11
3.2406375
21
17.5422693
0
LINE
8
DEFAULT_255_2_778
10
3.2406375
20
17.5422693
11
3.2406375
21
20.7164693
0
LINE
8
DEFAULT_255_2_778
10
3.2406375
20
20.7164693
11
3.2406375
21
12.4437693
0
LINE
8
DEFAULT_255_2_778
10
3.2406375
20
12.4437693
11
3.2774375
21
12.5976693
0
LINE
8
DEFAULT_255_2_778
10
3.2774375
20
12.5976693
11
5.9939375
21
12.5976693
0
LINE
8
DEFAULT_255_2_778
10
5.9939375
20
12.5976693
11
6.0187375
21
12.7008693
0
LINE
8
DEFAULT_255_2_778
10
5.4530375
20
16.1507693
11
5.9939375
21
15.4641693
0
LINE
8
DEFAULT_255_2_778
10
5.9939375
20
15.4641693
11
3.2774375
21
15.4641693
0
LINE
8
DEFAULT_255_2_778
10
3.5171375
20
15.3610693
11
6.0187375
21
15.3612693
0
LINE
8
DEFAULT_255_2_778
10
6.0187375
20
27.9967693
11
5.9939375
21
27.8935693
0
LINE
8
DEFAULT_255_2_778
10
5.9939375
20
27.8935693
11
3.2774375
21
27.8935693
0
LINE
8
DEFAULT_255_2_778
10
3.2774375
20
27.8935693
11
3.2406375
21
27.7395693
0
LINE
8
DEFAULT_255_2_778
10
3.2406375
20
27.7395693
11
3.2406375
21
30.9137693
0
LINE
8
DEFAULT_255_2_778
10
6.0187375
20
22.8979693
11
5.9939375
21
22.7947693
0
LINE
8
DEFAULT_255_2_778
10
5.9939375
20
22.7947693
11
3.2774375
21
22.7947693
0
LINE
8
DEFAULT_255_2_778
10
3.2774375
20
22.7947693
11
3.2406375
21
22.6407693
0
LINE
8
DEFAULT_255_2_778
10
3.2406375
20
22.6407693
11
3.2406375
21
25.8149693
0
LINE
8
DEFAULT_255_2_778
10
6.0187375
20
38.1940693
11
5.9939375
21
38.0908693
0
LINE
8
DEFAULT_255_2_778
10
5.9939375
20
38.0908693
11
3.2774375
21
38.0908693
0
LINE
8
DEFAULT_255_2_778
10
3.2774375
20
38.0908693
11
3.2406375
21
37.9368693
0
LINE
8
DEFAULT_255_2_778
10
3.2406375
20
37.9368693
11
3.2406375
21
41.1110693
0
LINE
8
DEFAULT_255_2_778
10
3.2406375
20
41.1110693
11
3.2406375
21
32.8383693
0
LINE
8
DEFAULT_255_2_778
10
3.2406375
20
32.8383693
11
3.2774375
21
32.9923693
0
LINE
8
DEFAULT_255_2_778
10
3.2774375
20
32.9923693
11
5.9939375
21
32.9923693
0
LINE
8
DEFAULT_255_2_778
10
5.9939375
20
32.9923693
11
6.0187375
21
33.0954693
0
LINE
8
DEFAULT_255_2_778
10
5.4530375
20
36.5453693
11
5.9939375
21
35.8588693
0
LINE
8
DEFAULT_255_2_778
10
5.9939375
20
35.8588693
11
3.2774375
21
35.8588693
0
LINE
8
DEFAULT_255_2_778
10
3.2774105
20
48.2881632
11
3.2406105
21
48.1341632
0
LINE
8
DEFAULT_255_2_778
10
3.2406105
20
48.1341632
11
3.2406105
21
51.3083632
0
LINE
8
DEFAULT_255_2_778
10
3.2774105
20
43.1896632
11
3.2406105
21
43.0356632
0
LINE
8
DEFAULT_255_2_778
10
3.2406105
20
43.0356632
11
3.2406105
21
46.2098632
0
LINE
8
DEFAULT_255_2_778
10
3.2406105
20
58.3314632
11
3.2406105
21
61.5056632
0
LINE
8
DEFAULT_255_2_778
10
3.2774105
20
53.3869632
11
3.2406105
21
53.2329632
0
LINE
8
DEFAULT_255_2_778
10
3.2406105
20
53.2329632
11
3.2406105
21
56.4071632
0
LINE
8
DEFAULT_255_2_778
10
3.2774105
20
68.6827632
11
3.2406105
21
68.5287632
0
LINE
8
DEFAULT_255_2_778
10
3.2406105
20
68.5287632
11
3.2406105
21
71.7029632
0
LINE
8
DEFAULT_255_2_778
10
3.2774105
20
63.5842632
11
3.2406105
21
63.4302632
0
LINE
8
DEFAULT_255_2_778
10
3.2406105
20
63.4302632
11
3.2406105
21
66.6044632
0
LINE
8
DEFAULT_255_2_778
10
3.7139296
20
84.1225081
11
3.7139296
21
86.7014081
0
LINE
8
DEFAULT_255_2_778
10
3.6978296
20
86.7138081
11
3.6978296
21
84.1098081
0
LINE
8
DEFAULT_255_2_778
10
3.7139296
20
79.0237081
11
3.7139296
21
81.6026081
0
LINE
8
DEFAULT_255_2_778
10
3.6978296
20
81.6150081
11
3.6978296
21
79.0110081
0
LINE
8
DEFAULT_255_2_778
10
3.7139296
20
94.3198101
11
3.7139296
21
96.8987101
0
LINE
8
DEFAULT_255_2_778
10
3.6978296
20
96.9111101
11
3.6978296
21
94.3071101
0
LINE
8
DEFAULT_255_2_778
10
3.7139296
20
89.2210101
11
3.7139296
21
91.7999101
0
LINE
8
DEFAULT_255_2_778
10
3.6978296
20
91.8123101
11
3.6978296
21
89.2083101
0
LINE
8
DEFAULT_255_2_778
10
5.406
20
93.5260344
11
5.406
21
92.6388344
0
LINE
8
DEFAULT_255_2_778
10
5.406
20
98.6245344
11
5.406
21
97.7374344
0
LINE
8
DEFAULT_255_2_778
10
5.406
20
83.3287365
11
5.406
21
82.4415365
0
LINE
8
DEFAULT_255_2_778
10
5.406
20
88.4272365
11
5.406
21
87.5400365
0
LINE
8
DEFAULT_255_2_778
10
5.406
20
73.1314324
11
5.406
21
72.2442324
0
LINE
8
DEFAULT_255_2_778
10
5.406
20
78.2299324
11
5.406
21
77.3428324
0
LINE
8
DEFAULT_255_2_778
10
5.4059907
20
68.0326365
11
5.4059907
21
67.1454365
0
LINE
8
DEFAULT_255_2_778
10
5.4059907
20
62.4679365
11
5.4059907
21
62.0469365
0
LINE
8
DEFAULT_255_2_778
10
5.4059907
20
62.9341365
11
5.4059907
21
62.6669365
0
LINE
8
DEFAULT_255_2_778
10
5.2477907
20
62.4681365
11
5.2477907
21
62.6669365
0
LINE
8
DEFAULT_255_2_778
10
5.406
20
52.7368365
11
5.406
21
51.8496365
0
LINE
8
DEFAULT_255_2_778
10
5.406
20
57.8353365
11
5.406
21
56.9482365
0
LINE
8
DEFAULT_255_2_778
10
5.406
20
42.5395365
11
5.406
21
41.6523365
0
LINE
8
DEFAULT_255_2_778
10
5.406
20
47.6380365
11
5.406
21
46.7508365
0
LINE
8
DEFAULT_255_2_778
10
5.406
20
32.3422324
11
5.406
21
31.4550324
0
LINE
8
DEFAULT_255_2_778
10
5.406
20
37.4407324
11
5.406
21
36.5536324
0
LINE
8
DEFAULT_255_2_778
10
5.4059907
20
27.2434286
11
5.4059907
21
26.3563286
0
LINE
8
DEFAULT_255_2_778
10
5.4059907
20
21.6787286
11
5.4059907
21
21.2577286
0
LINE
8
DEFAULT_255_2_778
10
5.4059907
20
22.1449286
11
5.4059907
21
21.8777286
0
LINE
8
DEFAULT_255_2_778
10
5.2477907
20
21.6789286
11
5.2477907
21
21.8777286
0
LINE
8
DEFAULT_255_2_778
10
5.4059907
20
17.0461286
11
5.4059907
21
16.1589286
0
LINE
8
DEFAULT_255_2_778
10
3.2774105
20
94.1761548
11
3.2406105
21
94.0221548
0
LINE
8
DEFAULT_255_2_778
10
3.2774105
20
99.2746548
11
3.2406105
21
99.1206548
0
LINE
8
DEFAULT_255_2_778
10
3.2774105
20
83.9788527
11
3.2406105
21
83.8248527
0
LINE
8
DEFAULT_255_2_778
10
3.2774105
20
89.0773527
11
3.2406105
21
88.9233527
0
LINE
8
DEFAULT_255_2_778
10
3.2774105
20
73.7815568
11
3.2406105
21
73.6275568
0
LINE
8
DEFAULT_255_2_778
10
3.2774105
20
78.8800568
11
3.2406105
21
78.7260568
0
LINE
8
DEFAULT_255_2_778
10
6.0187654
20
94.2793546
11
5.9938654
21
94.1761546
0
LINE
8
DEFAULT_255_2_778
10
6.0187654
20
99.3778546
11
5.9938654
21
99.2746546
0
LINE
8
DEFAULT_255_2_778
10
5.4435326
20
78.1812804
11
6.2701326
21
79.0665804
0
LINE
8
DEFAULT_255_2_778
10
6.2701326
20
79.0665804
11
6.4846326
21
79.3102804
0
LINE
8
DEFAULT_255_2_778
10
5.4435326
20
83.2800804
11
6.2701326
21
84.1653804
0
LINE
8
DEFAULT_255_2_778
10
6.2701326
20
84.1653804
11
6.4846326
21
84.4090804
0
LINE
8
DEFAULT_255_2_778
10
5.4435326
20
67.9838845
11
6.2701326
21
68.8691845
0
LINE
8
DEFAULT_255_2_778
10
6.2701326
20
68.8691845
11
6.4846326
21
69.1128845
0
LINE
8
DEFAULT_255_2_778
10
5.4435326
20
73.0826845
11
6.2701326
21
73.9679845
0
LINE
8
DEFAULT_255_2_778
10
6.2701326
20
73.9679845
11
6.4846326
21
74.2116845
0
LINE
8
DEFAULT_255_2_778
10
3.6978296
20
68.8138803
11
3.7139296
21
68.8263803
0
LINE
8
DEFAULT_255_2_778
10
3.6978296
20
73.9124803
11
3.7139296
21
73.9248803
0
ARC
8
DEFAULT_255_2_778
10
-1.1984719
20
65.7561179
40
8.6565142
50
300.855204
51
303.2450209
0
ARC
8
DEFAULT_255_2_778
10
-2.8103841
20
68.2398489
40
11.6174336
50
303.178264
51
304.0707871
0
LINE
8
DEFAULT_255_2_778
10
3.6978965
20
63.7151935
11
3.7139965
21
63.7275935
0
LINE
8
DEFAULT_255_2_778
10
3.2406059
20
63.430439
11
2.5876059
21
62.934339
0
LINE
8
DEFAULT_255_2_778
10
3.2406059
20
68.529239
11
2.5876059
21
68.033139
0
LINE
8
DEFAULT_255_2_778
10
5.9940979
20
63.5842143
11
5.4434979
21
62.8852143
0
LINE
8
DEFAULT_255_2_778
10
5.9846347
20
51.010668
11
6.0187347
21
51.051368
0
LINE
8
DEFAULT_255_2_778
10
5.9846347
20
56.109368
11
6.0187347
21
56.150168
0
LINE
8
DEFAULT_255_2_778
10
6.4846326
20
53.8168472
11
6.2701326
21
53.5731472
0
LINE
8
DEFAULT_255_2_778
10
6.2701326
20
53.5731472
11
5.4435326
21
52.6878472
0
LINE
8
DEFAULT_255_2_778
10
5.4435326
20
57.7863472
11
6.2701326
21
58.6716472
0
LINE
8
DEFAULT_255_2_778
10
6.2701326
20
58.6716472
11
6.4846326
21
58.9153472
0
LINE
8
DEFAULT_255_2_778
10
6.4846326
20
43.6195472
11
6.2701326
21
43.3758472
0
LINE
8
DEFAULT_255_2_778
10
6.2701326
20
43.3758472
11
5.4435326
21
42.4905472
0
LINE
8
DEFAULT_255_2_778
10
5.4435326
20
47.5890472
11
6.2701326
21
48.4743472
0
LINE
8
DEFAULT_255_2_778
10
6.2701326
20
48.4743472
11
6.4846326
21
48.7180472
0
LINE
8
DEFAULT_255_2_778
10
3.6978296
20
48.4192803
11
3.7139296
21
48.4317803
0
LINE
8
DEFAULT_255_2_778
10
3.6978296
20
53.5178803
11
3.7139296
21
53.5302803
0
LINE
8
DEFAULT_255_2_778
10
3.6978296
20
38.2219803
11
3.7139296
21
38.2344803
0
LINE
8
DEFAULT_255_2_778
10
3.6978296
20
43.3205803
11
3.7139296
21
43.3329803
0
LINE
8
DEFAULT_255_2_778
10
3.2406059
20
53.233139
11
2.5876059
21
52.737039
0
LINE
8
DEFAULT_255_2_778
10
3.2406059
20
58.331939
11
2.5876059
21
57.835839
0
LINE
8
DEFAULT_255_2_778
10
3.2406059
20
43.035839
11
2.5876059
21
42.539739
0
LINE
8
DEFAULT_255_2_778
10
3.2406059
20
48.134639
11
2.5876059
21
47.638539
0
LINE
8
DEFAULT_255_2_778
10
3.517043
20
38.1939957
11
3.277343
21
38.0907957
0
LINE
8
DEFAULT_255_2_778
10
5.9846347
20
40.8133639
11
6.0187347
21
40.8540639
0
LINE
8
DEFAULT_255_2_778
10
5.9846347
20
45.9121639
11
6.0187347
21
45.9528639
0
LINE
8
DEFAULT_255_2_778
10
5.9846347
20
30.616068
11
6.0187347
21
30.656768
0
LINE
8
DEFAULT_255_2_778
10
5.9846347
20
35.714768
11
6.0187347
21
35.755568
0
LINE
8
DEFAULT_255_2_778
10
6.4846326
20
33.4222472
11
6.2701326
21
33.1785472
0
LINE
8
DEFAULT_255_2_778
10
6.2701326
20
33.1785472
11
5.4435326
21
32.2932472
0
LINE
8
DEFAULT_255_2_778
10
5.4435326
20
37.3917472
11
6.2701326
21
38.2770472
0
LINE
8
DEFAULT_255_2_778
10
6.2701326
20
38.2770472
11
6.4846326
21
38.5207472
0
LINE
8
DEFAULT_255_2_778
10
6.4846326
20
23.2249472
11
6.2701326
21
22.9812472
0
LINE
8
DEFAULT_255_2_778
10
6.2701326
20
22.9812472
11
5.4435326
21
22.0959472
0
LINE
8
DEFAULT_255_2_778
10
5.4435326
20
27.1944472
11
6.2701326
21
28.0797472
0
LINE
8
DEFAULT_255_2_778
10
6.2701326
20
28.0797472
11
6.4846326
21
28.3234472
0
LINE
8
DEFAULT_255_2_778
10
3.6978296
20
28.0246803
11
3.7139296
21
28.0371803
0
LINE
8
DEFAULT_255_2_778
10
3.6978296
20
33.1232803
11
3.7139296
21
33.1356803
0
LINE
8
DEFAULT_255_2_778
10
3.6978296
20
17.8273803
11
3.7139296
21
17.8398803
0
LINE
8
DEFAULT_255_2_778
10
3.6978296
20
22.9259803
11
3.7139296
21
22.9383803
0
LINE
8
DEFAULT_255_2_778
10
3.2406059
20
32.838539
11
2.5876059
21
32.342439
0
LINE
8
DEFAULT_255_2_778
10
3.2406059
20
37.937339
11
2.5876059
21
37.441239
0
LINE
8
DEFAULT_255_2_778
10
3.2406059
20
22.641239
11
2.5876059
21
22.145139
0
LINE
8
DEFAULT_255_2_778
10
3.2406059
20
27.740039
11
2.5876059
21
27.243939
0
LINE
8
DEFAULT_255_2_778
10
6.4846326
20
13.0276472
11
6.2701326
21
12.7839472
0
LINE
8
DEFAULT_255_2_778
10
6.2701326
20
12.7839472
11
5.4435326
21
11.8986472
0
LINE
8
DEFAULT_255_2_778
10
5.4435326
20
16.9971472
11
6.2701326
21
17.8824472
0
LINE
8
DEFAULT_255_2_778
10
6.2701326
20
17.8824472
11
6.4846326
21
18.1261472
0
LINE
8
DEFAULT_255_2_778
10
3.2406059
20
12.443939
11
2.5876059
21
11.947839
0
LINE
8
DEFAULT_255_2_778
10
3.2406059
20
17.542739
11
2.5876059
21
17.046639
0
LINE
8
DEFAULT_255_2_778
10
6.0187654
20
56.1502135
11
5.9938654
21
56.2531135
0
LINE
8
DEFAULT_255_2_778
10
6.0187654
20
45.9529135
11
5.9938654
21
46.0558135
0
LINE
8
DEFAULT_255_2_778
10
3.254107
20
58.3123012
11
5.875607
21
58.3123012
0
LINE
8
DEFAULT_255_2_778
10
3.647507
20
58.5621012
11
6.137807
21
58.5621012
0
LINE
8
DEFAULT_255_2_778
10
6.018707
20
51.0514012
11
5.993807
21
51.1543012
0
LINE
8
DEFAULT_255_2_778
10
6.018707
20
40.8541012
11
5.993807
21
40.9570012
0
LINE
8
DEFAULT_255_2_778
10
6.018707
20
35.7556012
11
5.993807
21
35.8585012
0
LINE
8
DEFAULT_255_2_778
10
6.018707
20
102.0379012
11
5.993807
21
102.1408012
0
LINE
8
DEFAULT_255_2_778
10
6.328507
20
99.8226012
11
6.328507
21
101.5926012
0
LINE
8
DEFAULT_255_2_778
10
2.587607
20
98.6245012
11
2.304207
21
102.8362012
0
LINE
8
DEFAULT_255_2_778
10
2.304207
20
102.8362012
11
5.405907
21
102.8362012
0
LINE
8
DEFAULT_255_2_778
10
5.405907
20
102.8362012
11
5.458807
21
102.8396012
0
LINE
8
DEFAULT_255_2_778
10
5.458807
20
102.8396012
11
6.270007
21
101.9641012
0
LINE
8
DEFAULT_255_2_778
10
6.270007
20
101.9641012
11
6.488607
21
101.7141012
0
LINE
8
DEFAULT_255_2_778
10
3.713907
20
99.4185012
11
3.713907
21
101.9974012
0
LINE
8
DEFAULT_255_2_778
10
3.697807
20
102.0099012
11
3.697807
21
99.4058012
0
LINE
8
DEFAULT_255_2_778
10
2.539707
20
102.8274012
11
3.240607
21
102.2948012
0
LINE
8
DEFAULT_255_2_778
10
3.240607
20
102.2948012
11
3.240607
21
99.1206012
0
LINE
8
DEFAULT_255_2_778
10
3.240607
20
99.1206012
11
2.587607
21
98.6245012
0
LINE
8
DEFAULT_255_2_778
10
2.587607
20
98.6245012
11
5.405607
21
98.6245012
0
LINE
8
DEFAULT_255_2_778
10
5.405607
20
98.6245012
11
5.443207
21
98.5756012
0
LINE
8
DEFAULT_255_2_778
10
5.443207
20
98.5756012
11
5.993807
21
99.2746012
0
LINE
8
DEFAULT_255_2_778
10
5.993807
20
99.2746012
11
3.277307
21
99.2746012
0
LINE
8
DEFAULT_255_2_778
10
3.277307
20
99.2746012
11
3.517107
21
99.3778012
0
LINE
8
DEFAULT_255_2_778
10
3.517107
20
99.3778012
11
6.018707
21
99.3775012
0
LINE
8
DEFAULT_255_2_778
10
6.018707
20
99.3775012
11
5.984607
21
99.4183012
0
LINE
8
DEFAULT_255_2_778
10
5.984607
20
99.4183012
11
3.713607
21
99.4183012
0
LINE
8
DEFAULT_255_2_778
10
3.713607
20
99.4183012
11
3.697507
21
99.4058012
0
LINE
8
DEFAULT_255_2_778
10
3.697507
20
99.4058012
11
3.517107
21
99.3778012
0
LINE
8
DEFAULT_255_2_778
10
5.453007
20
102.8274012
11
5.993807
21
102.1408012
0
LINE
8
DEFAULT_255_2_778
10
5.993807
20
102.1408012
11
3.277307
21
102.1408012
0
LINE
8
DEFAULT_255_2_778
10
3.277307
20
102.1408012
11
3.517107
21
102.0377012
0
LINE
8
DEFAULT_255_2_778
10
5.984607
20
101.9972012
11
6.018707
21
102.0379012
0
LINE
8
DEFAULT_255_2_778
10
6.018707
20
102.0379012
11
3.517107
21
102.0379012
0
LINE
8
DEFAULT_255_2_778
10
3.517107
20
102.0379012
11
3.697507
21
102.0099012
0
LINE
8
DEFAULT_255_2_778
10
3.697507
20
102.0099012
11
3.713607
21
101.9974012
0
LINE
8
DEFAULT_255_2_778
10
3.713607
20
101.9974012
11
5.984607
21
101.9974012
0
LINE
8
DEFAULT_255_2_778
10
5.984607
20
101.9974012
11
6.328507
21
101.5931012
0
LINE
8
DEFAULT_255_2_778
10
6.328507
20
101.5931012
11
6.488607
21
101.7143012
0
LINE
8
DEFAULT_255_2_778
10
6.488607
20
101.7143012
11
6.484607
21
99.7048012
0
LINE
8
DEFAULT_255_2_778
10
6.484607
20
99.7048012
11
6.328507
21
99.8231012
0
LINE
8
DEFAULT_255_2_778
10
6.328507
20
99.8231012
11
5.984607
21
99.4188012
0
LINE
8
DEFAULT_255_2_778
10
6.018707
20
76.5448012
11
5.993807
21
76.6477012
0
LINE
8
DEFAULT_255_2_778
10
2.587607
20
73.1314012
11
2.304207
21
77.3430012
0
LINE
8
DEFAULT_255_2_778
10
2.304207
20
77.3430012
11
5.405907
21
77.3430012
0
LINE
8
DEFAULT_255_2_778
10
5.405907
20
77.3430012
11
5.458807
21
77.3465012
0
LINE
8
DEFAULT_255_2_778
10
5.458807
20
77.3465012
11
6.270007
21
76.4710012
0
LINE
8
DEFAULT_255_2_778
10
6.270007
20
76.4710012
11
6.488607
21
76.2209012
0
LINE
8
DEFAULT_255_2_778
10
3.697507
20
12.7286012
11
3.713607
21
12.7410012
0
LINE
8
DEFAULT_255_2_778
10
3.517107
20
15.3604012
11
3.697507
21
15.3324012
0
LINE
8
DEFAULT_255_2_778
10
3.697507
20
15.3324012
11
3.713607
21
15.3199012
0
LINE
8
DEFAULT_255_2_778
10
3.713607
20
15.3199012
11
5.984607
21
15.3199012
0
LINE
8
DEFAULT_255_2_778
10
5.984607
20
15.3199012
11
6.328507
21
14.9156012
0
LINE
8
DEFAULT_255_2_778
10
6.328507
20
14.9156012
11
6.328507
21
13.1456012
0
LINE
8
DEFAULT_255_2_778
10
6.328507
20
13.1456012
11
6.484607
21
13.0273012
0
LINE
8
DEFAULT_255_2_778
10
6.484607
20
13.0273012
11
6.488607
21
15.0368012
0
LINE
8
DEFAULT_255_2_778
10
6.488607
20
15.0368012
11
6.328507
21
14.9156012
0
LINE
8
DEFAULT_255_2_778
10
6.018707
20
91.8406012
11
5.993807
21
91.9435012
0
LINE
8
DEFAULT_255_2_778
10
6.328507
20
89.6253012
11
6.328507
21
91.3953012
0
LINE
8
DEFAULT_255_2_778
10
2.587607
20
88.4272012
11
2.304207
21
92.6389012
0
LINE
8
DEFAULT_255_2_778
10
2.304207
20
92.6389012
11
5.405907
21
92.6389012
0
LINE
8
DEFAULT_255_2_778
10
5.405907
20
92.6389012
11
5.458807
21
92.6423012
0
LINE
8
DEFAULT_255_2_778
10
5.458807
20
92.6423012
11
6.270007
21
91.7668012
0
LINE
8
DEFAULT_255_2_778
10
6.270007
20
91.7668012
11
6.488607
21
91.5168012
0
LINE
8
DEFAULT_255_2_778
10
5.993807
20
89.0776012
11
5.443207
21
88.3785012
0
LINE
8
DEFAULT_255_2_778
10
5.453007
20
92.6304012
11
5.993807
21
91.9438012
0
LINE
8
DEFAULT_255_2_778
10
5.993807
20
91.9438012
11
3.277307
21
91.9438012
0
LINE
8
DEFAULT_255_2_778
10
3.277307
20
91.9438012
11
3.517107
21
91.8406012
0
LINE
8
DEFAULT_255_2_778
10
3.240607
20
92.0978012
11
3.240607
21
88.9236012
0
LINE
8
DEFAULT_255_2_778
10
3.240607
20
88.9236012
11
2.587607
21
88.4275012
0
LINE
8
DEFAULT_255_2_778
10
2.587607
20
88.4275012
11
5.405607
21
88.4275012
0
LINE
8
DEFAULT_255_2_778
10
5.405607
20
88.4275012
11
5.443207
21
88.3785012
0
LINE
8
DEFAULT_255_2_778
10
5.443207
20
88.3785012
11
6.269807
21
89.2638012
0
LINE
8
DEFAULT_255_2_778
10
6.269807
20
89.2638012
11
6.484407
21
89.5075012
0
LINE
8
DEFAULT_255_2_778
10
6.018707
20
96.9394012
11
5.993807
21
97.0423012
0
LINE
8
DEFAULT_255_2_778
10
6.328507
20
94.7240012
11
6.328507
21
96.4941012
0
LINE
8
DEFAULT_255_2_778
10
2.587607
20
93.5260012
11
2.304207
21
97.7376012
0
LINE
8
DEFAULT_255_2_778
10
2.304207
20
97.7376012
11
5.405907
21
97.7376012
0
LINE
8
DEFAULT_255_2_778
10
5.405907
20
97.7376012
11
5.458807
21
97.7411012
0
LINE
8
DEFAULT_255_2_778
10
5.458807
20
97.7411012
11
6.270007
21
96.8656012
0
LINE
8
DEFAULT_255_2_778
10
6.270007
20
96.8656012
11
6.488607
21
96.6155012
0
LINE
8
DEFAULT_255_2_778
10
5.984807
20
96.8989012
11
6.019007
21
96.9397012
0
LINE
8
DEFAULT_255_2_778
10
6.019007
20
96.9397012
11
3.517307
21
96.9394012
0
LINE
8
DEFAULT_255_2_778
10
3.517307
20
96.9394012
11
3.277607
21
97.0426012
0
LINE
8
DEFAULT_255_2_778
10
3.277607
20
97.0426012
11
5.994107
21
97.0426012
0
LINE
8
DEFAULT_255_2_778
10
5.994107
20
97.0426012
11
5.453307
21
97.7292012
0
LINE
8
DEFAULT_255_2_778
10
2.539707
20
97.7292012
11
3.240607
21
97.1966012
0
LINE
8
DEFAULT_255_2_778
10
3.240607
20
97.1966012
11
3.240607
21
94.0224012
0
LINE
8
DEFAULT_255_2_778
10
3.240607
20
94.0224012
11
2.587607
21
93.5263012
0
LINE
8
DEFAULT_255_2_778
10
2.587607
20
93.5263012
11
5.405607
21
93.5263012
0
LINE
8
DEFAULT_255_2_778
10
5.405607
20
93.5263012
11
5.443207
21
93.4773012
0
LINE
8
DEFAULT_255_2_778
10
5.443207
20
93.4773012
11
5.993807
21
94.1763012
0
LINE
8
DEFAULT_255_2_778
10
5.993807
20
94.1763012
11
3.277307
21
94.1763012
0
LINE
8
DEFAULT_255_2_778
10
3.277307
20
94.1763012
11
3.517107
21
94.2795012
0
LINE
8
DEFAULT_255_2_778
10
3.517107
20
94.2795012
11
3.697507
21
94.3076012
0
LINE
8
DEFAULT_255_2_778
10
3.697507
20
94.3076012
11
3.713607
21
94.3200012
0
LINE
8
DEFAULT_255_2_778
10
3.713607
20
94.3200012
11
5.984607
21
94.3200012
0
LINE
8
DEFAULT_255_2_778
10
5.984607
20
94.3200012
11
6.018707
21
94.2793012
0
LINE
8
DEFAULT_255_2_778
10
6.018707
20
94.2793012
11
3.517107
21
94.2795012
0
LINE
8
DEFAULT_255_2_778
10
6.0187738
20
86.7421306
11
5.9938738
21
86.8450306
0
LINE
8
DEFAULT_255_2_778
10
2.5876738
20
83.3287306
11
2.3042738
21
87.5404306
0
LINE
8
DEFAULT_255_2_778
10
2.3042738
20
87.5404306
11
5.4059738
21
87.5404306
0
LINE
8
DEFAULT_255_2_778
10
5.4059738
20
87.5404306
11
5.4588738
21
87.5438306
0
LINE
8
DEFAULT_255_2_778
10
5.4588738
20
87.5438306
11
6.2700738
21
86.6683306
0
LINE
8
DEFAULT_255_2_778
10
6.2700738
20
86.6683306
11
6.4886738
21
86.4183306
0
LINE
8
DEFAULT_255_2_778
10
5.9848738
20
86.7016306
11
6.0190738
21
86.7424306
0
LINE
8
DEFAULT_255_2_778
10
6.0190738
20
86.7424306
11
3.5173738
21
86.7424306
0
LINE
8
DEFAULT_255_2_778
10
3.5173738
20
86.7424306
11
3.6978738
21
86.7143306
0
LINE
8
DEFAULT_255_2_778
10
3.6978738
20
86.7143306
11
3.7139738
21
86.7019306
0
LINE
8
DEFAULT_255_2_778
10
3.7139738
20
86.7019306
11
5.9848738
21
86.7019306
0
LINE
8
DEFAULT_255_2_778
10
5.9848738
20
86.7019306
11
6.3288738
21
86.2976306
0
LINE
8
DEFAULT_255_2_778
10
6.3288738
20
86.2976306
11
6.4889738
21
86.4188306
0
LINE
8
DEFAULT_255_2_778
10
6.4889738
20
86.4188306
11
6.4849738
21
84.4093306
0
LINE
8
DEFAULT_255_2_778
10
6.4849738
20
84.4093306
11
6.3288738
21
84.5276306
0
LINE
8
DEFAULT_255_2_778
10
6.3288738
20
84.5276306
11
6.3288738
21
86.2976306
0
LINE
8
DEFAULT_255_2_778
10
3.2408738
20
86.9996306
11
3.2408738
21
83.8253306
0
LINE
8
DEFAULT_255_2_778
10
3.2408738
20
83.8253306
11
2.5878738
21
83.3293306
0
LINE
8
DEFAULT_255_2_778
10
2.5878738
20
83.3293306
11
5.4059738
21
83.3293306
0
LINE
8
DEFAULT_255_2_778
10
5.4059738
20
83.3293306
11
5.4435738
21
83.2803306
0
LINE
8
DEFAULT_255_2_778
10
5.4435738
20
83.2803306
11
5.9941738
21
83.9793306
0
LINE
8
DEFAULT_255_2_778
10
6.0187738
20
81.6433306
11
5.9938738
21
81.7463306
0
LINE
8
DEFAULT_255_2_778
10
2.5876738
20
78.2299306
11
2.3042738
21
82.4416306
0
LINE
8
DEFAULT_255_2_778
10
2.3042738
20
82.4416306
11
5.4059738
21
82.4416306
0
LINE
8
DEFAULT_255_2_778
10
5.4059738
20
82.4416306
11
5.4588738
21
82.4450306
0
LINE
8
DEFAULT_255_2_778
10
5.4588738
20
82.4450306
11
6.2700738
21
81.5695306
0
LINE
8
DEFAULT_255_2_778
10
6.2700738
20
81.5695306
11
6.4886738
21
81.3195306
0
ARC
8
DEFAULT_255_2_778
10
13.9512301
20
56.4727106
40
0.2010552
50
180.056697
51
268.6447743
0
ARC
8
DEFAULT_255_2_778
10
18.0874871
20
56.0015308
40
0.1974066
50
59.0961446
51
89.0747216
0
LINE
8
DEFAULT_255_2_778
10
13.9464749
20
56.2717116
11
18.0906749
21
56.1989116
0
LINE
8
DEFAULT_255_2_778
10
17.7874749
20
89.1279116
11
17.7874749
21
86.7967116
0
LINE
8
DEFAULT_255_2_778
10
17.7874
20
68.7330067
11
17.7874
21
66.4018067
0
LINE
8
DEFAULT_255_2_778
10
17.7874
20
58.5354067
11
17.7874
21
56.2042067
0
LINE
8
DEFAULT_255_2_778
10
17.7874
20
63.6342067
11
17.7874
21
61.3030067
0
ARC
8
DEFAULT_255_2_778
10
13.9502998
20
12.3879198
40
0.2002023
50
91.1165802
51
180.1819339
0
LINE
8
DEFAULT_255_2_778
10
13.7500985
20
102.154884
11
18.2868985
21
102.075284
0
LINE
8
DEFAULT_255_2_778
10
18.2868985
20
102.075284
11
18.2868985
21
12.664284
0
LINE
8
DEFAULT_255_2_778
10
18.2868985
20
12.664284
11
13.9463985
21
12.588084
0
ARC
8
DEFAULT_255_2_778
10
13.9504306
20
99.6968971
40
0.2003328
50
179.8547745
51
268.8467114
0
ARC
8
DEFAULT_255_2_778
10
16.807497
20
102.1974192
40
0.199954
50
293.1785526
51
330.0207517
0
ARC
8
DEFAULT_255_2_778
10
15.248515
20
99.8543036
40
0.4979715
50
228.890477
51
269.0200542
0
LINE
8
DEFAULT_255_2_778
10
17.7873985
20
43.2393049
11
17.7873985
21
40.9081049
0
LINE
8
DEFAULT_255_2_778
10
17.7873985
20
33.0417049
11
17.7873985
21
30.7105049
0
LINE
8
DEFAULT_255_2_778
10
17.7873985
20
38.1405049
11
17.7873985
21
35.8093049
0
LINE
8
DEFAULT_255_2_778
10
17.7873985
20
27.9429049
11
17.7873985
21
25.6117049
0
LINE
8
DEFAULT_255_2_778
10
17.7873985
20
17.7456049
11
17.7873985
21
15.4144049
0
LINE
8
DEFAULT_255_2_778
10
17.7873985
20
22.8444049
11
17.7873985
21
20.5132049
0
LINE
8
DEFAULT_255_2_778
10
14.2495985
20
99.2632049
11
14.2495985
21
99.4910049
0
LINE
8
DEFAULT_255_2_778
10
14.2495985
20
101.9522049
11
14.2495985
21
102.1464049
0
LINE
8
DEFAULT_255_2_778
10
14.7491985
20
102.1377049
11
14.7491985
21
101.9609049
0
LINE
8
DEFAULT_255_2_778
10
16.7078985
20
101.9953049
11
16.7078985
21
102.1035049
0
LINE
8
DEFAULT_255_2_778
10
15.9177985
20
101.9816049
11
15.9177985
21
102.1173049
0
LINE
8
DEFAULT_255_2_778
10
18.2868985
20
99.4204049
11
13.9463985
21
99.4966049
0
LINE
8
DEFAULT_255_2_778
10
17.2377985
20
99.3162049
11
17.2377985
21
99.4389049
0
LINE
8
DEFAULT_255_2_778
10
17.7873985
20
102.0144049
11
17.7873985
21
102.0773049
0
LINE
8
DEFAULT_255_2_778
10
15.7484985
20
99.4651049
11
15.7484985
21
99.3471049
0
LINE
8
DEFAULT_255_2_778
10
16.9573985
20
102.0646049
11
16.9165985
21
102.0297049
0
LINE
8
DEFAULT_255_2_778
10
16.9165985
20
102.0297049
11
16.8861985
21
102.0136049
0
LINE
8
DEFAULT_255_2_778
10
15.2399985
20
99.3564049
11
17.3764985
21
99.3188049
0
LINE
8
DEFAULT_255_2_778
10
14.8922985
20
101.9702049
11
14.9451985
21
101.9784049
0
LINE
8
DEFAULT_255_2_778
10
14.9451985
20
101.9784049
11
15.9175985
21
101.9953049
0
ARC
8
DEFAULT_255_2_778
10
13.950435
20
97.2619956
40
0.2003328
50
179.8547745
51
268.8467114
0
ARC
8
DEFAULT_255_2_778
10
13.950435
20
96.6836112
40
0.2003328
50
91.1532886
51
180.1452255
0
ARC
8
DEFAULT_255_2_778
10
15.2487319
20
96.5273438
40
0.4971328
50
90.9830474
51
131.0581546
0
ARC
8
DEFAULT_255_2_778
10
13.9511797
20
99.0572832
40
0.2010769
50
91.3612767
51
179.9657565
0
ARC
8
DEFAULT_255_2_778
10
18.086679
20
99.5312513
40
0.2002863
50
271.1225513
51
330.328222
0
ARC
8
DEFAULT_255_2_778
10
13.950735
20
94.5978956
40
0.2003328
50
179.8547745
51
268.8467114
0
ARC
8
DEFAULT_255_2_778
10
18.0875046
20
94.4315671
40
0.1993926
50
270.9765426
51
330.4742277
0
ARC
8
DEFAULT_255_2_778
10
13.950735
20
93.9592112
40
0.2003328
50
91.1532886
51
180.1452255
0
ARC
8
DEFAULT_255_2_778
10
13.9511041
20
91.5846391
40
0.2002023
50
91.1165802
51
180.1819339
0
ARC
8
DEFAULT_255_2_778
10
13.9519576
20
92.1634022
40
0.2010549
50
180.0566379
51
268.6448686
0
ARC
8
DEFAULT_255_2_778
10
18.0882161
20
91.6925882
40
0.197041
50
59.0667571
51
89.0733092
0
ARC
8
DEFAULT_255_2_778
10
13.950735
20
89.4990956
40
0.2003328
50
179.8547745
51
268.8467114
0
ARC
8
DEFAULT_255_2_778
10
13.9514578
20
88.8597046
40
0.2010551
50
91.3551906
51
179.9433377
0
ARC
8
DEFAULT_255_2_778
10
18.0871448
20
89.3335703
40
0.2001021
50
271.0761172
51
330.3248811
0
ARC
8
DEFAULT_255_2_778
10
15.2493077
20
89.6572845
40
0.4984588
50
228.910619
51
268.9878636
0
ARC
8
DEFAULT_255_2_778
10
13.950435
20
87.0643956
40
0.2003328
50
179.8547745
51
268.8467114
0
ARC
8
DEFAULT_255_2_778
10
13.9503697
20
86.4860752
40
0.2002675
50
91.1349695
51
180.1635794
0
ARC
8
DEFAULT_255_2_778
10
15.2493643
20
86.3279025
40
0.499285
50
91.0513901
51
130.9849707
0
ARC
8
DEFAULT_255_2_778
10
17.1872071
20
83.9428785
40
0.2003668
50
23.3220062
51
88.8287191
0
ARC
8
DEFAULT_255_2_778
10
13.9507571
20
84.4003174
40
0.2003551
50
179.832428
51
268.8405039
0
ARC
8
DEFAULT_255_2_778
10
13.9511577
20
83.7609046
40
0.2010549
50
91.3551414
51
179.9433376
0
ARC
8
DEFAULT_255_2_778
10
18.0867935
20
84.2348567
40
0.2001895
50
271.0903282
51
330.3106509
0
LINE
8
DEFAULT_255_2_778
10
14.2496028
20
96.8889034
11
14.2496028
21
97.0564034
0
LINE
8
DEFAULT_255_2_778
10
18.2869028
20
96.9855034
11
13.9464028
21
97.0617034
0
LINE
8
DEFAULT_255_2_778
10
18.2869028
20
96.9601034
11
13.9464028
21
96.8839034
0
LINE
8
DEFAULT_255_2_778
10
17.7874028
20
99.3255034
11
17.7874028
21
96.9942034
0
LINE
8
DEFAULT_255_2_778
10
15.7485028
20
97.0299034
11
15.7485028
21
96.9154034
0
LINE
8
DEFAULT_255_2_778
10
17.2376028
20
96.9416034
11
17.2376028
21
97.0040034
0
LINE
8
DEFAULT_255_2_778
10
13.9464028
20
99.2583034
11
18.0906028
21
99.3310034
0
LINE
8
DEFAULT_255_2_778
10
18.2872028
20
94.3214034
11
13.9467028
21
94.3976034
0
LINE
8
DEFAULT_255_2_778
10
18.0909028
20
94.2322034
11
13.9467028
21
94.1595034
0
LINE
8
DEFAULT_255_2_778
10
14.2502028
20
94.1645034
11
14.2502028
21
94.3923034
0
LINE
8
DEFAULT_255_2_778
10
14.7500028
20
94.3836034
11
14.7500028
21
94.1735034
0
LINE
8
DEFAULT_255_2_778
10
18.2877028
20
91.8610034
11
13.9472028
21
91.7848034
0
LINE
8
DEFAULT_255_2_778
10
17.7882028
20
94.2264034
11
17.7882028
21
91.8952034
0
LINE
8
DEFAULT_255_2_778
10
13.9472028
20
91.9624034
11
18.0914028
21
91.8896034
0
LINE
8
DEFAULT_255_2_778
10
14.7500028
20
91.9481034
11
14.7500028
21
91.7983034
0
LINE
8
DEFAULT_255_2_778
10
14.2504028
20
91.7896034
11
14.2504028
21
91.9584034
0
LINE
8
DEFAULT_255_2_778
10
18.2872028
20
89.2226034
11
13.9467028
21
89.2988034
0
LINE
8
DEFAULT_255_2_778
10
17.2381028
20
89.1184034
11
17.2381028
21
89.2411034
0
LINE
8
DEFAULT_255_2_778
10
13.9467028
20
89.0607034
11
18.0909028
21
89.1335034
0
LINE
8
DEFAULT_255_2_778
10
14.2499028
20
89.0660034
11
14.2499028
21
89.2938034
0
LINE
8
DEFAULT_255_2_778
10
15.7488028
20
89.2676034
11
15.7488028
21
89.1499034
0
LINE
8
DEFAULT_255_2_778
10
15.2405028
20
89.1589034
11
17.3815028
21
89.1213034
0
LINE
8
DEFAULT_255_2_778
10
18.2869028
20
86.7879034
11
13.9464028
21
86.8641034
0
LINE
8
DEFAULT_255_2_778
10
18.2869028
20
86.7625034
11
13.9464028
21
86.6863034
0
LINE
8
DEFAULT_255_2_778
10
15.7485028
20
86.8324034
11
15.7485028
21
86.7178034
0
LINE
8
DEFAULT_255_2_778
10
17.2376028
20
86.7440034
11
17.2376028
21
86.8064034
0
LINE
8
DEFAULT_255_2_778
10
14.2496028
20
86.6916034
11
14.2496028
21
86.8591034
0
LINE
8
DEFAULT_255_2_778
10
18.2872028
20
84.1238034
11
13.9467028
21
84.2000034
0
LINE
8
DEFAULT_255_2_778
10
14.7497028
20
84.1860034
11
14.7497028
21
83.9759034
0
LINE
8
DEFAULT_255_2_778
10
14.2499028
20
83.9669034
11
14.2499028
21
84.1947034
0
LINE
8
DEFAULT_255_2_778
10
13.9464028
20
83.9619034
11
18.0906028
21
84.0347034
0
ARC
8
DEFAULT_255_2_778
10
17.1876905
20
81.8438994
40
0.1995615
50
271.057901
51
314.5040172
0
ARC
8
DEFAULT_255_2_778
10
18.0859624
20
81.4907651
40
0.2021617
50
59.3987244
51
88.6642668
0
ARC
8
DEFAULT_255_2_778
10
13.9505071
20
81.9658641
40
0.2003328
50
179.8547745
51
268.8467114
0
LINE
8
DEFAULT_255_2_778
10
14.7494749
20
81.6015719
11
14.7494749
21
81.7512719
0
LINE
8
DEFAULT_255_2_778
10
17.7874749
20
84.0293719
11
17.7874749
21
81.6981719
0
LINE
8
DEFAULT_255_2_778
10
14.2496749
20
81.5928719
11
14.2496749
21
81.7600719
0
LINE
8
DEFAULT_255_2_778
10
18.0906749
20
81.6928719
11
13.9464749
21
81.7655719
0
ARC
8
DEFAULT_255_2_778
10
17.1871821
20
78.8441857
40
0.2004363
50
23.3662448
51
88.8284168
0
ARC
8
DEFAULT_255_2_778
10
13.9507125
20
79.3017724
40
0.2003328
50
179.8547745
51
268.8467114
0
ARC
8
DEFAULT_255_2_778
10
13.9506471
20
81.387552
40
0.2002675
50
91.1349446
51
180.1635897
0
ARC
8
DEFAULT_255_2_778
10
13.9512352
20
78.6623815
40
0.2010549
50
91.3551314
51
179.9433621
0
ARC
8
DEFAULT_255_2_778
10
18.0866622
20
79.1364907
40
0.2004488
50
271.1200331
51
330.3011836
0
ARC
8
DEFAULT_255_2_778
10
17.1876757
20
76.7451619
40
0.1996143
50
271.0347043
51
314.497239
0
ARC
8
DEFAULT_255_2_778
10
18.0858249
20
76.3918236
40
0.2023125
50
59.4098644
51
88.6531126
0
ARC
8
DEFAULT_255_2_778
10
13.9505125
20
76.8670724
40
0.2003328
50
179.8547745
51
268.8467114
0
LINE
8
DEFAULT_255_2_778
10
13.7501804
20
79.6097802
11
13.5503804
21
79.6062802
0
LINE
8
DEFAULT_255_2_778
10
18.2871804
20
79.0252802
11
13.9466804
21
79.1014802
0
LINE
8
DEFAULT_255_2_778
10
18.2871804
20
81.6639802
11
13.9466804
21
81.5877802
0
LINE
8
DEFAULT_255_2_778
10
14.7497804
20
79.0874802
11
14.7497804
21
78.8773802
0
LINE
8
DEFAULT_255_2_778
10
14.2499804
20
78.8686802
11
14.2499804
21
79.0961802
0
LINE
8
DEFAULT_255_2_778
10
13.9464804
20
78.8633802
11
18.0905804
21
78.9360802
0
LINE
8
DEFAULT_255_2_778
10
14.7494804
20
76.5027802
11
14.7494804
21
76.6524802
0
LINE
8
DEFAULT_255_2_778
10
17.7873804
20
78.9305802
11
17.7873804
21
76.5992802
0
LINE
8
DEFAULT_255_2_778
10
14.2496804
20
76.4939802
11
14.2496804
21
76.6612802
0
LINE
8
DEFAULT_255_2_778
10
18.0905804
20
76.5940802
11
13.9464804
21
76.6667802
0
LINE
8
DEFAULT_255_2_778
10
13.5503804
20
77.0972802
11
13.7461804
21
77.1006802
0
ARC
8
DEFAULT_255_2_778
10
13.9507125
20
74.2027266
40
0.2003328
50
179.8547745
51
268.8467114
0
ARC
8
DEFAULT_255_2_778
10
13.9507125
20
76.2884421
40
0.2003328
50
91.1532886
51
180.1452255
0
ARC
8
DEFAULT_255_2_778
10
18.0875564
20
74.0362727
40
0.1992662
50
270.9557913
51
330.4950423
0
ARC
8
DEFAULT_255_2_778
10
13.9507125
20
73.5640421
40
0.2003328
50
91.1532886
51
180.1452255
0
ARC
8
DEFAULT_255_2_778
10
13.9507344
20
71.1894204
40
0.2003549
50
91.1594118
51
180.1676068
0
ARC
8
DEFAULT_255_2_778
10
13.9515029
20
71.7682991
40
0.2011227
50
180.0754287
51
268.6260225
0
ARC
8
DEFAULT_255_2_778
10
18.0876925
20
71.2970535
40
0.1974066
50
59.0961446
51
89.0747216
0
LINE
8
DEFAULT_255_2_778
10
13.5503804
20
75.8436343
11
13.7501804
21
75.8402343
0
LINE
8
DEFAULT_255_2_778
10
18.2871804
20
73.9262343
11
13.9466804
21
74.0024343
0
LINE
8
DEFAULT_255_2_778
10
18.2871804
20
76.5649343
11
13.9466804
21
76.4887343
0
LINE
8
DEFAULT_255_2_778
10
18.0908804
20
73.8370343
11
13.9466804
21
73.7643343
0
LINE
8
DEFAULT_255_2_778
10
14.7497804
20
73.9884343
11
14.7497804
21
73.7783343
0
LINE
8
DEFAULT_255_2_778
10
14.2499804
20
73.7680343
11
14.2499804
21
73.9971343
0
LINE
8
DEFAULT_255_2_778
10
13.5503804
20
73.3346343
11
13.7461804
21
73.3312343
0
LINE
8
DEFAULT_255_2_778
10
13.5503804
20
72.7867343
11
13.7501804
21
72.7867343
0
LINE
8
DEFAULT_255_2_778
10
18.2871804
20
71.4658343
11
13.9466804
21
71.3897343
0
LINE
8
DEFAULT_255_2_778
10
17.7876804
20
73.8312343
11
17.7876804
21
71.5000343
0
LINE
8
DEFAULT_255_2_778
10
13.9466804
20
71.5672343
11
18.0908804
21
71.4944343
0
LINE
8
DEFAULT_255_2_778
10
14.7494804
20
71.5529343
11
14.7494804
21
71.4031343
0
LINE
8
DEFAULT_255_2_778
10
14.2499804
20
71.3944343
11
14.2499804
21
71.5619343
0
ARC
8
DEFAULT_255_2_778
10
13.950657
20
69.1042093
40
0.2002675
50
179.8364101
51
268.8651048
0
ARC
8
DEFAULT_255_2_778
10
18.0874925
20
68.9379442
40
0.1993919
50
270.9764357
51
330.4743256
0
ARC
8
DEFAULT_255_2_778
10
13.9505917
20
68.4656169
40
0.2002023
50
91.1165802
51
180.1819339
0
LINE
8
DEFAULT_255_2_778
10
18.2871904
20
68.8277811
11
13.9466904
21
68.9039811
0
LINE
8
DEFAULT_255_2_778
10
18.0908904
20
68.7385811
11
13.9466904
21
68.6657811
0
LINE
8
DEFAULT_255_2_778
10
14.7496904
20
68.8899811
11
14.7496904
21
68.6798811
0
LINE
8
DEFAULT_255_2_778
10
14.2498904
20
68.6695811
11
14.2498904
21
68.8986811
0
ARC
8
DEFAULT_255_2_778
10
13.9505917
20
66.0909215
40
0.2002023
50
91.1165802
51
180.1819339
0
ARC
8
DEFAULT_255_2_778
10
13.9508536
20
66.6691062
40
0.2004636
50
179.8914825
51
268.8100035
0
ARC
8
DEFAULT_255_2_778
10
18.0877026
20
66.198505
40
0.1974066
50
59.0961446
51
89.0747216
0
LINE
8
DEFAULT_255_2_778
10
18.2871904
20
66.3672858
11
13.9466904
21
66.2910858
0
LINE
8
DEFAULT_255_2_778
10
13.9466904
20
66.4686858
11
18.0908904
21
66.3958858
0
LINE
8
DEFAULT_255_2_778
10
14.7494904
20
66.4543858
11
14.7494904
21
66.3045858
0
LINE
8
DEFAULT_255_2_778
10
14.2498904
20
66.2958858
11
14.2498904
21
66.4646858
0
ARC
8
DEFAULT_255_2_778
10
13.950657
20
64.0054093
40
0.2002675
50
179.8364101
51
268.8651048
0
ARC
8
DEFAULT_255_2_778
10
18.0874925
20
63.8391442
40
0.1993919
50
270.9764357
51
330.4743256
0
ARC
8
DEFAULT_255_2_778
10
13.9505917
20
63.3668169
40
0.2002023
50
91.1165802
51
180.1819339
0
LINE
8
DEFAULT_255_2_778
10
18.2871904
20
63.7289811
11
13.9466904
21
63.8051811
0
LINE
8
DEFAULT_255_2_778
10
18.0908904
20
63.6397811
11
13.9466904
21
63.5669811
0
LINE
8
DEFAULT_255_2_778
10
14.7496904
20
63.7911811
11
14.7496904
21
63.5810811
0
LINE
8
DEFAULT_255_2_778
10
14.2498904
20
63.5707811
11
14.2498904
21
63.7998811
0
ARC
8
DEFAULT_255_2_778
10
13.9505917
20
60.9921215
40
0.2002023
50
91.1165802
51
180.1819339
0
ARC
8
DEFAULT_255_2_778
10
13.9508536
20
61.5703062
40
0.2004636
50
179.8914825
51
268.8100035
0
ARC
8
DEFAULT_255_2_778
10
18.0877026
20
61.099705
40
0.1974066
50
59.0961446
51
89.0747216
0
LINE
8
DEFAULT_255_2_778
10
18.2871904
20
61.2684858
11
13.9466904
21
61.1922858
0
LINE
8
DEFAULT_255_2_778
10
13.9466904
20
61.3698858
11
18.0908904
21
61.2970858
0
LINE
8
DEFAULT_255_2_778
10
14.7494904
20
61.3555858
11
14.7494904
21
61.2057858
0
LINE
8
DEFAULT_255_2_778
10
14.2498904
20
61.1970858
11
14.2498904
21
61.3658858
0
ARC
8
DEFAULT_255_2_778
10
13.950647
20
58.9068473
40
0.2002674
50
179.8363961
51
268.8650898
0
ARC
8
DEFAULT_255_2_778
10
18.0875565
20
58.7404572
40
0.1992659
50
270.9557665
51
330.4951101
0
ARC
8
DEFAULT_255_2_778
10
13.9507347
20
58.268205
40
0.2003552
50
91.1595103
51
180.1675376
0
ARC
8
DEFAULT_255_2_778
10
13.9504469
20
53.8080473
40
0.2002674
50
179.8363858
51
268.8651147
0
ARC
8
DEFAULT_255_2_778
10
13.9505125
20
55.8938269
40
0.2003328
50
91.1532886
51
180.1452255
0
LINE
8
DEFAULT_255_2_778
10
13.5503804
20
58.1584192
11
13.7501804
21
58.1584192
0
LINE
8
DEFAULT_255_2_778
10
13.7501804
20
58.2433192
11
13.5503804
21
58.2433192
0
LINE
8
DEFAULT_255_2_778
10
18.2871804
20
58.6304192
11
13.9466804
21
58.7066192
0
LINE
8
DEFAULT_255_2_778
10
18.0908804
20
58.5412192
11
13.9466804
21
58.4685192
0
LINE
8
DEFAULT_255_2_778
10
14.7497804
20
58.6926192
11
14.7497804
21
58.4825192
0
LINE
8
DEFAULT_255_2_778
10
14.2499804
20
58.4735192
11
14.2499804
21
58.7013192
0
LINE
8
DEFAULT_255_2_778
10
18.2869804
20
53.5316192
11
13.9464804
21
53.6078192
0
LINE
8
DEFAULT_255_2_778
10
18.2869804
20
56.1703192
11
13.9464804
21
56.0941192
0
LINE
8
DEFAULT_255_2_778
10
14.7494804
20
53.5938192
11
14.7494804
21
53.3837192
0
LINE
8
DEFAULT_255_2_778
10
14.7494804
20
56.2579192
11
14.7494804
21
56.1081192
0
LINE
8
DEFAULT_255_2_778
10
14.2499804
20
56.0994192
11
14.2499804
21
56.2682192
0
LINE
8
DEFAULT_255_2_778
10
14.2499804
20
53.3750192
11
14.2499804
21
53.6028192
0
ARC
8
DEFAULT_255_2_778
10
13.9508055
20
50.7947916
40
0.2003551
50
91.1595003
51
180.1675619
0
ARC
8
DEFAULT_255_2_778
10
18.0875534
20
53.6412686
40
0.1993917
50
270.976397
51
330.4743397
0
ARC
8
DEFAULT_255_2_778
10
13.9508055
20
53.1688916
40
0.2003551
50
91.1595003
51
180.1675619
0
ARC
8
DEFAULT_255_2_778
10
13.951506
20
51.3733044
40
0.2010549
50
180.0566379
51
268.6448686
0
ARC
8
DEFAULT_255_2_778
10
18.0872706
20
50.9014676
40
0.1981722
50
59.0963042
51
88.9358064
0
ARC
8
DEFAULT_255_2_778
10
13.9508053
20
48.7093196
40
0.200355
50
179.8324035
51
268.8405632
0
ARC
8
DEFAULT_255_2_778
10
13.9506525
20
45.6963414
40
0.2002023
50
91.1165802
51
180.1819339
0
ARC
8
DEFAULT_255_2_778
10
18.0875534
20
48.5427686
40
0.1993917
50
270.976397
51
330.4743397
0
ARC
8
DEFAULT_255_2_778
10
13.9506525
20
48.0704414
40
0.2002023
50
91.1165802
51
180.1819339
0
ARC
8
DEFAULT_255_2_778
10
13.951506
20
46.2748044
40
0.2010549
50
180.0566276
51
268.6448729
0
ARC
8
DEFAULT_255_2_778
10
18.0872699
20
45.8029661
40
0.1981738
50
59.0963664
51
88.9356238
0
ARC
8
DEFAULT_255_2_778
10
13.9506525
20
43.6104699
40
0.2002023
50
179.8180661
51
268.8834198
0
ARC
8
DEFAULT_255_2_778
10
18.087678
20
43.4440588
40
0.19918
50
270.9415972
51
330.5091772
0
ARC
8
DEFAULT_255_2_778
10
13.9507177
20
42.9718775
40
0.2002674
50
91.1348853
51
180.1636142
0
ARC
8
DEFAULT_255_2_778
10
13.9507177
20
38.5117338
40
0.2002674
50
179.8363858
51
268.8651147
0
ARC
8
DEFAULT_255_2_778
10
13.9508055
20
40.5974916
40
0.2003551
50
91.1595003
51
180.1675619
0
ARC
8
DEFAULT_255_2_778
10
13.9514402
20
37.8723713
40
0.2009891
50
91.3368235
51
179.9616905
0
ARC
8
DEFAULT_255_2_778
10
18.0871536
20
38.3461411
40
0.2000715
50
271.0876089
51
330.363187
0
ARC
8
DEFAULT_255_2_778
10
13.9514402
20
41.17654
40
0.2009891
50
180.0383095
51
268.6631765
0
ARC
8
DEFAULT_255_2_778
10
18.0878532
20
40.7067016
40
0.1961285
50
58.9371534
51
89.0949293
0
ARC
8
DEFAULT_255_2_778
10
15.2502847
20
38.6716996
40
0.5002886
50
229.0735993
51
268.8851885
0
ARC
8
DEFAULT_255_2_778
10
13.9507177
20
33.4129338
40
0.2002674
50
179.8363858
51
268.8651147
0
ARC
8
DEFAULT_255_2_778
10
13.9508055
20
35.4986915
40
0.2003552
50
91.1595103
51
180.1675376
0
ARC
8
DEFAULT_255_2_778
10
18.0873273
20
33.2465439
40
0.1992661
50
270.9557808
51
330.4950708
0
ARC
8
DEFAULT_255_2_778
10
13.9505055
20
32.7742916
40
0.2003551
50
91.1595003
51
180.1675619
0
ARC
8
DEFAULT_255_2_778
10
15.2491183
20
35.3431578
40
0.4977216
50
90.9862683
51
131.1729539
0
ARC
8
DEFAULT_255_2_778
10
18.0869052
20
35.6037143
40
0.2011362
50
59.3803737
51
88.7903989
0
ARC
8
DEFAULT_255_2_778
10
13.9509525
20
36.0777699
40
0.2002023
50
179.8180661
51
268.8834198
0
ARC
8
DEFAULT_255_2_778
10
13.9506525
20
28.3143699
40
0.2002023
50
179.8180661
51
268.8834198
0
ARC
8
DEFAULT_255_2_778
10
13.9506525
20
30.4002414
40
0.2002023
50
91.1165802
51
180.1819339
0
ARC
8
DEFAULT_255_2_778
10
13.9514402
20
27.6750713
40
0.2009891
50
91.3368235
51
179.9616905
0
ARC
8
DEFAULT_255_2_778
10
18.0871538
20
28.1488406
40
0.200071
50
271.0875299
51
330.3632747
0
ARC
8
DEFAULT_255_2_778
10
13.9515281
20
30.9792258
40
0.2010769
50
180.0342435
51
268.6387233
0
ARC
8
DEFAULT_255_2_778
10
18.0878532
20
30.5094016
40
0.1961285
50
58.9371534
51
89.0949293
0
ARC
8
DEFAULT_255_2_778
10
15.2496158
20
28.4731027
40
0.498674
50
229.0601066
51
268.9929286
0
ARC
8
DEFAULT_255_2_778
10
17.187253
20
22.7581115
40
0.2004361
50
23.3661771
51
88.828442
0
ARC
8
DEFAULT_255_2_778
10
13.9506525
20
23.2155699
40
0.2002023
50
179.8180661
51
268.8834198
0
ARC
8
DEFAULT_255_2_778
10
13.9508054
20
25.8800198
40
0.2003551
50
179.8324521
51
268.8405147
0
ARC
8
DEFAULT_255_2_778
10
13.950718
20
25.3016773
40
0.2002676
50
91.1349837
51
180.163545
0
ARC
8
DEFAULT_255_2_778
10
13.9510593
20
22.5766545
40
0.2012084
50
91.369283
51
179.900014
0
ARC
8
DEFAULT_255_2_778
10
18.0863579
20
23.0510426
40
0.2005767
50
271.1407755
51
330.2804453
0
ARC
8
DEFAULT_255_2_778
10
15.2494619
20
25.1450634
40
0.4990254
50
91.0461117
51
131.170697
0
ARC
8
DEFAULT_255_2_778
10
17.187253
20
17.6593115
40
0.2004361
50
23.3661771
51
88.828442
0
ARC
8
DEFAULT_255_2_778
10
17.1877354
20
20.6596638
40
0.1998908
50
271.0364684
51
314.4239044
0
ARC
8
DEFAULT_255_2_778
10
13.9508052
20
18.1171197
40
0.200355
50
179.8324276
51
268.840574
0
ARC
8
DEFAULT_255_2_778
10
13.9506525
20
20.2029414
40
0.2002023
50
91.1165802
51
180.1819339
0
ARC
8
DEFAULT_255_2_778
10
13.9512739
20
17.4779406
40
0.2011229
50
91.3740271
51
179.9244809
0
ARC
8
DEFAULT_255_2_778
10
18.0867274
20
17.9519534
40
0.2002861
50
271.1225408
51
330.3282509
0
ARC
8
DEFAULT_255_2_778
10
18.0867944
20
20.3082921
40
0.2004566
50
59.3282435
51
88.8118088
0
ARC
8
DEFAULT_255_2_778
10
13.950718
20
20.781734
40
0.2002676
50
179.836455
51
268.8650163
0
ARC
8
DEFAULT_255_2_778
10
17.1879233
20
15.560715
40
0.1994388
50
270.9848352
51
314.4755954
0
ARC
8
DEFAULT_255_2_778
10
13.9507833
20
15.6826979
40
0.2003328
50
179.8547745
51
268.8467114
0
ARC
8
DEFAULT_255_2_778
10
13.950718
20
15.1043773
40
0.2002676
50
91.1349837
51
180.163545
0
ARC
8
DEFAULT_255_2_778
10
13.9507833
20
13.0553979
40
0.2003328
50
179.8547745
51
268.8467114
0
ARC
8
DEFAULT_255_2_778
10
14.5499727
20
12.9920908
40
0.1989106
50
270.9156033
51
309.4089259
0
LINE
8
DEFAULT_255_2_778
10
18.2872512
20
51.0713057
11
13.9467512
21
50.9951057
0
LINE
8
DEFAULT_255_2_778
10
17.7877512
20
53.4366057
11
17.7877512
21
51.1054057
0
LINE
8
DEFAULT_255_2_778
10
18.0909512
20
53.4419057
11
13.9467512
21
53.3692057
0
LINE
8
DEFAULT_255_2_778
10
13.9467512
20
51.1723057
11
18.0909512
21
51.0996057
0
LINE
8
DEFAULT_255_2_778
10
14.7494512
20
51.1580057
11
14.7494512
21
51.0083057
0
LINE
8
DEFAULT_255_2_778
10
14.2499512
20
50.9996057
11
14.2499512
21
51.1684057
0
LINE
8
DEFAULT_255_2_778
10
18.2872512
20
48.4328057
11
13.9467512
21
48.5090057
0
LINE
8
DEFAULT_255_2_778
10
18.2872512
20
45.9727057
11
13.9467512
21
45.8965057
0
LINE
8
DEFAULT_255_2_778
10
17.7877512
20
48.3381057
11
17.7877512
21
46.0069057
0
LINE
8
DEFAULT_255_2_778
10
18.0909512
20
48.3434057
11
13.9467512
21
48.2706057
0
LINE
8
DEFAULT_255_2_778
10
13.9467512
20
46.0738057
11
18.0909512
21
46.0011057
0
LINE
8
DEFAULT_255_2_778
10
14.7494512
20
46.0595057
11
14.7494512
21
45.9098057
0
LINE
8
DEFAULT_255_2_778
10
14.7494512
20
48.4942057
11
14.7494512
21
48.2841057
0
LINE
8
DEFAULT_255_2_778
10
14.2497512
20
45.9010057
11
14.2497512
21
46.0698057
0
LINE
8
DEFAULT_255_2_778
10
14.2497512
20
48.2751057
11
14.2497512
21
48.5029057
0
LINE
8
DEFAULT_255_2_778
10
18.2872512
20
43.3341057
11
13.9467512
21
43.4103057
0
LINE
8
DEFAULT_255_2_778
10
18.0909512
20
43.2449057
11
13.9467512
21
43.1721057
0
LINE
8
DEFAULT_255_2_778
10
14.2502512
20
43.1772057
11
14.2502512
21
43.4050057
0
LINE
8
DEFAULT_255_2_778
10
14.7497512
20
43.3962057
11
14.7497512
21
43.1861057
0
LINE
8
DEFAULT_255_2_778
10
18.2872512
20
38.2353057
11
13.9467512
21
38.3115057
0
LINE
8
DEFAULT_255_2_778
10
18.2872512
20
40.8740057
11
13.9467512
21
40.7978057
0
LINE
8
DEFAULT_255_2_778
10
17.2381512
20
38.1310057
11
17.2381512
21
38.2538057
0
LINE
8
DEFAULT_255_2_778
10
13.9467512
20
38.0733057
11
18.0909512
21
38.1461057
0
LINE
8
DEFAULT_255_2_778
10
13.9467512
20
40.9756057
11
18.0909512
21
40.9028057
0
LINE
8
DEFAULT_255_2_778
10
14.7494512
20
40.9613057
11
14.7494512
21
40.8115057
0
LINE
8
DEFAULT_255_2_778
10
14.2499512
20
38.0781057
11
14.2499512
21
38.3059057
0
LINE
8
DEFAULT_255_2_778
10
14.2499512
20
40.8028057
11
14.2499512
21
40.9703057
0
LINE
8
DEFAULT_255_2_778
10
15.7488512
20
38.2797057
11
15.7488512
21
38.1628057
0
LINE
8
DEFAULT_255_2_778
10
15.2405512
20
38.1715057
11
17.4029512
21
38.1337057
0
LINE
8
DEFAULT_255_2_778
10
18.2872512
20
33.1365057
11
13.9467512
21
33.2127057
0
LINE
8
DEFAULT_255_2_778
10
18.2872512
20
35.7752057
11
13.9467512
21
35.6990057
0
LINE
8
DEFAULT_255_2_778
10
15.7488512
20
35.8450057
11
15.7488512
21
35.7305057
0
LINE
8
DEFAULT_255_2_778
10
17.2379512
20
35.7567057
11
17.2379512
21
35.8191057
0
LINE
8
DEFAULT_255_2_778
10
18.0906512
20
33.0473057
11
13.9464512
21
32.9746057
0
LINE
8
DEFAULT_255_2_778
10
14.2499512
20
35.7043057
11
14.2499512
21
35.8717057
0
LINE
8
DEFAULT_255_2_778
10
14.2499512
20
32.9785057
11
14.2499512
21
33.2077057
0
LINE
8
DEFAULT_255_2_778
10
14.7497512
20
33.1992057
11
14.7497512
21
32.9891057
0
LINE
8
DEFAULT_255_2_778
10
18.0911512
20
35.8048057
11
13.9470512
21
35.8776057
0
LINE
8
DEFAULT_255_2_778
10
18.2872512
20
28.0380057
11
13.9467512
21
28.1142057
0
LINE
8
DEFAULT_255_2_778
10
18.2872512
20
30.6766057
11
13.9467512
21
30.6004057
0
LINE
8
DEFAULT_255_2_778
10
17.2381512
20
27.9337057
11
17.2381512
21
28.0565057
0
LINE
8
DEFAULT_255_2_778
10
13.9467512
20
27.8760057
11
18.0909512
21
27.9488057
0
LINE
8
DEFAULT_255_2_778
10
13.9467512
20
30.7782057
11
18.0909512
21
30.7055057
0
LINE
8
DEFAULT_255_2_778
10
14.7494512
20
30.7640057
11
14.7494512
21
30.6142057
0
LINE
8
DEFAULT_255_2_778
10
14.2499512
20
27.8808057
11
14.2499512
21
28.1086057
0
LINE
8
DEFAULT_255_2_778
10
14.2499512
20
30.6055057
11
14.2499512
21
30.7743057
0
LINE
8
DEFAULT_255_2_778
10
15.7488512
20
28.0824057
11
15.7488512
21
27.9655057
0
LINE
8
DEFAULT_255_2_778
10
15.2408512
20
27.9745057
11
17.4075512
21
27.9364057
0
LINE
8
DEFAULT_255_2_778
10
18.2872512
20
22.9392057
11
13.9467512
21
23.0154057
0
LINE
8
DEFAULT_255_2_778
10
18.2872512
20
25.6035057
11
13.9467512
21
25.6797057
0
LINE
8
DEFAULT_255_2_778
10
18.2872512
20
25.5781057
11
13.9467512
21
25.5019057
0
LINE
8
DEFAULT_255_2_778
10
15.7488512
20
25.6480057
11
15.7488512
21
25.5334057
0
LINE
8
DEFAULT_255_2_778
10
17.2379512
20
25.5596057
11
17.2379512
21
25.6220057
0
LINE
8
DEFAULT_255_2_778
10
14.7494512
20
23.0016057
11
14.7494512
21
22.7915057
0
LINE
8
DEFAULT_255_2_778
10
14.2497512
20
25.5072057
11
14.2497512
21
25.6747057
0
LINE
8
DEFAULT_255_2_778
10
14.2497512
20
22.7831057
11
14.2497512
21
23.0106057
0
LINE
8
DEFAULT_255_2_778
10
13.9462512
20
22.7778057
11
18.0903512
21
22.8505057
0
LINE
8
DEFAULT_255_2_778
10
13.7498512
20
26.4182057
11
13.5501512
21
26.4182057
0
LINE
8
DEFAULT_255_2_778
10
14.7494512
20
20.4169057
11
14.7494512
21
20.5667057
0
LINE
8
DEFAULT_255_2_778
10
18.2872512
20
17.8407057
11
13.9467512
21
17.9168057
0
LINE
8
DEFAULT_255_2_778
10
18.2872512
20
20.4794057
11
13.9467512
21
20.4031057
0
LINE
8
DEFAULT_255_2_778
10
14.7497512
20
17.9028057
11
14.7497512
21
17.6928057
0
LINE
8
DEFAULT_255_2_778
10
14.2499512
20
17.6840057
11
14.2499512
21
17.9116057
0
LINE
8
DEFAULT_255_2_778
10
14.2499512
20
20.4084057
11
14.2499512
21
20.5759057
0
LINE
8
DEFAULT_255_2_778
10
13.9464512
20
17.6790057
11
18.0906512
21
17.7517057
0
LINE
8
DEFAULT_255_2_778
10
18.0909512
20
20.5087057
11
13.9467512
21
20.5815057
0
LINE
8
DEFAULT_255_2_778
10
14.7494512
20
12.8408057
11
14.7494512
21
12.6024057
0
LINE
8
DEFAULT_255_2_778
10
16.7082512
20
12.6368057
11
16.7082512
21
12.8064057
0
LINE
8
DEFAULT_255_2_778
10
15.9181512
20
12.6231057
11
15.9181512
21
12.8205057
0
LINE
8
DEFAULT_255_2_778
10
14.7494512
20
15.3184057
11
14.7494512
21
15.4681057
0
LINE
8
DEFAULT_255_2_778
10
18.2872512
20
15.4062057
11
13.9467512
21
15.4824057
0
LINE
8
DEFAULT_255_2_778
10
18.2872512
20
15.3808057
11
13.9467512
21
15.3046057
0
LINE
8
DEFAULT_255_2_778
10
14.2499512
20
15.3099057
11
14.2499512
21
15.4771057
0
LINE
8
DEFAULT_255_2_778
10
13.5504512
20
16.2066057
11
13.7501512
21
16.2100057
0
LINE
8
DEFAULT_255_2_778
10
17.7879512
20
12.6583057
11
17.7887512
21
12.7879057
0
LINE
8
DEFAULT_255_2_778
10
14.2499512
20
12.8435057
11
14.2499512
21
12.5990057
0
LINE
8
DEFAULT_255_2_778
10
17.0079512
20
12.8009057
11
17.0079512
21
12.6424057
0
LINE
8
DEFAULT_255_2_778
10
17.7898512
20
12.7876057
11
13.9467512
21
12.8551057
0
LINE
8
DEFAULT_255_2_778
10
13.7504512
20
12.7966057
11
14.2499512
21
12.7879057
0
LINE
8
DEFAULT_255_2_778
10
14.2499512
20
12.7879057
11
14.5531512
21
12.7932057
0
LINE
8
DEFAULT_255_2_778
10
12.2971106
20
19.0839216
11
12.3595106
21
19.1466216
0
LINE
8
DEFAULT_255_2_778
10
12.3595106
20
19.1466216
11
12.4437106
21
19.1696216
0
LINE
8
DEFAULT_255_2_778
10
12.4437106
20
19.1696216
11
12.5183106
21
19.1466216
0
LINE
8
DEFAULT_255_2_778
10
12.5183106
20
19.1466216
11
12.5765106
21
19.0857216
0
LINE
8
DEFAULT_255_2_778
10
12.5765106
20
19.0857216
11
12.6143106
21
18.9873216
0
LINE
8
DEFAULT_255_2_778
10
12.6143106
20
18.9873216
11
12.6278106
21
18.8574216
0
LINE
8
DEFAULT_255_2_778
10
12.6278106
20
18.8574216
11
12.6130106
21
18.7235216
0
LINE
8
DEFAULT_255_2_778
10
12.6130106
20
18.7235216
11
12.5752106
21
18.6230216
0
LINE
8
DEFAULT_255_2_778
10
12.5752106
20
18.6230216
11
12.5156106
21
18.5582216
0
LINE
8
DEFAULT_255_2_778
10
12.5156106
20
18.5582216
11
12.4397106
21
18.5373216
0
LINE
8
DEFAULT_255_2_778
10
12.4397106
20
18.5373216
11
12.3585106
21
18.5582216
0
LINE
8
DEFAULT_255_2_778
10
12.3585106
20
18.5582216
11
12.2976106
21
18.6230216
0
LINE
8
DEFAULT_255_2_778
10
12.2976106
20
18.6230216
11
12.2598106
21
18.7235216
0
LINE
8
DEFAULT_255_2_778
10
12.2598106
20
18.7235216
11
12.2463106
21
18.8556216
0
LINE
8
DEFAULT_255_2_778
10
12.2463106
20
18.8556216
11
12.2598106
21
18.9855216
0
LINE
8
DEFAULT_255_2_778
10
12.2598106
20
18.9855216
11
12.2976106
21
19.0839216
0
LINE
8
DEFAULT_255_2_778
10
12.5879106
20
23.5318216
11
12.6937106
21
23.6345216
0
LINE
8
DEFAULT_255_2_778
10
12.6937106
20
23.6345216
11
12.7627106
21
23.7977216
0
LINE
8
DEFAULT_255_2_778
10
12.7627106
20
23.7977216
11
12.7871106
21
24.0070216
0
LINE
8
DEFAULT_255_2_778
10
12.7871106
20
24.0070216
11
12.7641106
21
24.2038216
0
LINE
8
DEFAULT_255_2_778
10
12.7641106
20
24.2038216
11
12.6990106
21
24.3547216
0
LINE
8
DEFAULT_255_2_778
10
12.6990106
20
24.3547216
11
12.5987106
21
24.4531216
0
LINE
8
DEFAULT_255_2_778
10
12.5987106
20
24.4531216
11
12.4672106
21
24.4888216
0
LINE
8
DEFAULT_255_2_778
10
12.4672106
20
24.4888216
11
12.3656106
21
24.4637216
0
LINE
8
DEFAULT_255_2_778
10
12.3656106
20
24.4637216
11
12.2857106
21
24.3946216
0
LINE
8
DEFAULT_255_2_778
10
12.2857106
20
24.3946216
11
12.3235106
21
24.7862216
0
LINE
8
DEFAULT_255_2_778
10
12.3235106
20
24.7862216
11
12.7355106
21
24.7862216
0
LINE
8
DEFAULT_255_2_778
10
12.7355106
20
24.7862216
11
12.7355106
21
24.9579216
0
LINE
8
DEFAULT_255_2_778
10
12.7355106
20
24.9579216
11
12.2341106
21
24.9579216
0
LINE
8
DEFAULT_255_2_778
10
12.2341106
20
24.9579216
11
12.1595106
21
24.1874216
0
LINE
8
DEFAULT_255_2_778
10
12.1595106
20
24.1874216
11
12.2680106
21
24.1874216
0
LINE
8
DEFAULT_255_2_778
10
12.2680106
20
24.1874216
11
12.3466106
21
24.2859216
0
LINE
8
DEFAULT_255_2_778
10
12.3466106
20
24.2859216
11
12.4468106
21
24.3216216
0
LINE
8
DEFAULT_255_2_778
10
12.4468106
20
24.3216216
11
12.5336106
21
24.2986216
0
LINE
8
DEFAULT_255_2_778
10
12.5336106
20
24.2986216
11
12.5987106
21
24.2337216
0
LINE
8
DEFAULT_255_2_778
10
12.5987106
20
24.2337216
11
12.6408106
21
24.1311216
0
LINE
8
DEFAULT_255_2_778
10
12.6408106
20
24.1311216
11
12.6556106
21
23.9972216
0
LINE
8
DEFAULT_255_2_778
10
12.6556106
20
23.9972216
11
12.6394106
21
23.8652216
0
LINE
8
DEFAULT_255_2_778
10
12.6394106
20
23.8652216
11
12.5974106
21
23.7625216
0
LINE
8
DEFAULT_255_2_778
10
12.5974106
20
23.7625216
11
12.5310106
21
23.6977216
0
LINE
8
DEFAULT_255_2_778
10
12.5310106
20
23.6977216
11
12.4455106
21
23.6747216
0
LINE
8
DEFAULT_255_2_778
10
12.4455106
20
23.6747216
11
12.3738106
21
23.6892216
0
LINE
8
DEFAULT_255_2_778
10
12.3738106
20
23.6892216
11
12.3182106
21
23.7374216
0
LINE
8
DEFAULT_255_2_778
10
12.3182106
20
23.7374216
11
12.2775106
21
23.8128216
0
LINE
8
DEFAULT_255_2_778
10
12.2775106
20
23.8128216
11
12.2571106
21
23.9154216
0
LINE
8
DEFAULT_255_2_778
10
12.2571106
20
23.9154216
11
12.1325106
21
23.9154216
0
LINE
8
DEFAULT_255_2_778
10
12.1325106
20
23.9154216
11
12.1624106
21
23.7416216
0
LINE
8
DEFAULT_255_2_778
10
12.1624106
20
23.7416216
11
12.2301106
21
23.6096216
0
LINE
8
DEFAULT_255_2_778
10
12.2301106
20
23.6096216
11
12.3278106
21
23.5257216
0
LINE
8
DEFAULT_255_2_778
10
12.3278106
20
23.5257216
11
12.4511106
21
23.4942216
0
LINE
8
DEFAULT_255_2_778
10
12.4511106
20
23.4942216
11
12.5879106
21
23.5318216
0
LINE
8
DEFAULT_255_2_778
10
12.1147112
20
34.1582731
11
12.1364112
21
33.9550731
0
LINE
8
DEFAULT_255_2_778
10
12.1364112
20
33.9550731
11
12.2002112
21
33.8021731
0
LINE
8
DEFAULT_255_2_778
10
12.2002112
20
33.8021731
11
12.3004112
21
33.7058731
0
LINE
8
DEFAULT_255_2_778
10
12.3004112
20
33.7058731
11
12.4319112
21
33.6701731
0
LINE
8
DEFAULT_255_2_778
10
12.4319112
20
33.6701731
11
12.5730112
21
33.7037731
0
LINE
8
DEFAULT_255_2_778
10
12.5730112
20
33.7037731
11
12.6788112
21
33.7978731
0
LINE
8
DEFAULT_255_2_778
10
12.6788112
20
33.7978731
11
12.7465112
21
33.9423731
0
LINE
8
DEFAULT_255_2_778
10
12.7465112
20
33.9423731
11
12.7709112
21
34.1328731
0
LINE
8
DEFAULT_255_2_778
10
12.7709112
20
34.1328731
11
12.7600112
21
34.2564731
0
LINE
8
DEFAULT_255_2_778
10
12.7600112
20
34.2564731
11
12.7314112
21
34.3569731
0
LINE
8
DEFAULT_255_2_778
10
12.7314112
20
34.3569731
11
12.6828112
21
34.4344731
0
LINE
8
DEFAULT_255_2_778
10
12.6828112
20
34.4344731
11
12.6177112
21
34.4911731
0
LINE
8
DEFAULT_255_2_778
10
12.6177112
20
34.4911731
11
12.7058112
21
34.6040731
0
LINE
8
DEFAULT_255_2_778
10
12.7058112
20
34.6040731
11
12.7357112
21
34.7842731
0
LINE
8
DEFAULT_255_2_778
10
12.7357112
20
34.7842731
11
12.7153112
21
34.9475731
0
LINE
8
DEFAULT_255_2_778
10
12.7153112
20
34.9475731
11
12.6571112
21
35.0710731
0
LINE
8
DEFAULT_255_2_778
10
12.6571112
20
35.0710731
11
12.5608112
21
35.1485731
0
LINE
8
DEFAULT_255_2_778
10
12.5608112
20
35.1485731
11
12.4319112
21
35.1758731
0
LINE
8
DEFAULT_255_2_778
10
12.4319112
20
35.1758731
11
12.3100112
21
35.1422731
0
LINE
8
DEFAULT_255_2_778
10
12.3100112
20
35.1422731
11
12.2166112
21
35.0480731
0
LINE
8
DEFAULT_255_2_778
10
12.2166112
20
35.0480731
11
12.1570112
21
34.8993731
0
LINE
8
DEFAULT_255_2_778
10
12.1570112
20
34.8993731
11
12.1367112
21
34.7046731
0
LINE
8
DEFAULT_255_2_778
10
11.54401
20
19.6448608
11
11.46941
21
19.5946608
0
LINE
8
DEFAULT_255_2_778
10
11.46941
20
19.5946608
11
11.36651
21
19.5779608
0
LINE
8
DEFAULT_255_2_778
10
11.36651
20
19.5779608
11
11.36651
21
19.4292608
0
LINE
8
DEFAULT_255_2_778
10
11.36651
20
19.4292608
11
11.58611
21
19.4292608
0
LINE
8
DEFAULT_255_2_778
10
11.58611
20
19.4292608
11
11.58611
21
18.3949608
0
LINE
8
DEFAULT_255_2_778
10
11.58611
20
18.3949608
11
11.70941
21
18.3949608
0
LINE
8
DEFAULT_255_2_778
10
11.70941
20
18.3949608
11
11.70941
21
19.8586608
0
LINE
8
DEFAULT_255_2_778
10
11.70941
20
19.8586608
11
11.61731
21
19.8586608
0
LINE
8
DEFAULT_255_2_778
10
11.61731
20
19.8586608
11
11.59301
21
19.7308608
0
LINE
8
DEFAULT_255_2_778
10
11.59301
20
19.7308608
11
11.54431
21
19.6451608
0
LINE
8
DEFAULT_255_2_778
10
11.54431
20
14.5466608
11
11.46971
21
14.4963608
0
LINE
8
DEFAULT_255_2_778
10
11.46971
20
14.4963608
11
11.36681
21
14.4796608
0
LINE
8
DEFAULT_255_2_778
10
11.36681
20
14.4796608
11
11.36681
21
14.3309608
0
LINE
8
DEFAULT_255_2_778
10
11.36681
20
14.3309608
11
11.58641
21
14.3309608
0
LINE
8
DEFAULT_255_2_778
10
11.58641
20
14.3309608
11
11.58641
21
13.2967608
0
LINE
8
DEFAULT_255_2_778
10
11.58641
20
13.2967608
11
11.70971
21
13.2967608
0
LINE
8
DEFAULT_255_2_778
10
11.70971
20
13.2967608
11
11.70971
21
14.7603608
0
LINE
8
DEFAULT_255_2_778
10
11.70971
20
14.7603608
11
11.61761
21
14.7603608
0
LINE
8
DEFAULT_255_2_778
10
11.61761
20
14.7603608
11
11.59321
21
14.6326608
0
LINE
8
DEFAULT_255_2_778
10
11.59321
20
14.6326608
11
11.54461
21
14.5468608
0
LINE
8
DEFAULT_255_2_778
10
11.5445181
20
29.8421608
11
11.4699181
21
29.7918608
0
LINE
8
DEFAULT_255_2_778
10
11.4699181
20
29.7918608
11
11.3670181
21
29.7752608
0
LINE
8
DEFAULT_255_2_778
10
11.3670181
20
29.7752608
11
11.3670181
21
29.6265608
0
LINE
8
DEFAULT_255_2_778
10
11.3670181
20
29.6265608
11
11.5866181
21
29.6265608
0
LINE
8
DEFAULT_255_2_778
10
11.5866181
20
29.6265608
11
11.5866181
21
28.5922608
0
LINE
8
DEFAULT_255_2_778
10
11.5866181
20
28.5922608
11
11.7099181
21
28.5922608
0
LINE
8
DEFAULT_255_2_778
10
11.7099181
20
28.5922608
11
11.7099181
21
30.0559608
0
LINE
8
DEFAULT_255_2_778
10
11.7099181
20
30.0559608
11
11.6178181
21
30.0559608
0
LINE
8
DEFAULT_255_2_778
10
11.6178181
20
30.0559608
11
11.5935181
21
29.9281608
0
LINE
8
DEFAULT_255_2_778
10
11.5935181
20
29.9281608
11
11.5448181
21
29.8424608
0
LINE
8
DEFAULT_255_2_778
10
11.5448181
20
24.7439608
11
11.4702181
21
24.6936608
0
LINE
8
DEFAULT_255_2_778
10
11.4702181
20
24.6936608
11
11.3673181
21
24.6769608
0
LINE
8
DEFAULT_255_2_778
10
11.3673181
20
24.6769608
11
11.3673181
21
24.5282608
0
LINE
8
DEFAULT_255_2_778
10
11.3673181
20
24.5282608
11
11.5869181
21
24.5282608
0
LINE
8
DEFAULT_255_2_778
10
11.5869181
20
24.5282608
11
11.5869181
21
23.4940608
0
LINE
8
DEFAULT_255_2_778
10
11.5869181
20
23.4940608
11
11.7102181
21
23.4940608
0
LINE
8
DEFAULT_255_2_778
10
11.7102181
20
23.4940608
11
11.7102181
21
24.9576608
0
LINE
8
DEFAULT_255_2_778
10
11.7102181
20
24.9576608
11
11.6181181
21
24.9576608
0
LINE
8
DEFAULT_255_2_778
10
11.6181181
20
24.9576608
11
11.5937181
21
24.8298608
0
LINE
8
DEFAULT_255_2_778
10
11.5937181
20
24.8298608
11
11.5451181
21
24.7441608
0
LINE
8
DEFAULT_255_2_778
10
12.6198745
20
14.5370385
11
12.4708745
21
14.2566385
0
LINE
8
DEFAULT_255_2_778
10
12.4708745
20
14.2566385
11
12.3584745
21
13.9592385
0
LINE
8
DEFAULT_255_2_778
10
12.3584745
20
13.9592385
11
12.2785745
21
13.6430385
0
LINE
8
DEFAULT_255_2_778
10
12.2785745
20
13.6430385
11
12.2338745
21
13.3059385
0
LINE
8
DEFAULT_255_2_778
10
12.2338745
20
13.3059385
11
12.3719745
21
13.3059385
0
LINE
8
DEFAULT_255_2_778
10
12.3719745
20
13.3059385
11
12.4166745
21
13.6494385
0
LINE
8
DEFAULT_255_2_778
10
12.4166745
20
13.6494385
11
12.4952745
21
13.9740385
0
LINE
8
DEFAULT_255_2_778
10
12.4952745
20
13.9740385
11
12.6050745
21
14.2735385
0
LINE
8
DEFAULT_255_2_778
10
12.6050745
20
14.2735385
11
12.7500745
21
14.5540385
0
LINE
8
DEFAULT_255_2_778
10
12.7500745
20
14.5540385
11
12.7500745
21
14.7278385
0
LINE
8
DEFAULT_255_2_778
10
12.7500745
20
14.7278385
11
12.1049745
21
14.7278385
0
LINE
8
DEFAULT_255_2_778
10
12.1049745
20
14.7278385
11
12.1049745
21
14.5373385
0
LINE
8
DEFAULT_255_2_778
10
12.1049745
20
14.5373385
11
12.6198745
21
14.5373385
0
LINE
8
DEFAULT_255_2_778
10
12.4909738
20
39.3029278
11
12.5709738
21
39.3656278
0
LINE
8
DEFAULT_255_2_778
10
12.5709738
20
39.3656278
11
12.6603738
21
39.4555278
0
LINE
8
DEFAULT_255_2_778
10
12.6603738
20
39.4555278
11
12.7241738
21
39.5603278
0
LINE
8
DEFAULT_255_2_778
10
12.7241738
20
39.5603278
11
12.7606738
21
39.6817278
0
LINE
8
DEFAULT_255_2_778
10
12.7606738
20
39.6817278
11
12.7741738
21
39.8241278
0
LINE
8
DEFAULT_255_2_778
10
12.7741738
20
39.8241278
11
12.7510738
21
40.0000278
0
LINE
8
DEFAULT_255_2_778
10
12.7510738
20
40.0000278
11
12.6886738
21
40.1381278
0
LINE
8
DEFAULT_255_2_778
10
12.6886738
20
40.1381278
11
12.5896738
21
40.2260278
0
LINE
8
DEFAULT_255_2_778
10
12.5896738
20
40.2260278
11
12.4637738
21
40.2575278
0
LINE
8
DEFAULT_255_2_778
10
12.4637738
20
40.2575278
11
12.3335738
21
40.2218278
0
LINE
8
DEFAULT_255_2_778
10
12.3335738
20
40.2218278
11
12.2346738
21
40.1233278
0
LINE
8
DEFAULT_255_2_778
10
12.2346738
20
40.1233278
11
12.1708738
21
39.9643278
0
LINE
8
DEFAULT_255_2_778
10
12.1708738
20
39.9643278
11
12.1491738
21
39.7550278
0
LINE
8
DEFAULT_255_2_778
10
12.1491738
20
39.7550278
11
12.1491738
21
39.7299278
0
LINE
8
DEFAULT_255_2_778
10
12.1491738
20
39.7299278
11
12.2724738
21
39.7299278
0
LINE
8
DEFAULT_255_2_778
10
12.2724738
20
39.7299278
11
12.2724738
21
39.7466278
0
LINE
8
DEFAULT_255_2_778
10
12.2724738
20
39.7466278
11
12.2846738
21
39.8889278
0
LINE
8
DEFAULT_255_2_778
10
12.2846738
20
39.8889278
11
12.3224738
21
39.9937278
0
LINE
8
DEFAULT_255_2_778
10
12.3224738
20
39.9937278
11
12.3806738
21
40.0606278
0
LINE
8
DEFAULT_255_2_778
10
12.3806738
20
40.0606278
11
12.4579738
21
40.0836278
0
LINE
8
DEFAULT_255_2_778
10
12.4579738
20
40.0836278
11
12.5351738
21
40.0649278
0
LINE
8
DEFAULT_255_2_778
10
12.5351738
20
40.0649278
11
12.5947738
21
40.0104278
0
LINE
8
DEFAULT_255_2_778
10
12.5947738
20
40.0104278
11
12.6312738
21
39.9286278
0
LINE
8
DEFAULT_255_2_778
10
12.6312738
20
39.9286278
11
12.6447738
21
39.8259278
0
LINE
8
DEFAULT_255_2_778
10
12.6447738
20
39.8259278
11
12.6095738
21
39.6479278
0
LINE
8
DEFAULT_255_2_778
10
12.6095738
20
39.6479278
11
12.5066738
21
39.5140278
0
LINE
8
DEFAULT_255_2_778
10
12.5066738
20
39.5140278
11
12.4267738
21
39.4471278
0
LINE
8
DEFAULT_255_2_778
10
12.4267738
20
39.4471278
11
12.2938738
21
39.3150278
0
LINE
8
DEFAULT_255_2_778
10
12.2938738
20
39.3150278
11
12.2004738
21
39.1748278
0
LINE
8
DEFAULT_255_2_778
10
12.2004738
20
39.1748278
11
12.1462738
21
39.0094278
0
LINE
8
DEFAULT_255_2_778
10
12.1462738
20
39.0094278
11
12.1285738
21
38.8062278
0
LINE
8
DEFAULT_255_2_778
10
12.1285738
20
38.8062278
11
12.1285738
21
38.7938278
0
LINE
8
DEFAULT_255_2_778
10
12.1285738
20
38.7938278
11
12.7735738
21
38.7938278
0
LINE
8
DEFAULT_255_2_778
10
12.7735738
20
38.7938278
11
12.7735738
21
38.9740278
0
LINE
8
DEFAULT_255_2_778
10
12.7735738
20
38.9740278
11
12.2639738
21
38.9740278
0
LINE
8
DEFAULT_255_2_778
10
12.2639738
20
38.9740278
11
12.2909738
21
39.0682278
0
LINE
8
DEFAULT_255_2_778
10
12.2909738
20
39.0682278
11
12.3383738
21
39.1520278
0
LINE
8
DEFAULT_255_2_778
10
12.3383738
20
39.1520278
11
12.4902738
21
39.3029278
0
LINE
8
DEFAULT_255_2_778
10
11.5932738
20
40.1252278
11
11.5445738
21
40.0395278
0
LINE
8
DEFAULT_255_2_778
10
11.5445738
20
40.0395278
11
11.4699738
21
39.9892278
0
LINE
8
DEFAULT_255_2_778
10
11.4699738
20
39.9892278
11
11.3670738
21
39.9725278
0
LINE
8
DEFAULT_255_2_778
10
11.3670738
20
39.9725278
11
11.3670738
21
39.8238278
0
LINE
8
DEFAULT_255_2_778
10
11.3670738
20
39.8238278
11
11.5866738
21
39.8238278
0
LINE
8
DEFAULT_255_2_778
10
11.5866738
20
39.8238278
11
11.5866738
21
38.7896278
0
LINE
8
DEFAULT_255_2_778
10
11.5866738
20
38.7896278
11
11.7099738
21
38.7896278
0
LINE
8
DEFAULT_255_2_778
10
11.7099738
20
38.7896278
11
11.7099738
21
40.2532278
0
LINE
8
DEFAULT_255_2_778
10
11.7099738
20
40.2532278
11
11.6178738
21
40.2532278
0
LINE
8
DEFAULT_255_2_778
10
11.6178738
20
40.2532278
11
11.5935738
21
40.1254278
0
LINE
8
DEFAULT_255_2_778
10
11.5448738
20
34.9409278
11
11.4702738
21
34.8907278
0
LINE
8
DEFAULT_255_2_778
10
11.4702738
20
34.8907278
11
11.3673738
21
34.8740278
0
LINE
8
DEFAULT_255_2_778
10
11.3673738
20
34.8740278
11
11.3673738
21
34.7253278
0
LINE
8
DEFAULT_255_2_778
10
11.3673738
20
34.7253278
11
11.5869738
21
34.7253278
0
LINE
8
DEFAULT_255_2_778
10
11.5869738
20
34.7253278
11
11.5869738
21
33.6910278
0
LINE
8
DEFAULT_255_2_778
10
11.5869738
20
33.6910278
11
11.7102738
21
33.6910278
0
LINE
8
DEFAULT_255_2_778
10
11.7102738
20
33.6910278
11
11.7102738
21
35.1547278
0
LINE
8
DEFAULT_255_2_778
10
11.7102738
20
35.1547278
11
11.6181738
21
35.1547278
0
LINE
8
DEFAULT_255_2_778
10
11.6181738
20
35.1547278
11
11.5937738
21
35.0269278
0
LINE
8
DEFAULT_255_2_778
10
11.5937738
20
35.0269278
11
11.5451738
21
34.9412278
0
LINE
8
DEFAULT_255_2_778
10
12.4404738
20
45.2234278
11
12.3917738
21
45.1377278
0
LINE
8
DEFAULT_255_2_778
10
12.3917738
20
45.1377278
11
12.3171738
21
45.0874278
0
LINE
8
DEFAULT_255_2_778
10
12.3171738
20
45.0874278
11
12.2142738
21
45.0708278
0
LINE
8
DEFAULT_255_2_778
10
12.2142738
20
45.0708278
11
12.2142738
21
44.9221278
0
LINE
8
DEFAULT_255_2_778
10
12.2142738
20
44.9221278
11
12.4338738
21
44.9221278
0
LINE
8
DEFAULT_255_2_778
10
12.4338738
20
44.9221278
11
12.4338738
21
43.8878278
0
LINE
8
DEFAULT_255_2_778
10
12.4338738
20
43.8878278
11
12.5571738
21
43.8878278
0
LINE
8
DEFAULT_255_2_778
10
12.5571738
20
43.8878278
11
12.5571738
21
45.3515278
0
LINE
8
DEFAULT_255_2_778
10
12.5571738
20
45.3515278
11
12.4650738
21
45.3515278
0
LINE
8
DEFAULT_255_2_778
10
12.4650738
20
45.3515278
11
12.4407738
21
45.2237278
0
LINE
8
DEFAULT_255_2_778
10
12.5287603
20
30.0147053
11
12.1181603
21
29.1373053
0
LINE
8
DEFAULT_255_2_778
10
12.1181603
20
29.1373053
11
12.1181603
21
28.9532053
0
LINE
8
DEFAULT_255_2_778
10
12.1181603
20
28.9532053
11
12.5301603
21
28.9532053
0
LINE
8
DEFAULT_255_2_778
10
12.5301603
20
28.9532053
11
12.5301603
21
28.5931053
0
LINE
8
DEFAULT_255_2_778
10
12.5301603
20
28.5931053
11
12.6520603
21
28.5931053
0
LINE
8
DEFAULT_255_2_778
10
12.6520603
20
28.5931053
11
12.6520603
21
28.9532053
0
LINE
8
DEFAULT_255_2_778
10
12.6520603
20
28.9532053
11
12.7862603
21
28.9532053
0
LINE
8
DEFAULT_255_2_778
10
12.7862603
20
28.9532053
11
12.7862603
21
29.1207053
0
LINE
8
DEFAULT_255_2_778
10
12.7862603
20
29.1207053
11
12.6520603
21
29.1207053
0
LINE
8
DEFAULT_255_2_778
10
12.6520603
20
29.1207053
11
12.6520603
21
30.0147053
0
LINE
8
DEFAULT_255_2_778
10
12.6520603
20
30.0147053
11
12.5287603
21
30.0147053
0
LINE
8
DEFAULT_255_2_778
10
12.2322439
20
29.1206471
11
12.5304439
21
29.7717471
0
LINE
8
DEFAULT_255_2_778
10
12.5304439
20
29.7717471
11
12.5304439
21
29.1206471
0
LINE
8
DEFAULT_255_2_778
10
12.5304439
20
29.1206471
11
12.2322439
21
29.1206471
0
LINE
8
DEFAULT_255_2_778
10
12.1737439
20
69.6153471
11
12.1142439
21
69.5505471
0
LINE
8
DEFAULT_255_2_778
10
12.1142439
20
69.5505471
11
12.0382439
21
69.5296471
0
LINE
8
DEFAULT_255_2_778
10
12.0382439
20
69.5296471
11
11.9570439
21
69.5505471
0
LINE
8
DEFAULT_255_2_778
10
11.9570439
20
69.5505471
11
11.8962439
21
69.6153471
0
LINE
8
DEFAULT_255_2_778
10
11.8962439
20
69.6153471
11
11.8583439
21
69.7159471
0
LINE
8
DEFAULT_255_2_778
10
11.8583439
20
69.7159471
11
11.8448439
21
69.8479471
0
LINE
8
DEFAULT_255_2_778
10
11.8448439
20
69.8479471
11
11.8583439
21
69.9778471
0
LINE
8
DEFAULT_255_2_778
10
11.8583439
20
69.9778471
11
11.8962439
21
70.0763471
0
LINE
8
DEFAULT_255_2_778
10
11.8962439
20
70.0763471
11
11.9586439
21
70.1390471
0
LINE
8
DEFAULT_255_2_778
10
11.9586439
20
70.1390471
11
12.0428439
21
70.1620471
0
LINE
8
DEFAULT_255_2_778
10
12.0428439
20
70.1620471
11
12.1174439
21
70.1390471
0
LINE
8
DEFAULT_255_2_778
10
12.1174439
20
70.1390471
11
12.1756439
21
70.0781471
0
LINE
8
DEFAULT_255_2_778
10
12.1756439
20
70.0781471
11
12.2134439
21
69.9797471
0
LINE
8
DEFAULT_255_2_778
10
12.2134439
20
69.9797471
11
12.2269439
21
69.8498471
0
LINE
8
DEFAULT_255_2_778
10
12.2269439
20
69.8498471
11
12.2121439
21
69.7159471
0
LINE
8
DEFAULT_255_2_778
10
12.2121439
20
69.7159471
11
12.1743439
21
69.6153471
0
LINE
8
DEFAULT_255_2_778
10
12.1872439
20
54.8442471
11
12.1248439
21
54.7833471
0
LINE
8
DEFAULT_255_2_778
10
12.1248439
20
54.7833471
11
12.0422439
21
54.7624471
0
LINE
8
DEFAULT_255_2_778
10
12.0422439
20
54.7624471
11
11.9676439
21
54.7833471
0
LINE
8
DEFAULT_255_2_778
10
11.9676439
20
54.7833471
11
11.9094439
21
54.8442471
0
LINE
8
DEFAULT_255_2_778
10
11.9094439
20
54.8442471
11
11.8716439
21
54.9426471
0
LINE
8
DEFAULT_255_2_778
10
11.8716439
20
54.9426471
11
11.8594439
21
55.0725471
0
LINE
8
DEFAULT_255_2_778
10
11.8594439
20
55.0725471
11
11.8729439
21
55.2046471
0
LINE
8
DEFAULT_255_2_778
10
11.8729439
20
55.2046471
11
11.9107439
21
55.3051471
0
LINE
8
DEFAULT_255_2_778
10
11.9107439
20
55.3051471
11
11.9703439
21
55.3699471
0
LINE
8
DEFAULT_255_2_778
10
11.9703439
20
55.3699471
11
12.0475439
21
55.3929471
0
LINE
8
DEFAULT_255_2_778
10
12.0475439
20
55.3929471
11
12.1261439
21
55.3699471
0
LINE
8
DEFAULT_255_2_778
10
12.1261439
20
55.3699471
11
12.1869439
21
55.3051471
0
LINE
8
DEFAULT_255_2_778
10
12.1869439
20
55.3051471
11
12.2248439
21
55.2046471
0
LINE
8
DEFAULT_255_2_778
10
12.2248439
20
55.2046471
11
12.2396439
21
55.0746471
0
LINE
8
DEFAULT_255_2_778
10
12.2396439
20
55.0746471
11
12.2248439
21
54.9426471
0
LINE
8
DEFAULT_255_2_778
10
12.2248439
20
54.9426471
11
12.1869439
21
54.8442471
0
LINE
8
DEFAULT_255_2_778
10
11.9374439
20
60.4425471
11
11.9890439
21
60.4864471
0
LINE
8
DEFAULT_255_2_778
10
11.9890439
20
60.4864471
11
12.0581439
21
60.5031471
0
LINE
8
DEFAULT_255_2_778
10
12.0581439
20
60.5031471
11
12.1258439
21
60.4864471
0
LINE
8
DEFAULT_255_2_778
10
12.1258439
20
60.4864471
11
12.1787439
21
60.4425471
0
LINE
8
DEFAULT_255_2_778
10
12.1787439
20
60.4425471
11
12.2100439
21
60.3713471
0
LINE
8
DEFAULT_255_2_778
10
12.2100439
20
60.3713471
11
12.2221439
21
60.2793471
0
LINE
8
DEFAULT_255_2_778
10
12.2221439
20
60.2793471
11
12.2100439
21
60.1851471
0
LINE
8
DEFAULT_255_2_778
10
12.2100439
20
60.1851471
11
12.1774439
21
60.1118471
0
LINE
8
DEFAULT_255_2_778
10
12.1774439
20
60.1118471
11
12.1258439
21
60.0636471
0
LINE
8
DEFAULT_255_2_778
10
12.1258439
20
60.0636471
11
12.0581439
21
60.0491471
0
LINE
8
DEFAULT_255_2_778
10
12.0581439
20
60.0491471
11
11.9890439
21
60.0657471
0
LINE
8
DEFAULT_255_2_778
10
11.9890439
20
60.0657471
11
11.9374439
21
60.1118471
0
LINE
8
DEFAULT_255_2_778
10
11.9374439
20
60.1118471
11
11.9049439
21
60.1851471
0
LINE
8
DEFAULT_255_2_778
10
11.9049439
20
60.1851471
11
11.8941439
21
60.2793471
0
LINE
8
DEFAULT_255_2_778
10
11.8941439
20
60.2793471
11
11.9049439
21
60.3713471
0
LINE
8
DEFAULT_255_2_778
10
11.9049439
20
60.3713471
11
11.9374439
21
60.4425471
0
LINE
8
DEFAULT_255_2_778
10
11.9158439
20
59.8228471
11
11.9766439
21
59.8774471
0
LINE
8
DEFAULT_255_2_778
10
11.9766439
20
59.8774471
11
12.0578439
21
59.8961471
0
LINE
8
DEFAULT_255_2_778
10
12.0578439
20
59.8961471
11
12.1377439
21
59.8774471
0
LINE
8
DEFAULT_255_2_778
10
12.1377439
20
59.8774471
11
12.1986439
21
59.8228471
0
LINE
8
DEFAULT_255_2_778
10
12.1986439
20
59.8228471
11
12.2380439
21
59.7390471
0
LINE
8
DEFAULT_255_2_778
10
12.2380439
20
59.7390471
11
12.2515439
21
59.6281471
0
LINE
8
DEFAULT_255_2_778
10
12.2515439
20
59.6281471
11
12.2380439
21
59.5088471
0
LINE
8
DEFAULT_255_2_778
10
12.2380439
20
59.5088471
11
12.1986439
21
59.4188471
0
LINE
8
DEFAULT_255_2_778
10
12.1986439
20
59.4188471
11
12.1377439
21
59.3601471
0
LINE
8
DEFAULT_255_2_778
10
12.1377439
20
59.3601471
11
12.0578439
21
59.3413471
0
LINE
8
DEFAULT_255_2_778
10
12.0578439
20
59.3413471
11
11.9766439
21
59.3601471
0
LINE
8
DEFAULT_255_2_778
10
11.9766439
20
59.3601471
11
11.9158439
21
59.4188471
0
LINE
8
DEFAULT_255_2_778
10
11.9158439
20
59.4188471
11
11.8779439
21
59.5088471
0
LINE
8
DEFAULT_255_2_778
10
11.8779439
20
59.5088471
11
11.8657439
21
59.6281471
0
LINE
8
DEFAULT_255_2_778
10
11.8657439
20
59.6281471
11
11.8779439
21
59.7390471
0
LINE
8
DEFAULT_255_2_778
10
11.8779439
20
59.7390471
11
11.9158439
21
59.8228471
0
LINE
8
DEFAULT_255_2_778
10
11.8914439
20
59.9903471
11
11.8224439
21
59.9316471
0
LINE
8
DEFAULT_255_2_778
10
11.8224439
20
59.9316471
11
11.7737439
21
59.8498471
0
LINE
8
DEFAULT_255_2_778
10
11.7737439
20
59.8498471
11
11.7438439
21
59.7472471
0
LINE
8
DEFAULT_255_2_778
10
11.7438439
20
59.7472471
11
11.7342439
21
59.6236471
0
LINE
8
DEFAULT_255_2_778
10
11.7342439
20
59.6236471
11
11.7559439
21
59.4352471
0
LINE
8
DEFAULT_255_2_778
10
11.7559439
20
59.4352471
11
11.8197439
21
59.2908471
0
LINE
8
DEFAULT_255_2_778
10
11.8197439
20
59.2908471
11
11.9213439
21
59.1987471
0
LINE
8
DEFAULT_255_2_778
10
11.9213439
20
59.1987471
11
12.0581439
21
59.1651471
0
LINE
8
DEFAULT_255_2_778
10
12.0581439
20
59.1651471
11
12.1936439
21
59.1987471
0
LINE
8
DEFAULT_255_2_778
10
12.1936439
20
59.1987471
11
12.2952439
21
59.2908471
0
LINE
8
DEFAULT_255_2_778
10
12.2952439
20
59.2908471
11
12.3603439
21
59.4352471
0
LINE
8
DEFAULT_255_2_778
10
12.3603439
20
59.4352471
11
12.3833439
21
59.6236471
0
LINE
8
DEFAULT_255_2_778
10
12.3833439
20
59.6236471
11
12.3724439
21
59.7472471
0
LINE
8
DEFAULT_255_2_778
10
12.3724439
20
59.7472471
11
12.3425439
21
59.8498471
0
LINE
8
DEFAULT_255_2_778
10
12.3425439
20
59.8498471
11
12.2938439
21
59.9316471
0
LINE
8
DEFAULT_255_2_778
10
12.2938439
20
59.9316471
11
12.2261439
21
59.9903471
0
LINE
8
DEFAULT_255_2_778
10
12.2261439
20
59.9903471
11
12.3195439
21
60.1097471
0
LINE
8
DEFAULT_255_2_778
10
12.3195439
20
60.1097471
11
12.3507439
21
60.2959471
0
LINE
8
DEFAULT_255_2_778
10
12.3507439
20
60.2959471
11
12.3290439
21
60.4446471
0
LINE
8
DEFAULT_255_2_778
10
12.3290439
20
60.4446471
11
12.2708439
21
60.5639471
0
LINE
8
DEFAULT_255_2_778
10
12.2708439
20
60.5639471
11
12.1787439
21
60.6415471
0
LINE
8
DEFAULT_255_2_778
10
12.1787439
20
60.6415471
11
12.0581439
21
60.6708471
0
LINE
8
DEFAULT_255_2_778
10
12.0581439
20
60.6708471
11
11.9361439
21
60.6415471
0
LINE
8
DEFAULT_255_2_778
10
11.9361439
20
60.6415471
11
11.8454439
21
60.5639471
0
LINE
8
DEFAULT_255_2_778
10
11.8454439
20
60.5639471
11
11.7872439
21
60.4446471
0
LINE
8
DEFAULT_255_2_778
10
11.7872439
20
60.4446471
11
11.7668439
21
60.2959471
0
LINE
8
DEFAULT_255_2_778
10
11.7668439
20
60.2959471
11
11.7967439
21
60.1097471
0
LINE
8
DEFAULT_255_2_778
10
11.7967439
20
60.1097471
11
11.8917439
21
59.9903471
0
LINE
8
DEFAULT_255_2_778
10
11.5445439
20
50.2367471
11
11.4699439
21
50.1865471
0
LINE
8
DEFAULT_255_2_778
10
11.4699439
20
50.1865471
11
11.3670439
21
50.1698471
0
LINE
8
DEFAULT_255_2_778
10
11.3670439
20
50.1698471
11
11.3670439
21
50.0211471
0
LINE
8
DEFAULT_255_2_778
10
11.3670439
20
50.0211471
11
11.5866439
21
50.0211471
0
LINE
8
DEFAULT_255_2_778
10
11.5866439
20
50.0211471
11
11.5866439
21
48.9868471
0
LINE
8
DEFAULT_255_2_778
10
11.5866439
20
48.9868471
11
11.7099439
21
48.9868471
0
LINE
8
DEFAULT_255_2_778
10
11.7099439
20
48.9868471
11
11.7099439
21
50.4505471
0
LINE
8
DEFAULT_255_2_778
10
11.7099439
20
50.4505471
11
11.6178439
21
50.4505471
0
LINE
8
DEFAULT_255_2_778
10
11.6178439
20
50.4505471
11
11.5935439
21
50.3227471
0
LINE
8
DEFAULT_255_2_778
10
11.5935439
20
50.3227471
11
11.5448439
21
50.2370471
0
LINE
8
DEFAULT_255_2_778
10
11.5935439
20
45.2242471
11
11.5448439
21
45.1385471
0
LINE
8
DEFAULT_255_2_778
10
11.5448439
20
45.1385471
11
11.4702439
21
45.0882471
0
LINE
8
DEFAULT_255_2_778
10
11.4702439
20
45.0882471
11
11.3673439
21
45.0715471
0
LINE
8
DEFAULT_255_2_778
10
11.3673439
20
45.0715471
11
11.3673439
21
44.9228471
0
LINE
8
DEFAULT_255_2_778
10
11.3673439
20
44.9228471
11
11.5869439
21
44.9228471
0
LINE
8
DEFAULT_255_2_778
10
11.5869439
20
44.9228471
11
11.5869439
21
43.8886471
0
LINE
8
DEFAULT_255_2_778
10
11.5869439
20
43.8886471
11
11.7102439
21
43.8886471
0
LINE
8
DEFAULT_255_2_778
10
11.7102439
20
43.8886471
11
11.7102439
21
45.3523471
0
LINE
8
DEFAULT_255_2_778
10
11.7102439
20
45.3523471
11
11.6181439
21
45.3523471
0
LINE
8
DEFAULT_255_2_778
10
11.6181439
20
45.3523471
11
11.5937439
21
45.2245471
0
LINE
8
DEFAULT_255_2_778
10
12.1353439
20
34.6943471
11
12.2571439
21
34.6943471
0
LINE
8
DEFAULT_255_2_778
10
12.2571439
20
34.6943471
11
12.2679439
21
34.8282471
0
LINE
8
DEFAULT_255_2_778
10
12.2679439
20
34.8282471
11
12.3018439
21
34.9245471
0
LINE
8
DEFAULT_255_2_778
10
12.3018439
20
34.9245471
11
12.3587439
21
34.9832471
0
LINE
8
DEFAULT_255_2_778
10
12.3587439
20
34.9832471
11
12.4386439
21
35.0041471
0
LINE
8
DEFAULT_255_2_778
10
12.4386439
20
35.0041471
11
12.5090439
21
34.9875471
0
LINE
8
DEFAULT_255_2_778
10
12.5090439
20
34.9875471
11
12.5619439
21
34.9436471
0
LINE
8
DEFAULT_255_2_778
10
12.5619439
20
34.9436471
11
12.5931439
21
34.8724471
0
LINE
8
DEFAULT_255_2_778
10
12.5931439
20
34.8724471
11
12.6052439
21
34.7761471
0
LINE
8
DEFAULT_255_2_778
10
12.6052439
20
34.7761471
11
12.5931439
21
34.6692471
0
LINE
8
DEFAULT_255_2_778
10
12.5931439
20
34.6692471
11
12.5579439
21
34.6001471
0
LINE
8
DEFAULT_255_2_778
10
12.5579439
20
34.6001471
11
12.4970439
21
34.5604471
0
LINE
8
DEFAULT_255_2_778
10
12.4970439
20
34.5604471
11
12.4129439
21
34.5499471
0
LINE
8
DEFAULT_255_2_778
10
12.4129439
20
34.5499471
11
12.3722439
21
34.5520471
0
LINE
8
DEFAULT_255_2_778
10
12.3722439
20
34.5520471
11
12.3722439
21
34.3866471
0
LINE
8
DEFAULT_255_2_778
10
12.3722439
20
34.3866471
11
12.4399439
21
34.3908471
0
LINE
8
DEFAULT_255_2_778
10
12.4399439
20
34.3908471
11
12.5253439
21
34.3721471
0
LINE
8
DEFAULT_255_2_778
10
12.5253439
20
34.3721471
11
12.5878439
21
34.3218471
0
LINE
8
DEFAULT_255_2_778
10
12.5878439
20
34.3218471
11
12.6256439
21
34.2400471
0
LINE
8
DEFAULT_255_2_778
10
12.6256439
20
34.2400471
11
12.6391439
21
34.1331471
0
LINE
8
DEFAULT_255_2_778
10
12.6391439
20
34.1331471
11
12.6243439
21
34.0117471
0
LINE
8
DEFAULT_255_2_778
10
12.6243439
20
34.0117471
11
12.5865439
21
33.9217471
0
LINE
8
DEFAULT_255_2_778
10
12.5865439
20
33.9217471
11
12.5227439
21
33.8651471
0
LINE
8
DEFAULT_255_2_778
10
12.5227439
20
33.8651471
11
12.4402439
21
33.8463471
0
LINE
8
DEFAULT_255_2_778
10
12.4402439
20
33.8463471
11
12.3547439
21
33.8672471
0
LINE
8
DEFAULT_255_2_778
10
12.3547439
20
33.8672471
11
12.2923439
21
33.9278471
0
LINE
8
DEFAULT_255_2_778
10
12.2923439
20
33.9278471
11
12.2528439
21
34.0305471
0
LINE
8
DEFAULT_255_2_778
10
12.2528439
20
34.0305471
11
12.2380439
21
34.1686471
0
LINE
8
DEFAULT_255_2_778
10
12.2380439
20
34.1686471
11
12.1137439
21
34.1686471
0
LINE
8
DEFAULT_255_2_778
10
12.2870439
20
74.6221471
11
12.3560439
21
74.7853471
0
LINE
8
DEFAULT_255_2_778
10
12.3560439
20
74.7853471
11
12.3804439
21
74.9946471
0
LINE
8
DEFAULT_255_2_778
10
12.3804439
20
74.9946471
11
12.3573439
21
75.1914471
0
LINE
8
DEFAULT_255_2_778
10
12.3573439
20
75.1914471
11
12.2923439
21
75.3423471
0
LINE
8
DEFAULT_255_2_778
10
12.2923439
20
75.3423471
11
12.1920439
21
75.4407471
0
LINE
8
DEFAULT_255_2_778
10
12.1920439
20
75.4407471
11
12.0605439
21
75.4764471
0
LINE
8
DEFAULT_255_2_778
10
12.0605439
20
75.4764471
11
11.9589439
21
75.4513471
0
LINE
8
DEFAULT_255_2_778
10
11.9589439
20
75.4513471
11
11.8790439
21
75.3822471
0
LINE
8
DEFAULT_255_2_778
10
11.8790439
20
75.3822471
11
11.9168439
21
75.7738471
0
LINE
8
DEFAULT_255_2_778
10
11.9168439
20
75.7738471
11
12.3288439
21
75.7738471
0
LINE
8
DEFAULT_255_2_778
10
12.3288439
20
75.7738471
11
12.3288439
21
75.9455471
0
LINE
8
DEFAULT_255_2_778
10
12.3288439
20
75.9455471
11
11.8274439
21
75.9455471
0
LINE
8
DEFAULT_255_2_778
10
11.8274439
20
75.9455471
11
11.7528439
21
75.1750471
0
LINE
8
DEFAULT_255_2_778
10
11.7528439
20
75.1750471
11
11.8613439
21
75.1750471
0
LINE
8
DEFAULT_255_2_778
10
11.8613439
20
75.1750471
11
11.9398439
21
75.2735471
0
LINE
8
DEFAULT_255_2_778
10
11.9398439
20
75.2735471
11
12.0401439
21
75.3092471
0
LINE
8
DEFAULT_255_2_778
10
12.0401439
20
75.3092471
11
12.1269439
21
75.2862471
0
LINE
8
DEFAULT_255_2_778
10
12.1269439
20
75.2862471
11
12.1920439
21
75.2213471
0
LINE
8
DEFAULT_255_2_778
10
12.1920439
20
75.2213471
11
12.2340439
21
75.1187471
0
LINE
8
DEFAULT_255_2_778
10
12.2340439
20
75.1187471
11
12.2489439
21
74.9848471
0
LINE
8
DEFAULT_255_2_778
10
12.2489439
20
74.9848471
11
12.2327439
21
74.8528471
0
LINE
8
DEFAULT_255_2_778
10
12.2327439
20
74.8528471
11
12.1907439
21
74.7501471
0
LINE
8
DEFAULT_255_2_778
10
12.1907439
20
74.7501471
11
12.1242439
21
74.6853471
0
LINE
8
DEFAULT_255_2_778
10
12.1242439
20
74.6853471
11
12.0388439
21
74.6623471
0
LINE
8
DEFAULT_255_2_778
10
12.0388439
20
74.6623471
11
11.9671439
21
74.6768471
0
LINE
8
DEFAULT_255_2_778
10
11.9671439
20
74.6768471
11
11.9115439
21
74.7250471
0
LINE
8
DEFAULT_255_2_778
10
11.9115439
20
74.7250471
11
11.8708439
21
74.8004471
0
LINE
8
DEFAULT_255_2_778
10
11.8708439
20
74.8004471
11
11.8504439
21
74.9030471
0
LINE
8
DEFAULT_255_2_778
10
11.8504439
20
74.9030471
11
11.7258439
21
74.9030471
0
LINE
8
DEFAULT_255_2_778
10
11.7258439
20
74.9030471
11
11.7557439
21
74.7292471
0
LINE
8
DEFAULT_255_2_778
10
11.7557439
20
74.7292471
11
11.8234439
21
74.5972471
0
LINE
8
DEFAULT_255_2_778
10
11.8234439
20
74.5972471
11
11.9210439
21
74.5133471
0
LINE
8
DEFAULT_255_2_778
10
11.9210439
20
74.5133471
11
12.0443439
21
74.4818471
0
LINE
8
DEFAULT_255_2_778
10
12.0443439
20
74.4818471
11
12.1811439
21
74.5194471
0
LINE
8
DEFAULT_255_2_778
10
12.1811439
20
74.5194471
11
12.2870439
21
74.6221471
0
LINE
8
DEFAULT_255_2_778
10
11.7086193
20
85.1434772
11
11.7303193
21
84.9402772
0
LINE
8
DEFAULT_255_2_778
10
11.7303193
20
84.9402772
11
11.7941193
21
84.7873772
0
LINE
8
DEFAULT_255_2_778
10
11.7941193
20
84.7873772
11
11.8943193
21
84.6910772
0
LINE
8
DEFAULT_255_2_778
10
11.8943193
20
84.6910772
11
12.0258193
21
84.6552772
0
LINE
8
DEFAULT_255_2_778
10
12.0258193
20
84.6552772
11
12.1669193
21
84.6889772
0
LINE
8
DEFAULT_255_2_778
10
12.1669193
20
84.6889772
11
12.2727193
21
84.7830772
0
LINE
8
DEFAULT_255_2_778
10
12.2727193
20
84.7830772
11
12.3404193
21
84.9275772
0
LINE
8
DEFAULT_255_2_778
10
12.3404193
20
84.9275772
11
12.3648193
21
85.1180772
0
LINE
8
DEFAULT_255_2_778
10
12.3648193
20
85.1180772
11
12.3539193
21
85.2416772
0
LINE
8
DEFAULT_255_2_778
10
12.3539193
20
85.2416772
11
12.3253193
21
85.3421772
0
LINE
8
DEFAULT_255_2_778
10
12.3253193
20
85.3421772
11
12.2767193
21
85.4196772
0
LINE
8
DEFAULT_255_2_778
10
12.2767193
20
85.4196772
11
12.2116193
21
85.4763772
0
LINE
8
DEFAULT_255_2_778
10
12.2116193
20
85.4763772
11
12.2997193
21
85.5892772
0
LINE
8
DEFAULT_255_2_778
10
12.2997193
20
85.5892772
11
12.3296193
21
85.7694772
0
LINE
8
DEFAULT_255_2_778
10
12.3296193
20
85.7694772
11
12.3092193
21
85.9327772
0
LINE
8
DEFAULT_255_2_778
10
12.3092193
20
85.9327772
11
12.2510193
21
86.0562772
0
LINE
8
DEFAULT_255_2_778
10
12.2510193
20
86.0562772
11
12.1547193
21
86.1337772
0
LINE
8
DEFAULT_255_2_778
10
12.1547193
20
86.1337772
11
12.0258193
21
86.1610772
0
LINE
8
DEFAULT_255_2_778
10
12.0258193
20
86.1610772
11
11.9039193
21
86.1274772
0
LINE
8
DEFAULT_255_2_778
10
11.9039193
20
86.1274772
11
11.8105193
21
86.0332772
0
LINE
8
DEFAULT_255_2_778
10
11.8105193
20
86.0332772
11
11.7509193
21
85.8845772
0
LINE
8
DEFAULT_255_2_778
10
11.7509193
20
85.8845772
11
11.7306193
21
85.6898772
0
LINE
8
DEFAULT_255_2_778
10
12.5693189
20
18.40743
11
12.6709189
21
18.50583
0
LINE
8
DEFAULT_255_2_778
10
12.6709189
20
18.50583
11
12.7359189
21
18.66083
0
LINE
8
DEFAULT_255_2_778
10
12.7359189
20
18.66083
11
12.7590189
21
18.85983
0
LINE
8
DEFAULT_255_2_778
10
12.7590189
20
18.85983
11
12.7359189
21
19.05883
0
LINE
8
DEFAULT_255_2_778
10
12.7359189
20
19.05883
11
12.6751189
21
19.20963
0
LINE
8
DEFAULT_255_2_778
10
12.6751189
20
19.20963
11
12.5788189
21
19.30593
0
LINE
8
DEFAULT_255_2_778
10
12.5788189
20
19.30593
11
12.4581189
21
19.34163
0
LINE
8
DEFAULT_255_2_778
10
12.4581189
20
19.34163
11
12.3293189
21
19.29983
0
LINE
8
DEFAULT_255_2_778
10
12.3293189
20
19.29983
11
12.2343189
21
19.18053
0
LINE
8
DEFAULT_255_2_778
10
12.2343189
20
19.18053
11
12.2547189
21
19.41073
0
LINE
8
DEFAULT_255_2_778
10
12.2547189
20
19.41073
11
12.2981189
21
19.57603
0
LINE
8
DEFAULT_255_2_778
10
12.2981189
20
19.57603
11
12.3645189
21
19.67443
0
LINE
8
DEFAULT_255_2_778
10
12.3645189
20
19.67443
11
12.4566189
21
19.70803
0
LINE
8
DEFAULT_255_2_778
10
12.4566189
20
19.70803
11
12.5243189
21
19.69143
0
LINE
8
DEFAULT_255_2_778
10
12.5243189
20
19.69143
11
12.5759189
21
19.64753
0
LINE
8
DEFAULT_255_2_778
10
12.5759189
20
19.64753
11
12.6097189
21
19.57633
0
LINE
8
DEFAULT_255_2_778
10
12.6097189
20
19.57633
11
12.6259189
21
19.47573
0
LINE
8
DEFAULT_255_2_778
10
12.6259189
20
19.47573
11
12.7505189
21
19.47573
0
LINE
8
DEFAULT_255_2_778
10
12.7505189
20
19.47573
11
12.7248189
21
19.64533
0
LINE
8
DEFAULT_255_2_778
10
12.7248189
20
19.64533
11
12.6653189
21
19.77103
0
LINE
8
DEFAULT_255_2_778
10
12.6653189
20
19.77103
11
12.5746189
21
19.85073
0
LINE
8
DEFAULT_255_2_778
10
12.5746189
20
19.85073
11
12.4552189
21
19.87793
0
LINE
8
DEFAULT_255_2_778
10
12.4552189
20
19.87793
11
12.3047189
21
19.82343
0
LINE
8
DEFAULT_255_2_778
10
12.3047189
20
19.82343
11
12.1936189
21
19.66633
0
LINE
8
DEFAULT_255_2_778
10
12.1936189
20
19.66633
11
12.1232189
21
19.41093
0
LINE
8
DEFAULT_255_2_778
10
12.1232189
20
19.41093
11
12.1041189
21
19.24563
0
LINE
8
DEFAULT_255_2_778
10
12.1041189
20
19.24563
11
12.0988189
21
19.05933
0
LINE
8
DEFAULT_255_2_778
10
12.0988189
20
19.05933
11
12.1205189
21
18.76193
0
LINE
8
DEFAULT_255_2_778
10
12.1205189
20
18.76193
11
12.1869189
21
18.54843
0
LINE
8
DEFAULT_255_2_778
10
12.1869189
20
18.54843
11
12.2925189
21
18.41643
0
LINE
8
DEFAULT_255_2_778
10
12.2925189
20
18.41643
11
12.4388189
21
18.37243
0
LINE
8
DEFAULT_255_2_778
10
12.4388189
20
18.37243
11
12.5690189
21
18.40823
0
LINE
8
DEFAULT_255_2_778
10
12.3174189
20
90.54733
11
12.3539189
21
90.66883
0
LINE
8
DEFAULT_255_2_778
10
12.3539189
20
90.66883
11
12.3674189
21
90.81113
0
LINE
8
DEFAULT_255_2_778
10
12.3674189
20
90.81113
11
12.3444189
21
90.98713
0
LINE
8
DEFAULT_255_2_778
10
12.3444189
20
90.98713
11
12.2819189
21
91.12523
0
LINE
8
DEFAULT_255_2_778
10
12.2819189
20
91.12523
11
12.1830189
21
91.21303
0
LINE
8
DEFAULT_255_2_778
10
12.1830189
20
91.21303
11
12.0570189
21
91.24453
0
LINE
8
DEFAULT_255_2_778
10
12.0570189
20
91.24453
11
11.9269189
21
91.20883
0
LINE
8
DEFAULT_255_2_778
10
11.9269189
20
91.20883
11
11.8279189
21
91.11043
0
LINE
8
DEFAULT_255_2_778
10
11.8279189
20
91.11043
11
11.7641189
21
90.95113
0
LINE
8
DEFAULT_255_2_778
10
11.7641189
20
90.95113
11
11.7424189
21
90.74183
0
LINE
8
DEFAULT_255_2_778
10
11.7424189
20
90.74183
11
11.7424189
21
90.71673
0
LINE
8
DEFAULT_255_2_778
10
11.7424189
20
90.71673
11
11.8657189
21
90.71673
0
LINE
8
DEFAULT_255_2_778
10
11.8657189
20
90.71673
11
11.8657189
21
90.73333
0
LINE
8
DEFAULT_255_2_778
10
11.8657189
20
90.73333
11
11.8779189
21
90.87573
0
LINE
8
DEFAULT_255_2_778
10
11.8779189
20
90.87573
11
11.9157189
21
90.98043
0
LINE
8
DEFAULT_255_2_778
10
11.9157189
20
90.98043
11
11.9739189
21
91.04743
0
LINE
8
DEFAULT_255_2_778
10
11.9739189
20
91.04743
11
12.0512189
21
91.07043
0
LINE
8
DEFAULT_255_2_778
10
12.0512189
20
91.07043
11
12.1285189
21
91.05163
0
LINE
8
DEFAULT_255_2_778
10
12.1285189
20
91.05163
11
12.1880189
21
90.99713
0
LINE
8
DEFAULT_255_2_778
10
12.1880189
20
90.99713
11
12.2245189
21
90.91543
0
LINE
8
DEFAULT_255_2_778
10
12.2245189
20
90.91543
11
12.2380189
21
90.81273
0
LINE
8
DEFAULT_255_2_778
10
12.2380189
20
90.81273
11
12.2028189
21
90.63463
0
LINE
8
DEFAULT_255_2_778
10
12.2028189
20
90.63463
11
12.0999189
21
90.50053
0
LINE
8
DEFAULT_255_2_778
10
12.0999189
20
90.50053
11
12.0200189
21
90.43363
0
LINE
8
DEFAULT_255_2_778
10
12.0200189
20
90.43363
11
11.8872189
21
90.30153
0
LINE
8
DEFAULT_255_2_778
10
11.8872189
20
90.30153
11
11.7938189
21
90.16133
0
LINE
8
DEFAULT_255_2_778
10
11.7938189
20
90.16133
11
11.7395189
21
89.99593
0
LINE
8
DEFAULT_255_2_778
10
11.7395189
20
89.99593
11
11.7218189
21
89.79273
0
LINE
8
DEFAULT_255_2_778
10
11.7218189
20
89.79273
11
11.7218189
21
89.78033
0
LINE
8
DEFAULT_255_2_778
10
11.7218189
20
89.78033
11
12.3669189
21
89.78033
0
LINE
8
DEFAULT_255_2_778
10
12.3669189
20
89.78033
11
12.3669189
21
89.96053
0
LINE
8
DEFAULT_255_2_778
10
12.3669189
20
89.96053
11
11.8573189
21
89.96053
0
LINE
8
DEFAULT_255_2_778
10
11.8573189
20
89.96053
11
11.8843189
21
90.05473
0
LINE
8
DEFAULT_255_2_778
10
11.8843189
20
90.05473
11
11.9316189
21
90.13853
0
LINE
8
DEFAULT_255_2_778
10
11.9316189
20
90.13853
11
12.0835189
21
90.28943
0
LINE
8
DEFAULT_255_2_778
10
12.0835189
20
90.28943
11
12.1634189
21
90.35213
0
LINE
8
DEFAULT_255_2_778
10
12.1634189
20
90.35213
11
12.2528189
21
90.44203
0
LINE
8
DEFAULT_255_2_778
10
12.2528189
20
90.44203
11
12.3166189
21
90.54683
0
LINE
8
DEFAULT_255_2_778
10
12.2184745
20
65.5294304
11
12.0694745
21
65.2490304
0
LINE
8
DEFAULT_255_2_778
10
12.0694745
20
65.2490304
11
11.9570745
21
64.9516304
0
LINE
8
DEFAULT_255_2_778
10
11.9570745
20
64.9516304
11
11.8771745
21
64.6354304
0
LINE
8
DEFAULT_255_2_778
10
11.8771745
20
64.6354304
11
11.8324745
21
64.2983304
0
LINE
8
DEFAULT_255_2_778
10
11.8324745
20
64.2983304
11
11.9705745
21
64.2983304
0
LINE
8
DEFAULT_255_2_778
10
11.9705745
20
64.2983304
11
12.0152745
21
64.6418304
0
LINE
8
DEFAULT_255_2_778
10
12.0152745
20
64.6418304
11
12.0938745
21
64.9664304
0
LINE
8
DEFAULT_255_2_778
10
12.0938745
20
64.9664304
11
12.2036745
21
65.2659304
0
LINE
8
DEFAULT_255_2_778
10
12.2036745
20
65.2659304
11
12.3486745
21
65.5464304
0
LINE
8
DEFAULT_255_2_778
10
12.3486745
20
65.5464304
11
12.3486745
21
65.7202304
0
LINE
8
DEFAULT_255_2_778
10
12.3486745
20
65.7202304
11
11.7035745
21
65.7202304
0
LINE
8
DEFAULT_255_2_778
10
11.7035745
20
65.7202304
11
11.7035745
21
65.5297304
0
LINE
8
DEFAULT_255_2_778
10
11.7035745
20
65.5297304
11
12.2184745
21
65.5297304
0
LINE
8
DEFAULT_255_2_778
10
12.0591473
20
96.2089372
11
12.0104473
21
96.1232372
0
LINE
8
DEFAULT_255_2_778
10
12.0104473
20
96.1232372
11
11.9358473
21
96.0729372
0
LINE
8
DEFAULT_255_2_778
10
11.9358473
20
96.0729372
11
11.8329473
21
96.0562372
0
LINE
8
DEFAULT_255_2_778
10
11.8329473
20
96.0562372
11
11.8329473
21
95.9075372
0
LINE
8
DEFAULT_255_2_778
10
11.8329473
20
95.9075372
11
12.0525473
21
95.9075372
0
LINE
8
DEFAULT_255_2_778
10
12.0525473
20
95.9075372
11
12.0525473
21
94.8730372
0
LINE
8
DEFAULT_255_2_778
10
12.0525473
20
94.8730372
11
12.1758473
21
94.8730372
0
LINE
8
DEFAULT_255_2_778
10
12.1758473
20
94.8730372
11
12.1758473
21
96.3367372
0
LINE
8
DEFAULT_255_2_778
10
12.1758473
20
96.3367372
11
12.0837473
21
96.3367372
0
LINE
8
DEFAULT_255_2_778
10
12.0837473
20
96.3367372
11
12.0594473
21
96.2089372
0
LINE
8
DEFAULT_255_2_778
10
12.0480684
20
81.0287012
11
11.6374684
21
80.1513012
0
LINE
8
DEFAULT_255_2_778
10
11.6374684
20
80.1513012
11
11.6374684
21
79.9672012
0
LINE
8
DEFAULT_255_2_778
10
11.6374684
20
79.9672012
11
12.0494684
21
79.9672012
0
LINE
8
DEFAULT_255_2_778
10
12.0494684
20
79.9672012
11
12.0494684
21
79.6071012
0
LINE
8
DEFAULT_255_2_778
10
12.0494684
20
79.6071012
11
12.1713684
21
79.6071012
0
LINE
8
DEFAULT_255_2_778
10
12.1713684
20
79.6071012
11
12.1713684
21
79.9672012
0
LINE
8
DEFAULT_255_2_778
10
12.1713684
20
79.9672012
11
12.3055684
21
79.9672012
0
LINE
8
DEFAULT_255_2_778
10
12.3055684
20
79.9672012
11
12.3055684
21
80.1347012
0
LINE
8
DEFAULT_255_2_778
10
12.3055684
20
80.1347012
11
12.1713684
21
80.1347012
0
LINE
8
DEFAULT_255_2_778
10
12.1713684
20
80.1347012
11
12.1713684
21
81.0287012
0
LINE
8
DEFAULT_255_2_778
10
12.1713684
20
81.0287012
11
12.0480684
21
81.0287012
0
LINE
8
DEFAULT_255_2_778
10
11.7514403
20
80.1346709
11
12.0496403
21
80.7858709
0
LINE
8
DEFAULT_255_2_778
10
12.0496403
20
80.7858709
11
12.0496403
21
80.1346709
0
LINE
8
DEFAULT_255_2_778
10
12.0496403
20
80.1346709
11
11.7514403
21
80.1346709
0
LINE
8
DEFAULT_255_2_778
10
11.7292403
20
85.6795709
11
11.8509403
21
85.6795709
0
LINE
8
DEFAULT_255_2_778
10
11.8509403
20
85.6795709
11
11.8618403
21
85.8134709
0
LINE
8
DEFAULT_255_2_778
10
11.8618403
20
85.8134709
11
11.8956403
21
85.9097709
0
LINE
8
DEFAULT_255_2_778
10
11.8956403
20
85.9097709
11
11.9525403
21
85.9684709
0
LINE
8
DEFAULT_255_2_778
10
11.9525403
20
85.9684709
11
12.0324403
21
85.9893709
0
LINE
8
DEFAULT_255_2_778
10
12.0324403
20
85.9893709
11
12.1028403
21
85.9727709
0
LINE
8
DEFAULT_255_2_778
10
12.1028403
20
85.9727709
11
12.1557403
21
85.9287709
0
LINE
8
DEFAULT_255_2_778
10
12.1557403
20
85.9287709
11
12.1869403
21
85.8576709
0
LINE
8
DEFAULT_255_2_778
10
12.1869403
20
85.8576709
11
12.1991403
21
85.7613709
0
LINE
8
DEFAULT_255_2_778
10
12.1991403
20
85.7613709
11
12.1869403
21
85.6544709
0
LINE
8
DEFAULT_255_2_778
10
12.1869403
20
85.6544709
11
12.1518403
21
85.5853709
0
LINE
8
DEFAULT_255_2_778
10
12.1518403
20
85.5853709
11
12.0909403
21
85.5456709
0
LINE
8
DEFAULT_255_2_778
10
12.0909403
20
85.5456709
11
12.0068403
21
85.5353709
0
LINE
8
DEFAULT_255_2_778
10
12.0068403
20
85.5353709
11
11.9660403
21
85.5374709
0
LINE
8
DEFAULT_255_2_778
10
11.9660403
20
85.5374709
11
11.9660403
21
85.3721709
0
LINE
8
DEFAULT_255_2_778
10
11.9660403
20
85.3721709
11
12.0338403
21
85.3763709
0
LINE
8
DEFAULT_255_2_778
10
12.0338403
20
85.3763709
11
12.1192403
21
85.3575709
0
LINE
8
DEFAULT_255_2_778
10
12.1192403
20
85.3575709
11
12.1817403
21
85.3072709
0
LINE
8
DEFAULT_255_2_778
10
12.1817403
20
85.3072709
11
12.2195403
21
85.2255709
0
LINE
8
DEFAULT_255_2_778
10
12.2195403
20
85.2255709
11
12.2330403
21
85.1186709
0
LINE
8
DEFAULT_255_2_778
10
12.2330403
20
85.1186709
11
12.2182403
21
84.9971709
0
LINE
8
DEFAULT_255_2_778
10
12.2182403
20
84.9971709
11
12.1803403
21
84.9072709
0
LINE
8
DEFAULT_255_2_778
10
12.1803403
20
84.9072709
11
12.1166403
21
84.8506709
0
LINE
8
DEFAULT_255_2_778
10
12.1166403
20
84.8506709
11
12.0340403
21
84.8318709
0
LINE
8
DEFAULT_255_2_778
10
12.0340403
20
84.8318709
11
11.9485403
21
84.8527709
0
LINE
8
DEFAULT_255_2_778
10
11.9485403
20
84.8527709
11
11.8861403
21
84.9133709
0
LINE
8
DEFAULT_255_2_778
10
11.8861403
20
84.9133709
11
11.8467403
21
85.0159709
0
LINE
8
DEFAULT_255_2_778
10
11.8467403
20
85.0159709
11
11.8319403
21
85.1540709
0
LINE
8
DEFAULT_255_2_778
10
11.8319403
20
85.1540709
11
11.7075403
21
85.1540709
0
LINE
8
DEFAULT_255_2_778
10
11.9152403
20
55.5223709
11
11.8149403
21
55.4218709
0
LINE
8
DEFAULT_255_2_778
10
11.8149403
20
55.4218709
11
11.7499403
21
55.2667709
0
LINE
8
DEFAULT_255_2_778
10
11.7499403
20
55.2667709
11
11.7281403
21
55.0699709
0
LINE
8
DEFAULT_255_2_778
10
11.7281403
20
55.0699709
11
11.7499403
21
54.8709709
0
LINE
8
DEFAULT_255_2_778
10
11.7499403
20
54.8709709
11
11.8107403
21
54.7180709
0
LINE
8
DEFAULT_255_2_778
10
11.8107403
20
54.7180709
11
11.9057403
21
54.6217709
0
LINE
8
DEFAULT_255_2_778
10
11.9057403
20
54.6217709
11
12.0277403
21
54.5881709
0
LINE
8
DEFAULT_255_2_778
10
12.0277403
20
54.5881709
11
12.1549403
21
54.6277709
0
LINE
8
DEFAULT_255_2_778
10
12.1549403
20
54.6277709
11
12.2526403
21
54.7492709
0
LINE
8
DEFAULT_255_2_778
10
12.2526403
20
54.7492709
11
12.2309403
21
54.5169709
0
LINE
8
DEFAULT_255_2_778
10
12.2309403
20
54.5169709
11
12.1875403
21
54.3515709
0
LINE
8
DEFAULT_255_2_778
10
12.1875403
20
54.3515709
11
12.1211403
21
54.2531709
0
LINE
8
DEFAULT_255_2_778
10
12.1211403
20
54.2531709
11
12.0303403
21
54.2216709
0
LINE
8
DEFAULT_255_2_778
10
12.0303403
20
54.2216709
11
11.9599403
21
54.2362709
0
LINE
8
DEFAULT_255_2_778
10
11.9599403
20
54.2362709
11
11.9070403
21
54.2822709
0
LINE
8
DEFAULT_255_2_778
10
11.9070403
20
54.2822709
11
11.8732403
21
54.3555709
0
LINE
8
DEFAULT_255_2_778
10
11.8732403
20
54.3555709
11
11.8597403
21
54.4539709
0
LINE
8
DEFAULT_255_2_778
10
11.8597403
20
54.4539709
11
11.7364403
21
54.4539709
0
LINE
8
DEFAULT_255_2_778
10
11.7364403
20
54.4539709
11
11.7567403
21
54.2864709
0
LINE
8
DEFAULT_255_2_778
10
11.7567403
20
54.2864709
11
11.8149403
21
54.1608709
0
LINE
8
DEFAULT_255_2_778
10
11.8149403
20
54.1608709
11
11.9070403
21
54.0811709
0
LINE
8
DEFAULT_255_2_778
10
11.9070403
20
54.0811709
11
12.0290403
21
54.0517709
0
LINE
8
DEFAULT_255_2_778
10
12.0290403
20
54.0517709
11
12.1089403
21
54.0663709
0
LINE
8
DEFAULT_255_2_778
10
12.1089403
20
54.0663709
11
12.1806403
21
54.1039709
0
LINE
8
DEFAULT_255_2_778
10
12.1806403
20
54.1039709
11
12.2930403
21
54.2610709
0
LINE
8
DEFAULT_255_2_778
10
12.2930403
20
54.2610709
11
12.3634403
21
54.5163709
0
LINE
8
DEFAULT_255_2_778
10
12.3634403
20
54.5163709
11
12.3878403
21
54.8701709
0
LINE
8
DEFAULT_255_2_778
10
12.3878403
20
54.8701709
11
12.3647403
21
55.1654709
0
LINE
8
DEFAULT_255_2_778
10
12.3647403
20
55.1654709
11
12.2983403
21
55.3810709
0
LINE
8
DEFAULT_255_2_778
10
12.2983403
20
55.3810709
11
12.1912403
21
55.5109709
0
LINE
8
DEFAULT_255_2_778
10
12.1912403
20
55.5109709
11
12.0462403
21
55.5570709
0
LINE
8
DEFAULT_255_2_778
10
12.0462403
20
55.5570709
11
11.9147403
21
55.5212709
0
LINE
8
DEFAULT_255_2_778
10
12.3047403
20
50.1341709
11
12.3655403
21
50.2409709
0
LINE
8
DEFAULT_255_2_778
10
12.3655403
20
50.2409709
11
12.4550403
21
50.2785709
0
LINE
8
DEFAULT_255_2_778
10
12.4550403
20
50.2785709
11
12.5444403
21
50.2409709
0
LINE
8
DEFAULT_255_2_778
10
12.5444403
20
50.2409709
11
12.6052403
21
50.1341709
0
LINE
8
DEFAULT_255_2_778
10
12.6052403
20
50.1341709
11
12.6391403
21
49.9518709
0
LINE
8
DEFAULT_255_2_778
10
12.6391403
20
49.9518709
11
12.6500403
21
49.6964709
0
LINE
8
DEFAULT_255_2_778
10
12.6500403
20
49.6964709
11
12.6391403
21
49.4390709
0
LINE
8
DEFAULT_255_2_778
10
12.6391403
20
49.4390709
11
12.6052403
21
49.2588709
0
LINE
8
DEFAULT_255_2_778
10
12.6052403
20
49.2588709
11
12.5444403
21
49.1498709
0
LINE
8
DEFAULT_255_2_778
10
12.5444403
20
49.1498709
11
12.4550403
21
49.1162709
0
LINE
8
DEFAULT_255_2_778
10
12.4550403
20
49.1162709
11
12.3655403
21
49.1498709
0
LINE
8
DEFAULT_255_2_778
10
12.3655403
20
49.1498709
11
12.3047403
21
49.2588709
0
LINE
8
DEFAULT_255_2_778
10
12.3047403
20
49.2588709
11
12.2695403
21
49.4390709
0
LINE
8
DEFAULT_255_2_778
10
12.2695403
20
49.4390709
11
12.2600403
21
49.6964709
0
LINE
8
DEFAULT_255_2_778
10
12.2600403
20
49.6964709
11
12.2708403
21
49.9518709
0
LINE
8
DEFAULT_255_2_778
10
12.2708403
20
49.9518709
11
12.3047403
21
50.1341709
0
LINE
8
DEFAULT_255_2_778
10
12.5947403
20
48.9908709
11
12.6976403
21
49.1331709
0
LINE
8
DEFAULT_255_2_778
10
12.6976403
20
49.1331709
11
12.7600403
21
49.3676709
0
LINE
8
DEFAULT_255_2_778
10
12.7600403
20
49.3676709
11
12.7817403
21
49.6962709
0
LINE
8
DEFAULT_255_2_778
10
12.7817403
20
49.6962709
11
12.7600403
21
50.0229709
0
LINE
8
DEFAULT_255_2_778
10
12.7600403
20
50.0229709
11
12.6976403
21
50.2574709
0
LINE
8
DEFAULT_255_2_778
10
12.6976403
20
50.2574709
11
12.5947403
21
50.3997709
0
LINE
8
DEFAULT_255_2_778
10
12.5947403
20
50.3997709
11
12.5296403
21
50.4373709
0
LINE
8
DEFAULT_255_2_778
10
12.5296403
20
50.4373709
11
12.4550403
21
50.4500709
0
LINE
8
DEFAULT_255_2_778
10
12.4550403
20
50.4500709
11
12.3140403
21
50.4018709
0
LINE
8
DEFAULT_255_2_778
10
12.3140403
20
50.4018709
11
12.2123403
21
50.2574709
0
LINE
8
DEFAULT_255_2_778
10
12.2123403
20
50.2574709
11
12.1499403
21
50.0229709
0
LINE
8
DEFAULT_255_2_778
10
12.1499403
20
50.0229709
11
12.1295403
21
49.6962709
0
LINE
8
DEFAULT_255_2_778
10
12.1295403
20
49.6962709
11
12.1499403
21
49.3676709
0
LINE
8
DEFAULT_255_2_778
10
12.1499403
20
49.3676709
11
12.2123403
21
49.1331709
0
LINE
8
DEFAULT_255_2_778
10
12.2123403
20
49.1331709
11
12.3140403
21
48.9908709
0
LINE
8
DEFAULT_255_2_778
10
12.3140403
20
48.9908709
11
12.4550403
21
48.9448709
0
LINE
8
DEFAULT_255_2_778
10
12.4550403
20
48.9448709
11
12.5947403
21
48.9908709
0
LINE
8
DEFAULT_255_2_778
10
12.2092403
20
101.1455709
11
12.2430403
21
100.9634709
0
LINE
8
DEFAULT_255_2_778
10
12.2430403
20
100.9634709
11
12.2539403
21
100.7081709
0
LINE
8
DEFAULT_255_2_778
10
12.2539403
20
100.7081709
11
12.2430403
21
100.4507709
0
LINE
8
DEFAULT_255_2_778
10
12.2430403
20
100.4507709
11
12.2092403
21
100.2705709
0
LINE
8
DEFAULT_255_2_778
10
12.2092403
20
100.2705709
11
12.1483403
21
100.1615709
0
LINE
8
DEFAULT_255_2_778
10
12.1483403
20
100.1615709
11
12.0589403
21
100.1279709
0
LINE
8
DEFAULT_255_2_778
10
12.0589403
20
100.1279709
11
11.9695403
21
100.1615709
0
LINE
8
DEFAULT_255_2_778
10
11.9695403
20
100.1615709
11
11.9086403
21
100.2705709
0
LINE
8
DEFAULT_255_2_778
10
11.9086403
20
100.2705709
11
11.8734403
21
100.4507709
0
LINE
8
DEFAULT_255_2_778
10
11.8734403
20
100.4507709
11
11.8639403
21
100.7081709
0
LINE
8
DEFAULT_255_2_778
10
11.8639403
20
100.7081709
11
11.8747403
21
100.9634709
0
LINE
8
DEFAULT_255_2_778
10
11.8747403
20
100.9634709
11
11.9086403
21
101.1455709
0
LINE
8
DEFAULT_255_2_778
10
11.9086403
20
101.1455709
11
11.9695403
21
101.2524709
0
LINE
8
DEFAULT_255_2_778
10
11.9695403
20
101.2524709
11
12.0589403
21
101.2899709
0
LINE
8
DEFAULT_255_2_778
10
12.0589403
20
101.2899709
11
12.1483403
21
101.2524709
0
LINE
8
DEFAULT_255_2_778
10
12.1483403
20
101.2524709
11
12.2092403
21
101.1455709
0
LINE
8
DEFAULT_255_2_778
10
11.7538403
20
100.3792709
11
11.8163403
21
100.1448709
0
LINE
8
DEFAULT_255_2_778
10
11.8163403
20
100.1448709
11
11.9179403
21
100.0025709
0
LINE
8
DEFAULT_255_2_778
10
11.9179403
20
100.0025709
11
12.0589403
21
99.9564709
0
LINE
8
DEFAULT_255_2_778
10
12.0589403
20
99.9564709
11
12.1986403
21
100.0025709
0
LINE
8
DEFAULT_255_2_778
10
12.1986403
20
100.0025709
11
12.3015403
21
100.1448709
0
LINE
8
DEFAULT_255_2_778
10
12.3015403
20
100.1448709
11
12.3639403
21
100.3792709
0
LINE
8
DEFAULT_255_2_778
10
12.3639403
20
100.3792709
11
12.3857403
21
100.7081709
0
LINE
8
DEFAULT_255_2_778
10
12.3857403
20
100.7081709
11
12.3639403
21
101.0349709
0
LINE
8
DEFAULT_255_2_778
10
12.3639403
20
101.0349709
11
12.3015403
21
101.2693709
0
LINE
8
DEFAULT_255_2_778
10
12.3015403
20
101.2693709
11
12.1986403
21
101.4116709
0
LINE
8
DEFAULT_255_2_778
10
12.1986403
20
101.4116709
11
12.1335403
21
101.4495709
0
LINE
8
DEFAULT_255_2_778
10
12.1335403
20
101.4495709
11
12.0589403
21
101.4619709
0
LINE
8
DEFAULT_255_2_778
10
12.0589403
20
101.4619709
11
11.9179403
21
101.4137709
0
LINE
8
DEFAULT_255_2_778
10
11.9179403
20
101.4137709
11
11.8163403
21
101.2693709
0
LINE
8
DEFAULT_255_2_778
10
11.8163403
20
101.2693709
11
11.7538403
21
101.0349709
0
LINE
8
DEFAULT_255_2_778
10
11.7538403
20
101.0349709
11
11.7334403
21
100.7081709
0
LINE
8
DEFAULT_255_2_778
10
11.7334403
20
100.7081709
11
11.7538403
21
100.3792709
0
LINE
8
DEFAULT_255_2_778
10
11.9284403
20
70.2919709
11
11.8335403
21
70.1725709
0
LINE
8
DEFAULT_255_2_778
10
11.8335403
20
70.1725709
11
11.8538403
21
70.4027709
0
LINE
8
DEFAULT_255_2_778
10
11.8538403
20
70.4027709
11
11.8972403
21
70.5681709
0
LINE
8
DEFAULT_255_2_778
10
11.8972403
20
70.5681709
11
11.9636403
21
70.6665709
0
LINE
8
DEFAULT_255_2_778
10
11.9636403
20
70.6665709
11
12.0557403
21
70.7001709
0
LINE
8
DEFAULT_255_2_778
10
12.0557403
20
70.7001709
11
12.1234403
21
70.6835709
0
LINE
8
DEFAULT_255_2_778
10
12.1234403
20
70.6835709
11
12.1750403
21
70.6395709
0
LINE
8
DEFAULT_255_2_778
10
12.1750403
20
70.6395709
11
12.2089403
21
70.5684709
0
LINE
8
DEFAULT_255_2_778
10
12.2089403
20
70.5684709
11
12.2251403
21
70.4678709
0
LINE
8
DEFAULT_255_2_778
10
12.2251403
20
70.4678709
11
12.3497403
21
70.4678709
0
LINE
8
DEFAULT_255_2_778
10
12.3497403
20
70.4678709
11
12.3240403
21
70.6374709
0
LINE
8
DEFAULT_255_2_778
10
12.3240403
20
70.6374709
11
12.2645403
21
70.7631709
0
LINE
8
DEFAULT_255_2_778
10
12.2645403
20
70.7631709
11
12.1737403
21
70.8427709
0
LINE
8
DEFAULT_255_2_778
10
12.1737403
20
70.8427709
11
12.0544403
21
70.8700709
0
LINE
8
DEFAULT_255_2_778
10
12.0544403
20
70.8700709
11
11.9038403
21
70.8155709
0
LINE
8
DEFAULT_255_2_778
10
11.9038403
20
70.8155709
11
11.7927403
21
70.6583709
0
LINE
8
DEFAULT_255_2_778
10
11.7927403
20
70.6583709
11
11.7223403
21
70.4030709
0
LINE
8
DEFAULT_255_2_778
10
11.7223403
20
70.4030709
11
11.7033403
21
70.2376709
0
LINE
8
DEFAULT_255_2_778
10
11.7033403
20
70.2376709
11
11.6980403
21
70.0514709
0
LINE
8
DEFAULT_255_2_778
10
11.6980403
20
70.0514709
11
11.7197403
21
69.7540709
0
LINE
8
DEFAULT_255_2_778
10
11.7197403
20
69.7540709
11
11.7861403
21
69.5404709
0
LINE
8
DEFAULT_255_2_778
10
11.7861403
20
69.5404709
11
11.8917403
21
69.4084709
0
LINE
8
DEFAULT_255_2_778
10
11.8917403
20
69.4084709
11
12.0380403
21
69.3645709
0
LINE
8
DEFAULT_255_2_778
10
12.0380403
20
69.3645709
11
12.1682403
21
69.4002709
0
LINE
8
DEFAULT_255_2_778
10
12.1682403
20
69.4002709
11
12.2698403
21
69.4986709
0
LINE
8
DEFAULT_255_2_778
10
12.2698403
20
69.4986709
11
12.3348403
21
69.6537709
0
LINE
8
DEFAULT_255_2_778
10
12.3348403
20
69.6537709
11
12.3579403
21
69.8527709
0
LINE
8
DEFAULT_255_2_778
10
12.3579403
20
69.8527709
11
12.3348403
21
70.0516709
0
LINE
8
DEFAULT_255_2_778
10
12.3348403
20
70.0516709
11
12.2740403
21
70.2024709
0
LINE
8
DEFAULT_255_2_778
10
12.2740403
20
70.2024709
11
12.1777403
21
70.2988709
0
LINE
8
DEFAULT_255_2_778
10
12.1777403
20
70.2988709
11
12.0570403
21
70.3345709
0
LINE
8
DEFAULT_255_2_778
10
12.0570403
20
70.3345709
11
11.9282403
21
70.2927709
0
ARC
8
DEFAULT_255_2_778
10
12.6188526
20
-1355.3495412
40
1359.0988337
50
89.9996469
51
90.0119227
0
ARC
8
DEFAULT_255_2_778
10
12.5260184
20
-904.4614637
40
908.2107466
50
90.0119853
51
90.0260501
0
ARC
8
DEFAULT_255_2_778
10
12.3521666
20
-538.5257369
40
542.2749786
50
90.0252602
51
90.051411
0
ARC
8
DEFAULT_255_2_778
10
12.1026432
20
-266.66862
40
270.4177472
50
90.0502269
51
90.0923815
0
ARC
8
DEFAULT_255_2_778
10
11.8551006
20
-114.0481213
40
117.7970478
50
90.09167
51
90.1516419
0
ARC
8
DEFAULT_255_2_778
10
11.6413649
20
-35.7159149
40
39.4645507
50
90.1423252
51
90.2825763
0
ARC
8
DEFAULT_255_2_778
10
11.4798521
20
-3.7241869
40
7.472416
50
90.2539617
51
90.6100837
0
ARC
8
DEFAULT_255_2_778
10
11.3980314
20
3.5337443
40
0.2140732
50
89.3961334
51
93.5418608
0
ARC
8
DEFAULT_255_2_778
10
11.3849045
20
3.2877916
40
0.4596009
50
90.0094286
51
93.7319825
0
ARC
8
DEFAULT_255_2_778
10
11.3875162
20
3.2613468
40
0.4861603
50
93.8362679
51
116.7984833
0
ARC
8
DEFAULT_255_2_778
10
11.391192
20
3.2565732
40
0.4920798
50
116.9299185
51
141.6794445
0
ARC
8
DEFAULT_255_2_778
10
11.4586616
20
3.2095717
40
0.5741785
50
142.1744045
51
174.1899793
0
ARC
8
DEFAULT_255_2_778
10
11.4477951
20
3.2086675
40
0.5634627
50
173.9866503
51
178.9398812
0
ARC
8
DEFAULT_255_2_778
10
10.3820969
20
0.2405744
40
0.450583
50
270.1312208
51
359.1375837
0
ARC
8
DEFAULT_255_2_778
10
9.6232687
20
0.240379
40
0.450388
50
180.8379305
51
269.855
0
ARC
8
DEFAULT_255_2_778
10
8.7124677
20
0.7947779
40
0.4507158
50
0.8917387
51
89.8651024
0
ARC
8
DEFAULT_255_2_778
10
7.2960748
20
0.7949957
40
0.4504972
50
90.0821507
51
179.135535
0
ARC
8
DEFAULT_255_2_778
10
12.7099821
20
0.7949954
40
0.450498
50
0.8645069
51
89.8795929
0
ARC
8
DEFAULT_255_2_778
10
12.6182438
20
3.2884708
40
0.4589216
50
86.0195583
51
89.9893804
0
ARC
8
DEFAULT_255_2_778
10
12.61549
20
3.2612395
40
0.4862792
50
63.2017983
51
85.9186014
0
ARC
8
DEFAULT_255_2_778
10
12.6116709
20
3.2554675
40
0.493154
50
38.3856942
51
63.1080794
0
ARC
8
DEFAULT_255_2_778
10
12.5429675
20
3.2094046
40
0.5756471
50
5.8118672
51
37.7332242
0
ARC
8
DEFAULT_255_2_778
10
12.5574671
20
3.2091575
40
0.5612497
50
1.0142731
51
5.9868534
0
ARC
8
DEFAULT_255_2_778
10
5.4257736
20
0.290288
40
0.5007979
50
180.8347083
51
269.8232714
0
ARC
8
DEFAULT_255_2_778
10
6.3854244
20
0.2399463
40
0.4504552
50
270.1404814
51
359.140909
0
ARC
8
DEFAULT_255_2_778
10
7.4515879
20
3.2080716
40
0.5640553
50
174.0838458
51
178.9414058
0
ARC
8
DEFAULT_255_2_778
10
7.4619381
20
3.2090486
40
0.5742532
50
142.177261
51
174.287252
0
ARC
8
DEFAULT_255_2_778
10
7.394391
20
3.2560747
40
0.4920781
50
116.9298971
51
141.6795076
0
ARC
8
DEFAULT_255_2_778
10
7.3905977
20
3.2610167
40
0.4859553
50
92.3979351
51
116.7950431
0
ARC
8
DEFAULT_255_2_778
10
7.3880451
20
3.2899059
40
0.4569865
50
90.0020314
51
92.2297246
0
ARC
8
DEFAULT_255_2_778
10
9.5274517
20
-94.7626812
40
98.5328028
50
91.1160505
51
91.2441495
0
ARC
8
DEFAULT_255_2_778
10
8.9968236
20
-67.423852
40
71.1888245
50
90.945235
51
91.1176323
0
ARC
8
DEFAULT_255_2_778
10
8.6672328
20
-47.5365338
40
51.2987754
50
90.7828004
51
90.9435925
0
ARC
8
DEFAULT_255_2_778
10
8.4544103
20
-31.7208658
40
35.4816761
50
90.5180146
51
90.7880831
0
ARC
8
DEFAULT_255_2_778
10
8.3358713
20
-18.4651275
40
22.2254078
50
90.1657846
51
90.521392
0
ARC
8
DEFAULT_255_2_778
10
8.3131054
20
-11.8683343
40
15.6285768
50
90.0023885
51
90.1523002
0
ARC
8
DEFAULT_255_2_778
10
8.3174681
20
-6.8104058
40
10.5706494
50
89.4593587
51
90.0271787
0
ARC
8
DEFAULT_255_2_778
10
8.372039
20
-1.3357714
40
5.0957447
50
88.4906496
51
89.4920866
0
ARC
8
DEFAULT_255_2_778
10
8.457738
20
1.831903
40
1.9269134
50
86.7593819
51
88.5570304
0
ARC
8
DEFAULT_255_2_778
10
8.5457428
20
3.3164759
40
0.4397573
50
81.9658921
51
87.2730088
0
ARC
8
DEFAULT_255_2_778
10
8.6085799
20
3.7344173
40
0.0175535
50
45.2910996
51
94.4943935
0
ARC
8
DEFAULT_255_2_778
10
8.6208503
20
3.2893553
40
0.4575371
50
86.250786
51
89.9901563
0
ARC
8
DEFAULT_255_2_778
10
8.6177506
20
3.2590087
40
0.4880226
50
63.2473636
51
86.1206249
0
ARC
8
DEFAULT_255_2_778
10
8.6143728
20
3.2549698
40
0.493151
50
38.385615
51
63.1081489
0
ARC
8
DEFAULT_255_2_778
10
8.5452192
20
3.2087918
40
0.5760707
50
5.7203302
51
37.7148102
0
ARC
8
DEFAULT_255_2_778
10
8.5571493
20
3.2080628
40
0.5642761
50
1.0590682
51
5.9147221
0
ARC
8
DEFAULT_255_2_778
10
5.5994522
20
11.2538238
40
0.1927393
50
183.28109
51
206.4772221
0
ARC
8
DEFAULT_255_2_778
10
5.6035646
20
11.2475355
40
0.1937606
50
204.2700719
51
224.0187418
0
ARC
8
DEFAULT_255_2_778
10
5.5667459
20
11.2119055
40
0.1425248
50
224.0039109
51
265.2310079
0
ARC
8
DEFAULT_255_2_778
10
5.5589448
20
11.170006
40
0.1002137
50
267.6848529
51
269.9908832
0
ARC
8
DEFAULT_255_2_778
10
15.0797832
20
0.2902942
40
0.5008033
50
270.1425112
51
359.130263
0
ARC
8
DEFAULT_255_2_778
10
13.6205478
20
0.2398594
40
0.4503684
50
180.8482055
51
269.8576515
0
ARC
8
DEFAULT_255_2_778
10
16.241308
20
9.4760581
40
0.5007357
50
90.1349145
51
179.1378678
0
ARC
8
DEFAULT_255_2_778
10
4.5739883
20
10.8506792
40
0.1827408
50
359.9100998
51
0.0299654
0
ARC
8
DEFAULT_255_2_778
10
4.4551953
20
10.8507181
40
0.3015338
50
0.0107619
51
44.3739736
0
LINE
8
DEFAULT_255_2_778
10
6.8403289
20
0.5170924
11
6.8731289
21
0.5437924
0
LINE
8
DEFAULT_255_2_778
10
6.8731289
20
0.5437924
11
7.0123289
21
0.6144924
0
LINE
8
DEFAULT_255_2_778
10
7.0123289
20
0.6144924
11
7.1993289
21
0.6649924
0
LINE
8
DEFAULT_255_2_778
10
7.1993289
20
0.6649924
11
7.3504289
21
0.6768924
0
LINE
8
DEFAULT_255_2_778
10
7.3504289
20
0.6768924
11
8.6577289
21
0.6768924
0
LINE
8
DEFAULT_255_2_778
10
8.6577289
20
0.6768924
11
8.8326289
21
0.6607924
0
LINE
8
DEFAULT_255_2_778
10
8.8326289
20
0.6607924
11
9.0104289
21
0.6086924
0
LINE
8
DEFAULT_255_2_778
10
9.0104289
20
0.6086924
11
9.1414289
21
0.5395924
0
LINE
8
DEFAULT_255_2_778
10
9.1414289
20
0.5395924
11
9.1678289
21
0.5194924
0
LINE
8
DEFAULT_255_2_778
10
10.8376289
20
0.5170924
11
10.8704289
21
0.5437924
0
LINE
8
DEFAULT_255_2_778
10
10.8704289
20
0.5437924
11
11.0096289
21
0.6144924
0
LINE
8
DEFAULT_255_2_778
10
11.0096289
20
0.6144924
11
11.1967289
21
0.6649924
0
LINE
8
DEFAULT_255_2_778
10
11.1967289
20
0.6649924
11
11.3477289
21
0.6768924
0
LINE
8
DEFAULT_255_2_778
10
11.3477289
20
0.6768924
11
12.6550289
21
0.6768924
0
LINE
8
DEFAULT_255_2_778
10
12.6550289
20
0.6768924
11
12.8299289
21
0.6607924
0
LINE
8
DEFAULT_255_2_778
10
12.8299289
20
0.6607924
11
13.0077289
21
0.6086924
0
LINE
8
DEFAULT_255_2_778
10
13.0077289
20
0.6086924
11
13.1387289
21
0.5395924
0
LINE
8
DEFAULT_255_2_778
10
13.1387289
20
0.5395924
11
13.1652289
21
0.5194924
0
LINE
8
DEFAULT_255_2_778
10
10.8844289
20
3.2190924
11
10.8326289
21
0.2337924
0
LINE
8
DEFAULT_255_2_778
10
10.3831289
20
-0.2100076
11
9.6221289
21
-0.2100076
0
LINE
8
DEFAULT_255_2_778
10
8.7135289
20
1.2454924
11
7.2954289
21
1.2454924
0
LINE
8
DEFAULT_255_2_778
10
12.7109289
20
1.2454924
11
11.2927289
21
1.2454924
0
LINE
8
DEFAULT_255_2_778
10
11.2927289
20
1.2454924
11
11.1705289
21
1.2285924
0
LINE
8
DEFAULT_255_2_778
10
11.1705289
20
1.2285924
11
11.0024289
21
1.1388924
0
LINE
8
DEFAULT_255_2_778
10
11.0024289
20
1.1388924
11
10.8863289
21
0.9875924
0
LINE
8
DEFAULT_255_2_778
10
10.8863289
20
0.9875924
11
10.8429289
21
0.8014924
0
LINE
8
DEFAULT_255_2_778
10
13.1186289
20
3.2190924
11
13.1704289
21
0.2329924
0
LINE
8
DEFAULT_255_2_778
10
13.5506289
20
11.6001924
11
13.7504289
21
11.6036924
0
LINE
8
DEFAULT_255_2_778
10
13.7504289
20
6.2569924
11
13.7105289
21
6.0640924
0
LINE
8
DEFAULT_255_2_778
10
13.7105289
20
6.0640924
11
13.6004289
21
5.9029924
0
LINE
8
DEFAULT_255_2_778
10
13.6004289
20
5.9029924
11
13.4337289
21
5.7941924
0
LINE
8
DEFAULT_255_2_778
10
13.4337289
20
5.7941924
11
13.2551289
21
5.7589924
0
LINE
8
DEFAULT_255_2_778
10
13.2551289
20
5.7589924
11
4.8313289
21
5.6846924
0
LINE
8
DEFAULT_255_2_778
10
4.8313289
20
5.6846924
11
4.8310289
21
5.6846924
0
LINE
8
DEFAULT_255_2_778
10
4.8310289
20
5.6846924
11
4.9250289
21
0.2829924
0
LINE
8
DEFAULT_255_2_778
10
5.4242289
20
-0.2105076
11
6.3865289
21
-0.2105076
0
LINE
8
DEFAULT_255_2_778
10
6.8358289
20
0.2331924
11
6.8876289
21
3.2184924
0
LINE
8
DEFAULT_255_2_778
10
9.1213289
20
3.2184924
11
9.1731289
21
0.2323924
0
LINE
8
DEFAULT_255_2_778
10
15.0810289
20
-0.2105076
11
13.6194289
21
-0.2105076
0
LINE
8
DEFAULT_255_2_778
10
10.0769289
20
10.8138924
11
10.0883289
21
10.8770924
0
LINE
8
DEFAULT_255_2_778
10
10.0883289
20
10.8770924
11
10.1484289
21
10.9887924
0
LINE
8
DEFAULT_255_2_778
10
10.1484289
20
10.9887924
11
10.2494289
21
11.0660924
0
LINE
8
DEFAULT_255_2_778
10
10.2494289
20
11.0660924
11
10.2656289
21
11.0697924
0
LINE
8
DEFAULT_255_2_778
10
9.8735289
20
7.8111924
11
10.0769289
21
10.8135924
0
LINE
8
DEFAULT_255_2_778
10
10.0769289
20
10.8143924
11
10.0769289
21
10.8143924
0
LINE
8
DEFAULT_255_2_778
10
15.7406289
20
9.4835924
11
15.5808289
21
0.2834924
0
LINE
8
DEFAULT_255_2_778
10
13.3509289
20
5.7589924
11
13.3509289
21
7.7812924
0
LINE
8
DEFAULT_255_2_778
10
9.0538289
20
11.0710924
11
9.0538289
21
7.0480924
0
LINE
8
DEFAULT_255_2_778
10
9.0538289
20
7.0480924
11
9.0538289
21
5.7222924
0
LINE
8
DEFAULT_255_2_778
10
4.7567289
20
2.8382924
11
4.7567289
21
10.8503924
0
LINE
8
DEFAULT_255_2_778
10
13.5506289
20
5.8706924
11
13.5506289
21
7.5769924
0
LINE
8
DEFAULT_255_2_778
10
13.5506289
20
7.5769924
11
13.3509289
21
7.7812924
0
LINE
8
DEFAULT_255_2_778
10
13.3509289
20
7.7812924
11
9.8687289
21
7.8116924
0
LINE
8
DEFAULT_255_2_778
10
4.8802289
20
2.8374924
11
4.7562289
21
2.8385924
0
LINE
8
DEFAULT_255_2_778
10
4.7562289
20
2.8385924
11
4.5564289
21
3.0427924
0
LINE
8
DEFAULT_255_2_778
10
4.5564289
20
3.0427924
11
4.5564289
21
7.5772924
0
LINE
8
DEFAULT_255_2_778
10
4.5564289
20
7.5772924
11
4.7562289
21
7.7814924
0
LINE
8
DEFAULT_255_2_778
10
13.8007
20
9.977029
11
13.8007
21
-0.209471
0
ARC
8
DEFAULT_255_2_778
10
5.7061373
20
143.3535919
40
1.0062129
50
72.9273697
51
89.994738
0
ARC
8
DEFAULT_255_2_778
10
5.7062408
20
143.355127
40
1.0046778
50
90.0006343
51
91.2929558
0
ARC
8
DEFAULT_255_2_778
10
5.7061835
20
143.3568191
40
1.002985
50
91.2918622
51
99.5636144
0
ARC
8
DEFAULT_255_2_778
10
5.7067011
20
143.3640562
40
0.9959359
50
99.662153
51
126.5465806
0
ARC
8
DEFAULT_255_2_778
10
5.7132977
20
143.3565747
40
1.0058749
50
126.5946837
51
153.2661464
0
ARC
8
DEFAULT_255_2_778
10
5.7259573
20
143.3536142
40
1.0185177
50
153.4377658
51
179.8171649
0
ARC
8
DEFAULT_255_2_778
10
17.5194944
20
143.3570731
40
0.9767506
50
0.0053497
51
3.0875007
0
ARC
8
DEFAULT_255_2_778
10
17.476398
20
143.3534077
40
1.0199827
50
3.1627137
51
26.5466209
0
ARC
8
DEFAULT_255_2_778
10
17.4912142
20
143.3573816
40
1.0049573
50
26.7214658
51
53.4177332
0
ARC
8
DEFAULT_255_2_778
10
17.495516
20
143.3610181
40
0.9994742
50
53.4915175
51
80.2867284
0
ARC
8
DEFAULT_255_2_778
10
17.4974193
20
143.3529346
40
1.007126
50
80.4710457
51
88.7084885
0
ARC
8
DEFAULT_255_2_778
10
17.4974184
20
143.3526558
40
1.0074049
50
88.708796
51
89.9993753
0
ARC
8
DEFAULT_255_2_778
10
17.497388
20
143.3539899
40
1.0060707
50
89.9976422
51
107.0653033
0
ARC
8
DEFAULT_255_2_778
10
9.3042569
20
139.5511022
40
0.201012
50
135.0301673
51
179.9252684
0
ARC
8
DEFAULT_255_2_778
10
9.3029732
20
139.5543542
40
0.1978105
50
90.0290935
51
135.4338147
0
LINE
8
DEFAULT_255_2_778
10
9.3028727
20
139.7521647
11
9.303245
21
139.7521643
0
LINE
8
DEFAULT_255_2_778
10
13.900145
20
139.7519643
11
13.900519
21
139.7519647
0
ARC
8
DEFAULT_255_2_778
10
13.900528
20
139.553708
40
0.1982567
50
44.7015111
51
90.0026142
0
ARC
8
DEFAULT_255_2_778
10
13.8996502
20
139.5514167
40
0.2004948
50
359.9850419
51
44.9904806
0
ARC
8
DEFAULT_255_2_778
10
13.636118
20
135.7568073
40
0.4640272
50
359.981191
51
0.0564317
0
ARC
8
DEFAULT_255_2_778
10
13.590394
20
135.7445755
40
0.5098944
50
274.5163546
51
1.3574687
0
ARC
8
DEFAULT_255_2_778
10
9.613327
20
135.7446266
40
0.5099243
50
178.6483509
51
265.514227
0
ARC
8
DEFAULT_255_2_778
10
9.567572
20
135.7568073
40
0.4640274
50
179.9435683
51
180.018809
0
ARC
8
DEFAULT_255_2_778
10
11.6015704
20
162.3736661
40
18.9359019
50
258.010115
51
269.9931381
0
LINE
8
DEFAULT_255_2_778
10
11.5993026
20
143.4377645
11
11.6015825
21
143.4377643
0
ARC
8
DEFAULT_255_2_778
10
11.6016318
20
162.3726033
40
18.934839
50
269.9998508
51
281.9902209
0
ARC
8
DEFAULT_255_2_778
10
15.292032
20
143.681766
40
0.3039979
50
34.2059625
51
60.9284571
0
ARC
8
DEFAULT_255_2_778
10
15.2940572
20
143.6791853
40
0.3052844
50
61.4960146
51
89.6644627
0
ARC
8
DEFAULT_255_2_778
10
7.9075775
20
143.685552
40
0.2989125
50
90.0445673
51
145.9392736
0
ARC
8
DEFAULT_255_2_778
10
0.5256859
20
11.2611667
40
0.2671056
50
175.663346
51
179.9422898
0
ARC
8
DEFAULT_255_2_778
10
0.4277574
20
11.256169
40
0.1692589
50
178.216875
51
262.0474617
0
ARC
8
DEFAULT_255_2_778
10
0.536783
20
11.633734
40
0.5610524
50
256.3457826
51
271.0400071
0
ARC
8
DEFAULT_255_2_778
10
0.5454052
20
12.0963888
40
1.023616
50
270.087387
51
273.5231578
0
ARC
8
DEFAULT_255_2_778
10
0.5322356
20
12.3344162
40
1.2620038
50
273.4558483
51
274.8140167
0
ARC
8
DEFAULT_255_2_778
10
20.2470531
20
28.9035153
40
0.2012084
50
180.0999323
51
268.6307267
0
ARC
8
DEFAULT_255_2_778
10
22.0441442
20
28.4704013
40
0.200201
50
359.9035625
51
88.8835681
0
ARC
8
DEFAULT_255_2_778
10
297.6758619
20
69.7034058
40
277.6321171
50
179.9602629
51
180.0020104
0
ARC
8
DEFAULT_255_2_778
10
156.6075527
20
69.8064841
40
136.5637703
50
179.8898185
51
179.9624619
0
ARC
8
DEFAULT_255_2_778
10
79.3670978
20
69.9555329
40
59.3231716
50
179.7952183
51
179.8903139
0
ARC
8
DEFAULT_255_2_778
10
37.7592701
20
70.1131407
40
17.7150485
50
179.5234344
51
179.8239905
0
ARC
8
DEFAULT_255_2_778
10
21.3229011
20
70.2577909
40
1.2780696
50
178.1038123
51
179.8791622
0
ARC
8
DEFAULT_255_2_778
10
20.0660182
20
70.2990953
40
0.0205105
50
173.3672115
51
177.2467155
0
ARC
8
DEFAULT_255_2_778
10
20.2466998
20
70.3012656
40
0.2010549
50
91.3551271
51
179.9433724
0
ARC
8
DEFAULT_255_2_778
10
22.0438437
20
70.7342286
40
0.2002023
50
271.1165802
51
0.1819339
0
ARC
8
DEFAULT_255_2_778
10
21.7435472
20
102.7943131
40
0.5009984
50
273.1348602
51
0.0973524
0
ARC
8
DEFAULT_255_2_778
10
13.9514998
20
101.7459655
40
0.2010549
50
91.3551372
51
179.9433479
0
ARC
8
DEFAULT_255_2_778
10
22.0442568
20
101.7393156
40
0.2002885
50
359.8995288
51
88.8590391
0
ARC
8
DEFAULT_255_2_778
10
13.3503211
20
103.4689096
40
0.199955
50
44.9049381
51
89.9071922
0
ARC
8
DEFAULT_255_2_778
10
13.3492933
20
103.4683876
40
0.2010517
50
359.9648649
51
44.8035339
0
ARC
8
DEFAULT_255_2_778
10
13.3500999
20
11.2705093
40
0.2002459
50
270.1559731
51
0.1588082
0
ARC
8
DEFAULT_255_2_778
10
0.6595902
20
11.2705093
40
0.2002458
50
179.841202
51
269.8440023
0
ARC
8
DEFAULT_255_2_778
10
0.5079348
20
110.189631
40
0.2366693
50
269.9900453
51
270.2687585
0
ARC
8
DEFAULT_255_2_778
10
0.5078938
20
110.1970269
40
0.2440653
50
269.1197807
51
269.9999754
0
ARC
8
DEFAULT_255_2_778
10
0.5081985
20
110.1998245
40
0.2468674
50
224.5743816
51
269.0590432
0
ARC
8
DEFAULT_255_2_778
10
0.509327
20
110.2035353
40
0.2502825
50
179.8788876
51
224.9982101
0
ARC
8
DEFAULT_255_2_778
10
21.9954231
20
133.2301719
40
0.1484935
50
89.9257438
51
90.2230745
0
ARC
8
DEFAULT_255_2_778
10
21.9956273
20
133.133569
40
0.2450965
50
89.0372499
51
90.0027421
0
ARC
8
DEFAULT_255_2_778
10
21.9953539
20
133.1309904
40
0.2476793
50
44.6536738
51
88.9840287
0
ARC
8
DEFAULT_255_2_778
10
21.9945631
20
133.1280934
40
0.2502824
50
359.8788813
51
44.9982286
0
ARC
8
DEFAULT_255_2_778
10
1.5578568
20
103.2965131
40
0.2002885
50
271.1409609
51
0.1004712
0
ARC
8
DEFAULT_255_2_778
10
22.1484905
20
110.2035564
40
0.0960547
50
359.9586627
51
0.1240183
0
ARC
8
DEFAULT_255_2_778
10
21.9930987
20
110.203503
40
0.2514465
50
299.2720199
51
359.9963821
0
ARC
8
DEFAULT_255_2_778
10
21.7435471
20
11.9458155
40
0.5009986
50
359.9026616
51
86.8651255
0
ARC
8
DEFAULT_255_2_778
10
22.0434681
20
13.0629845
40
0.2010769
50
271.3612767
51
359.9657565
0
ARC
8
DEFAULT_255_2_778
10
1.7099619
20
104.4725792
40
0.5013171
50
179.9331214
51
269.8266313
0
ARC
8
DEFAULT_255_2_778
10
1.7099619
20
109.1910495
40
0.5013173
50
90.1733687
51
180.0668786
0
ARC
8
DEFAULT_255_2_778
10
13.7985637
20
109.1909855
40
0.5013814
50
359.9404491
51
89.8192978
0
ARC
8
DEFAULT_255_2_778
10
13.7986683
20
104.4725375
40
0.5012771
50
270.2259381
51
0.0716479
0
ARC
8
DEFAULT_255_2_778
10
20.2470531
20
34.0017153
40
0.2012084
50
180.0999323
51
268.6307267
0
ARC
8
DEFAULT_255_2_778
10
22.0440128
20
33.5685721
40
0.2003328
50
359.8547745
51
88.8467114
0
ARC
8
DEFAULT_255_2_778
10
22.0432228
20
29.944829
40
0.2011224
50
271.373889
51
359.9246163
0
ARC
8
DEFAULT_255_2_778
10
20.246197
20
29.5116506
40
0.2003527
50
91.1302597
51
180.1390667
0
ARC
8
DEFAULT_255_2_778
10
20.2470751
20
69.6916366
40
0.2012303
50
180.0775341
51
268.6245908
0
ARC
8
DEFAULT_255_2_778
10
22.0440128
20
69.2584721
40
0.2003328
50
359.8547745
51
88.8467114
0
ARC
8
DEFAULT_255_2_778
10
22.0432228
20
65.634729
40
0.2011224
50
271.373889
51
359.9246163
0
ARC
8
DEFAULT_255_2_778
10
20.246197
20
65.2015506
40
0.2003527
50
91.1302597
51
180.1390667
0
ARC
8
DEFAULT_255_2_778
10
20.3033068
20
65.183093
40
0.2581093
50
176.0032727
51
180.7601457
0
ARC
8
DEFAULT_255_2_778
10
29.8116238
20
65.0736951
40
9.7669785
50
179.378317
51
179.7979424
0
ARC
8
DEFAULT_255_2_778
10
62.0273202
20
64.924675
40
41.983015
50
179.7496191
51
179.8678514
0
ARC
8
DEFAULT_255_2_778
10
130.5321403
20
64.7638658
40
110.4880238
50
179.8663955
51
179.9476107
0
ARC
8
DEFAULT_255_2_778
10
266.2954152
20
64.6286708
40
246.2513658
50
179.9450379
51
179.9909087
0
ARC
8
DEFAULT_255_2_778
10
385.9158484
20
64.5941266
40
365.8718035
50
179.9884714
51
180.0003386
0
ARC
8
DEFAULT_255_2_778
10
20.2477848
20
64.5948546
40
0.2037603
50
180.8127607
51
268.4983204
0
ARC
8
DEFAULT_255_2_778
10
22.0442128
20
64.1591721
40
0.2003328
50
359.8547745
51
88.8467114
0
ARC
8
DEFAULT_255_2_778
10
22.0444751
20
35.0414993
40
0.2000705
50
271.079684
51
0.1331854
0
ARC
8
DEFAULT_255_2_778
10
20.2463463
20
34.6095
40
0.2002023
50
91.1165802
51
180.1819339
0
LINE
8
DEFAULT_255_2_778
10
4.707445
20
143.3568643
11
4.706645
21
140.4041643
0
LINE
8
DEFAULT_255_2_778
10
4.706645
20
140.4041643
11
4.706645
21
133.4286643
0
LINE
8
DEFAULT_255_2_778
10
18.497345
20
133.4286643
11
18.496245
21
143.3571643
0
LINE
8
DEFAULT_255_2_778
10
9.303245
20
139.7521643
11
13.900145
21
139.7519643
0
LINE
8
DEFAULT_255_2_778
10
14.100145
20
139.5513643
11
14.100145
21
135.7572643
0
LINE
8
DEFAULT_255_2_778
10
13.630545
20
135.2362643
11
13.603045
21
135.2354643
0
LINE
8
DEFAULT_255_2_778
10
13.603045
20
135.2354643
11
9.573445
21
135.2362643
0
LINE
8
DEFAULT_255_2_778
10
9.103545
20
135.7572643
11
9.103245
21
139.5513643
0
LINE
8
DEFAULT_255_2_778
10
7.904445
20
143.9873643
11
7.857845
21
143.9836643
0
LINE
8
DEFAULT_255_2_778
10
7.857845
20
143.9836643
11
7.816345
21
143.9738643
0
LINE
8
DEFAULT_255_2_778
10
7.816345
20
143.9738643
11
7.777945
21
143.9590643
0
LINE
8
DEFAULT_255_2_778
10
7.777945
20
143.9590643
11
7.743345
21
143.9400643
0
LINE
8
DEFAULT_255_2_778
10
7.743345
20
143.9400643
11
7.712645
21
143.9175643
0
LINE
8
DEFAULT_255_2_778
10
7.712645
20
143.9175643
11
7.686145
21
143.8926643
0
LINE
8
DEFAULT_255_2_778
10
7.686145
20
143.8926643
11
7.655945
21
143.8537643
0
LINE
8
DEFAULT_255_2_778
10
15.548545
20
143.8537643
11
15.527345
21
143.8820643
0
LINE
8
DEFAULT_255_2_778
10
15.527345
20
143.8820643
11
15.500645
21
143.9095643
0
LINE
8
DEFAULT_255_2_778
10
15.500645
20
143.9095643
11
15.469645
21
143.9341643
0
LINE
8
DEFAULT_255_2_778
10
15.469645
20
143.9341643
11
15.434445
21
143.9550643
0
LINE
8
DEFAULT_255_2_778
10
15.434445
20
143.9550643
11
15.395345
21
143.9714643
0
LINE
8
DEFAULT_255_2_778
10
15.395345
20
143.9714643
11
15.352745
21
143.9826643
0
LINE
8
DEFAULT_255_2_778
10
15.352745
20
143.9826643
11
15.299845
21
143.9873643
0
LINE
8
DEFAULT_255_2_778
10
7.166245
20
143.9736643
11
7.477945
21
143.8929643
0
LINE
8
DEFAULT_255_2_778
10
7.477945
20
143.8929643
11
7.667845
21
143.8508643
0
LINE
8
DEFAULT_255_2_778
10
15.535245
20
143.8508643
11
15.725245
21
143.8929643
0
LINE
8
DEFAULT_255_2_778
10
15.725245
20
143.8929643
11
16.036945
21
143.9736643
0
LINE
8
DEFAULT_255_2_778
10
15.295845
20
143.9844643
11
7.907345
21
143.9844643
0
LINE
8
DEFAULT_255_2_778
10
16.539345
20
144.1233643
11
16.037445
21
143.9860643
0
LINE
8
DEFAULT_255_2_778
10
7.165945
20
143.9860643
11
6.664045
21
144.1233643
0
LINE
8
DEFAULT_255_2_778
10
6.661645
20
144.1138643
11
5.998145
21
144.3045643
0
LINE
8
DEFAULT_255_2_778
10
17.205345
20
144.3045643
11
16.542045
21
144.1138643
0
LINE
8
DEFAULT_255_2_778
10
20.049045
20
33.9863643
11
20.049045
21
34.6236643
0
LINE
8
DEFAULT_255_2_778
10
0.259345
20
110.1090643
11
0.259345
21
11.2813643
0
LINE
8
DEFAULT_255_2_778
10
22.244345
20
9.9772643
11
13.750145
21
9.9772643
0
LINE
8
DEFAULT_255_2_778
10
13.750145
20
9.9772643
11
13.750145
21
103.9712643
0
LINE
8
DEFAULT_255_2_778
10
5.405945
20
11.9475643
11
5.405945
21
11.2633643
0
LINE
8
DEFAULT_255_2_778
10
0.459345
20
21.6789643
11
13.550345
21
21.6789643
0
LINE
8
DEFAULT_255_2_778
10
0.459345
20
21.8776643
11
13.550345
21
21.8776643
0
LINE
8
DEFAULT_255_2_778
10
20.242245
20
28.7023643
11
22.048045
21
28.6705643
0
LINE
8
DEFAULT_255_2_778
10
22.244345
20
28.4700643
11
22.244345
21
9.9727643
0
LINE
8
DEFAULT_255_2_778
10
20.241945
20
70.5022643
11
22.047745
21
70.5340643
0
LINE
8
DEFAULT_255_2_778
10
22.244045
20
70.7348643
11
22.244045
21
133.0849643
0
LINE
8
DEFAULT_255_2_778
10
17.787445
20
102.0842643
11
21.770945
21
102.2940643
0
LINE
8
DEFAULT_255_2_778
10
13.946745
20
101.9469643
11
17.787645
21
102.0141643
0
LINE
8
DEFAULT_255_2_778
10
17.787645
20
102.0141643
11
22.048245
21
101.9395643
0
LINE
8
DEFAULT_255_2_778
10
22.244545
20
109.9897643
11
13.750445
21
109.8407643
0
LINE
8
DEFAULT_255_2_778
10
0.768045
20
109.9087643
11
0.513345
21
109.9132643
0
LINE
8
DEFAULT_255_2_778
10
0.513345
20
109.9132643
11
0.259545
21
109.9087643
0
LINE
8
DEFAULT_255_2_778
10
5.405945
20
102.8367643
11
5.405945
21
103.4404643
0
LINE
8
DEFAULT_255_2_778
10
5.405945
20
103.4404643
11
1.758445
21
103.4404643
0
LINE
8
DEFAULT_255_2_778
10
0.459345
20
62.4681643
11
13.550345
21
62.4681643
0
LINE
8
DEFAULT_255_2_778
10
0.459345
20
62.6668643
11
13.550345
21
62.6668643
0
LINE
8
DEFAULT_255_2_778
10
1.758445
20
103.6688643
11
13.350645
21
103.6688643
0
LINE
8
DEFAULT_255_2_778
10
13.550345
20
103.4682643
11
13.550345
21
11.2710643
0
LINE
8
DEFAULT_255_2_778
10
13.350645
20
11.0702643
11
0.659045
21
11.0702643
0
LINE
8
DEFAULT_255_2_778
10
0.459345
20
11.2710643
11
0.459345
21
103.0777643
0
LINE
8
DEFAULT_255_2_778
10
20.297545
20
109.9550643
11
0.509045
21
109.9529643
0
LINE
8
DEFAULT_255_2_778
10
0.259045
20
110.2040643
11
0.259345
21
133.3860643
0
LINE
8
DEFAULT_255_2_778
10
0.244745
20
133.3786643
11
21.994845
21
133.3786643
0
LINE
8
DEFAULT_255_2_778
10
0.683145
20
109.9508643
11
1.413445
21
109.5841643
0
LINE
8
DEFAULT_255_2_778
10
1.758145
20
109.9529643
11
1.758145
21
109.6920643
0
LINE
8
DEFAULT_255_2_778
10
0.259345
20
103.0822643
11
0.513045
21
103.0777643
0
LINE
8
DEFAULT_255_2_778
10
0.513045
20
103.0777643
11
1.561845
21
103.0962643
0
LINE
8
DEFAULT_255_2_778
10
1.758145
20
103.2968643
11
1.758145
21
103.9712643
0
LINE
8
DEFAULT_255_2_778
10
13.750145
20
109.6920643
11
13.750145
21
109.9550643
0
LINE
8
DEFAULT_255_2_778
10
0.511945
20
103.0777643
11
0.513045
21
109.7119643
0
LINE
8
DEFAULT_255_2_778
10
0.513045
20
109.7119643
11
0.513045
21
109.9495643
0
LINE
8
DEFAULT_255_2_778
10
17.787445
20
12.6558643
11
21.770945
21
12.4460643
0
LINE
8
DEFAULT_255_2_778
10
22.048245
20
12.8619643
11
17.787645
21
12.7873643
0
LINE
8
DEFAULT_255_2_778
10
13.800145
20
103.9712643
11
1.708445
21
103.9712643
0
LINE
8
DEFAULT_255_2_778
10
1.208645
20
104.4731643
11
1.208645
21
109.1904643
0
LINE
8
DEFAULT_255_2_778
10
1.708445
20
109.6923643
11
13.800145
21
109.6923643
0
LINE
8
DEFAULT_255_2_778
10
14.299945
20
109.1904643
11
14.299945
21
104.4731643
0
LINE
8
DEFAULT_255_2_778
10
13.800645
20
103.9712643
11
13.800145
21
103.9712643
0
LINE
8
DEFAULT_255_2_778
10
20.045845
20
28.8936643
11
20.045845
21
29.5309643
0
LINE
8
DEFAULT_255_2_778
10
20.242245
20
33.8005643
11
22.048045
21
33.7688643
0
LINE
8
DEFAULT_255_2_778
10
22.244345
20
33.5680643
11
22.244345
21
29.9445643
0
LINE
8
DEFAULT_255_2_778
10
22.048045
20
29.7437643
11
20.242245
21
29.7119643
0
LINE
8
DEFAULT_255_2_778
10
20.242245
20
69.4904643
11
22.048045
21
69.4587643
0
LINE
8
DEFAULT_255_2_778
10
22.244345
20
69.2579643
11
22.244345
21
65.6344643
0
LINE
8
DEFAULT_255_2_778
10
22.048045
20
65.4336643
11
20.242245
21
65.4018643
0
LINE
8
DEFAULT_255_2_778
10
20.242445
20
64.3911643
11
22.048245
21
64.3594643
0
LINE
8
DEFAULT_255_2_778
10
22.244545
20
64.1586643
11
22.244545
21
35.0419643
0
LINE
8
DEFAULT_255_2_778
10
22.048245
20
34.8414643
11
20.242445
21
34.8096643
0
ENDSEC
0
EOF