0
SECTION
2
HEADER
9
$MEASUREMENT
70
1
0
ENDSEC
0
SECTION
2
TABLES
0
TABLE
2
LTYPE
0
LTYPE
72
65
70
64
2
CONTINUOUS
3
______
73
0
40
0
0
LTYPE
72
65
70
64
2
DASH_DEFAULT_255_2_778_1
3
______
73
1
40
1
49
-0.5292
0
ENDTAB
0
TABLE
2
LAYER
0
LAYER
2
DEFAULT_255_2_778
70
0
62
255
6
CONTINUOUS
0
LAYER
2
DEFAULT_255_1_388
70
0
62
255
6
CONTINUOUS
0
LAYER
2
DEFAULT_255_2_778_1
70
0
62
255
6
DASH_DEFAULT_255_2_778_1
0
ENDTAB
0
ENDSEC
0
SECTION
2
ENTITIES
0
ARC
8
DEFAULT_255_2_778
10
3.5700693
20
107.5552026
40
0.7914215
50
129.1312896
51
180.1450914
0
ARC
8
DEFAULT_255_2_778
10
3.5703345
20
107.5556897
40
0.7912112
50
89.854026
51
129.1684493
0
ARC
8
DEFAULT_255_2_778
10
25.7993937
20
107.5553762
40
0.7915249
50
39.4792447
51
90.147911
0
ARC
8
DEFAULT_255_2_778
10
25.7999935
20
107.5552229
40
0.7911595
50
359.8533901
51
39.5154338
0
ARC
8
DEFAULT_255_2_778
10
25.7996693
20
-1.9863497
40
0.7914836
50
309.4761667
51
0.1482649
0
ARC
8
DEFAULT_255_2_778
10
25.799398
20
-1.9867808
40
0.7913235
50
269.8517415
51
309.511178
0
ARC
8
DEFAULT_255_2_778
10
3.570342
20
-1.9867226
40
0.7913815
50
219.1282118
51
270.1454017
0
ARC
8
DEFAULT_255_2_778
10
3.5700247
20
-1.9863401
40
0.7913769
50
179.8524075
51
219.1641908
0
LINE
8
DEFAULT_255_2_778
10
3.5723503
20
108.3468985
11
25.7973503
21
108.3468985
0
LINE
8
DEFAULT_255_2_778
10
26.5911503
20
107.5531985
11
26.5911503
21
-1.9843015
0
LINE
8
DEFAULT_255_2_778
10
25.7973503
20
-2.7781015
11
3.5723503
21
-2.7781015
0
LINE
8
DEFAULT_255_2_778
10
2.7786503
20
-1.9843015
11
2.7786503
21
107.5531985
0
LINE
8
DEFAULT_255_1_388
10
10.2510618
20
-0.0145334
11
10.1173343
21
0.0198021
0
LINE
8
DEFAULT_255_1_388
10
10.1173343
20
0.0198021
11
10.184198
21
0.6757898
0
LINE
8
DEFAULT_255_1_388
10
10.184198
20
0.6757898
11
10.8582571
21
0.6757898
0
LINE
8
DEFAULT_255_1_388
10
10.8582571
20
0.6757898
11
10.8582571
21
0.5212803
0
LINE
8
DEFAULT_255_1_388
10
10.8582571
20
0.5212803
11
10.3260577
21
0.5212803
0
LINE
8
DEFAULT_255_1_388
10
10.3260577
20
0.5212803
11
10.2863008
21
0.1625652
0
LINE
8
DEFAULT_255_1_388
10
10.0703489
20
-0.2937348
11
10.2284727
21
-0.2937348
0
LINE
8
DEFAULT_255_1_388
10
10.2953365
20
0.0216092
11
10.2510618
21
-0.0145334
0
ARC
8
DEFAULT_255_1_388
10
10.4949622
20
-0.1951759
40
0.4141476
50
93.7181681
51
120.253934
0
ARC
8
DEFAULT_255_1_388
10
10.5055674
20
-0.2860716
40
0.5055616
50
89.9660471
51
94.2495185
0
ARC
8
DEFAULT_255_1_388
10
10.5101496
20
-0.2197846
40
0.4392953
50
73.8045384
51
90.5585736
0
ARC
8
DEFAULT_255_1_388
10
10.5365754
20
-0.123248
40
0.3392225
50
41.3071072
51
73.543002
0
ARC
8
DEFAULT_255_1_388
10
10.4897574
20
-0.1635539
40
0.4009977
50
13.5075837
51
41.2174839
0
ARC
8
DEFAULT_255_1_388
10
10.3050671
20
-0.2119093
40
0.5918864
50
1.1330171
51
13.8830737
0
ARC
8
DEFAULT_255_1_388
10
10.1454317
20
-0.2204478
40
0.7516787
50
359.9925091
51
1.5431298
0
ARC
8
DEFAULT_255_1_388
10
10.2898932
20
-0.2250973
40
0.6072343
50
347.8572712
51
0.4294349
0
ARC
8
DEFAULT_255_1_388
10
10.4868066
20
-0.2697102
40
0.4053482
50
323.6727442
51
348.1674594
0
ARC
8
DEFAULT_255_1_388
10
10.5199031
20
-0.2898825
40
0.3667495
50
316.8171818
51
323.1486802
0
ARC
8
DEFAULT_255_1_388
10
10.5268155
20
-0.2940388
40
0.358869
50
281.839603
51
316.5458142
0
ARC
8
DEFAULT_255_1_388
10
10.4845442
20
-0.1190637
40
0.5388223
50
269.5770964
51
282.4214641
0
ARC
8
DEFAULT_255_1_388
10
10.4765363
20
-0.143107
40
0.5147801
50
256.2425863
51
270.4486481
0
ARC
8
DEFAULT_255_1_388
10
10.4428891
20
-0.2780876
40
0.3756708
50
228.9024379
51
256.33135
0
ARC
8
DEFAULT_255_1_388
10
10.4345871
20
-0.2911946
40
0.360344
50
193.7536029
51
228.5272638
0
ARC
8
DEFAULT_255_1_388
10
10.5738436
20
-0.2503537
40
0.5053599
50
184.9244437
51
194.4976052
0
ARC
8
DEFAULT_255_1_388
10
10.5955077
20
-0.2463278
40
0.3700839
50
187.3596909
51
198.6733728
0
ARC
8
DEFAULT_255_1_388
10
10.4774321
20
-0.2872627
40
0.2451195
50
198.4453795
51
217.7945479
0
ARC
8
DEFAULT_255_1_388
10
10.4441493
20
-0.3108437
40
0.2043754
50
218.2887146
51
228.5613203
0
ARC
8
DEFAULT_255_1_388
10
10.45515
20
-0.2960098
40
0.2227819
50
228.9652423
51
258.1237049
0
ARC
8
DEFAULT_255_1_388
10
10.4782937
20
-0.1969036
40
0.3245374
50
257.7260585
51
270.4013717
0
ARC
8
DEFAULT_255_1_388
10
10.4833435
20
-0.2469745
40
0.2744726
50
269.4204315
51
286.420998
0
ARC
8
DEFAULT_255_1_388
10
10.5000491
20
-0.3076295
40
0.2115721
50
286.7250065
51
320.6004665
0
ARC
8
DEFAULT_255_1_388
10
10.4569407
20
-0.2726473
40
0.2670878
50
320.6712228
51
344.5440474
0
ARC
8
DEFAULT_255_1_388
10
10.326812
20
-0.2344606
40
0.4026927
50
344.241448
51
356.735803
0
ARC
8
DEFAULT_255_1_388
10
10.1864428
20
-0.2228344
40
0.5435085
50
356.3547471
51
0.0507222
0
ARC
8
DEFAULT_255_1_388
10
10.3366693
20
-0.2193188
40
0.3932934
50
359.5579289
51
12.9534322
0
ARC
8
DEFAULT_255_1_388
10
10.4553533
20
-0.1905414
40
0.2711827
50
12.6489751
51
41.608121
0
ARC
8
DEFAULT_255_1_388
10
10.4812693
20
-0.1685054
40
0.2371737
50
41.7851122
51
85.9892156
0
ARC
8
DEFAULT_255_1_388
10
10.4674003
20
-0.2600262
40
0.3295244
50
84.6965848
51
90.0672125
0
ARC
8
DEFAULT_255_1_388
10
10.464757
20
-0.3351882
40
0.4046926
50
89.6804991
51
99.161352
0
ARC
8
DEFAULT_255_1_388
10
10.4416579
20
-0.1971152
40
0.2647044
50
98.9836248
51
113.8905702
0
ARC
8
DEFAULT_255_1_388
10
10.4158254
20
-0.1361882
40
0.1985386
50
114.195234
51
127.3641866
0
LINE
8
DEFAULT_255_1_388
10
11.9045848
20
0.138169
11
11.9045848
21
-0.0786865
0
LINE
8
DEFAULT_255_1_388
10
11.074209
20
-0.1012756
11
11.074209
21
0.1219048
0
LINE
8
DEFAULT_255_1_388
10
11.7374253
20
-0.1238647
11
11.7374253
21
0.1499153
0
LINE
8
DEFAULT_255_1_388
10
11.2413685
20
0.1625652
11
11.2413685
21
-0.1048898
0
ARC
8
DEFAULT_255_1_388
10
10.5268182
20
-0.0841882
40
1.3777776
50
353.8440855
51
0.2287917
0
ARC
8
DEFAULT_255_1_388
10
11.0487199
20
-0.1424586
40
0.852639
50
344.4934746
51
353.9763743
0
ARC
8
DEFAULT_255_1_388
10
11.3854006
20
-0.2381809
40
0.5026273
50
329.2803599
51
344.7473406
0
ARC
8
DEFAULT_255_1_388
10
11.4969502
20
-0.2993962
40
0.3754848
50
324.9361395
51
328.6153007
0
ARC
8
DEFAULT_255_1_388
10
11.5395152
20
-0.3291414
40
0.3235566
50
280.5801797
51
324.9173226
0
ARC
8
DEFAULT_255_1_388
10
11.494378
20
-0.1411764
40
0.5167077
50
269.5979457
51
281.6732777
0
ARC
8
DEFAULT_255_1_388
10
11.4862684
20
-0.1546887
40
0.5032026
50
256.6228565
51
270.5105488
0
ARC
8
DEFAULT_255_1_388
10
11.4410427
20
-0.3288655
40
0.3233092
50
215.8618351
51
257.2787793
0
ARC
8
DEFAULT_255_1_388
10
11.5559134
20
-0.2517894
40
0.4615831
50
197.9695203
51
215.2622745
0
ARC
8
DEFAULT_255_1_388
10
11.8354809
20
-0.1574359
40
0.7566307
50
187.8816486
51
198.2346584
0
ARC
8
DEFAULT_255_1_388
10
12.2808048
20
-0.0931547
40
1.2065653
50
180.8977266
51
188.0054894
0
ARC
8
DEFAULT_255_1_388
10
12.5858261
20
-0.08166
40
1.5117443
50
180.7434591
51
181.152202
0
ARC
8
DEFAULT_255_1_388
10
12.4183257
20
0.1273371
40
1.3441277
50
173.7674302
51
180.2315596
0
ARC
8
DEFAULT_255_1_388
10
11.9101126
20
0.1847779
40
0.8326847
50
164.3058537
51
173.9000553
0
ARC
8
DEFAULT_255_1_388
10
11.5825126
20
0.2791652
40
0.4917711
50
148.7922028
51
164.5682288
0
ARC
8
DEFAULT_255_1_388
10
11.4755864
20
0.3388457
40
0.3694204
50
144.5883979
51
148.1161588
0
ARC
8
DEFAULT_255_1_388
10
11.4368609
20
0.3658667
40
0.322202
50
101.6440149
51
144.5142619
0
ARC
8
DEFAULT_255_1_388
10
11.4846801
20
0.1758337
40
0.5180451
50
89.528284
51
102.5820197
0
ARC
8
DEFAULT_255_1_388
10
11.4935793
20
0.1714376
40
0.5224441
50
77.0437914
51
90.508231
0
ARC
8
DEFAULT_255_1_388
10
11.5388047
20
0.3562272
40
0.3322297
50
48.2777708
51
77.4996087
0
ARC
8
DEFAULT_255_1_388
10
11.5469787
20
0.3707557
40
0.315966
50
36.3141586
51
47.6307332
0
ARC
8
DEFAULT_255_1_388
10
11.4492509
20
0.3049159
40
0.4337313
50
18.2931065
51
35.6770203
0
ARC
8
DEFAULT_255_1_388
10
11.163135
20
0.2067107
40
0.7362203
50
8.0246996
51
18.5605636
0
ARC
8
DEFAULT_255_1_388
10
10.6947705
20
0.1375432
40
1.2096583
50
1.127539
51
8.1718423
0
ARC
8
DEFAULT_255_1_388
10
10.3298839
20
0.1232374
40
1.5747719
50
0.5432713
51
1.38669
0
ARC
8
DEFAULT_255_1_388
10
10.5356217
20
0.1539163
40
1.2018103
50
359.8092569
51
4.9408001
0
ARC
8
DEFAULT_255_1_388
10
11.0092799
20
0.19619
40
0.7262727
50
4.8364937
51
12.2906017
0
ARC
8
DEFAULT_255_1_388
10
11.3192263
20
0.2652485
40
0.4087324
50
12.0806994
51
23.8171225
0
ARC
8
DEFAULT_255_1_388
10
11.4512659
20
0.3211508
40
0.2653719
50
24.2874621
51
31.3934353
0
ARC
8
DEFAULT_255_1_388
10
11.5103095
20
0.3597822
40
0.1948607
50
30.7407708
51
82.4658033
0
ARC
8
DEFAULT_255_1_388
10
11.4900756
20
0.2604017
40
0.2961198
50
81.1057101
51
90.2187368
0
ARC
8
DEFAULT_255_1_388
10
11.4860568
20
0.2894421
40
0.2670929
50
89.380395
51
105.6763916
0
ARC
8
DEFAULT_255_1_388
10
11.465429
20
0.364432
40
0.1893189
50
105.7980655
51
149.7387869
0
ARC
8
DEFAULT_255_1_388
10
11.585143
20
0.2924719
40
0.3289892
50
149.4208441
51
163.628295
0
ARC
8
DEFAULT_255_1_388
10
11.820366
20
0.2207345
40
0.5749004
50
163.3764549
51
172.141138
0
ARC
8
DEFAULT_255_1_388
10
12.1916381
20
0.1675582
40
0.9499585
50
172.0258462
51
178.0705453
0
ARC
8
DEFAULT_255_1_388
10
12.5337934
20
0.1513682
40
1.2924734
50
177.8639301
51
179.5036263
0
ARC
8
DEFAULT_255_1_388
10
12.4118953
20
-0.1089849
40
1.170534
50
179.7995545
51
185.246089
0
ARC
8
DEFAULT_255_1_388
10
11.9570546
20
-0.1520596
40
0.7136613
50
185.1411911
51
193.0082205
0
ARC
8
DEFAULT_255_1_388
10
11.6596806
20
-0.2223559
40
0.4080987
50
192.7897338
51
205.2507384
0
ARC
8
DEFAULT_255_1_388
10
11.5419016
20
-0.2749462
40
0.2791522
50
205.8001921
51
211.2545876
0
ARC
8
DEFAULT_255_1_388
10
11.4830555
20
-0.3143868
40
0.2084074
50
210.3789935
51
238.4007996
0
ARC
8
DEFAULT_255_1_388
10
11.4808641
20
-0.3091214
40
0.2117943
50
239.6521916
51
265.9793852
0
ARC
8
DEFAULT_255_1_388
10
11.490449
20
-0.2334642
40
0.2879689
50
265.1324455
51
270.0603288
0
ARC
8
DEFAULT_255_1_388
10
11.4936867
20
-0.2699582
40
0.2514919
50
269.3314378
51
287.2180039
0
ARC
8
DEFAULT_255_1_388
10
11.509195
20
-0.3265709
40
0.1928357
50
287.7957942
51
329.0808983
0
ARC
8
DEFAULT_255_1_388
10
11.4014707
20
-0.2593349
40
0.319808
50
328.6635261
51
343.3325043
0
ARC
8
DEFAULT_255_1_388
10
11.1570165
20
-0.1831805
40
0.5758408
50
343.0498092
51
351.9392499
0
ARC
8
DEFAULT_255_1_388
10
10.7669487
20
-0.1256795
40
0.9701202
50
351.8071632
51
357.7957897
0
ARC
8
DEFAULT_255_1_388
10
10.4034964
20
-0.1068276
40
1.3340376
50
357.5870923
51
359.2682493
0
LINE
8
DEFAULT_255_1_388
10
12.7448997
20
0.6766934
11
12.7747173
21
0.6766934
0
LINE
8
DEFAULT_255_1_388
10
12.7747173
20
0.6766934
11
12.7747173
21
0.5348338
0
LINE
8
DEFAULT_255_1_388
10
12.7747173
20
0.5348338
11
12.7439961
21
0.5348338
0
LINE
8
DEFAULT_255_1_388
10
12.1286688
20
-0.1392253
11
12.1286688
21
-0.0750722
0
LINE
8
DEFAULT_255_1_388
10
12.2967317
20
-0.0967578
11
12.2967317
21
-0.1582001
0
ARC
8
DEFAULT_255_1_388
10
12.7498853
20
-0.0274174
40
0.562282
50
90.6001079
51
104.5146616
0
ARC
8
DEFAULT_255_1_388
10
12.7061812
20
0.13511
40
0.3939917
50
104.2855758
51
133.8630124
0
ARC
8
DEFAULT_255_1_388
10
12.7246065
20
0.1229243
40
0.4155734
50
134.5304124
51
161.6210222
0
ARC
8
DEFAULT_255_1_388
10
12.9105997
20
0.0573421
40
0.6127682
50
161.2850533
51
174.2074364
0
ARC
8
DEFAULT_255_1_388
10
13.0695564
20
0.0354437
40
0.7731446
50
173.7817938
51
174.9251711
0
ARC
8
DEFAULT_255_1_388
10
12.5569758
20
-0.120073
40
0.3412588
50
95.8332067
51
138.995412
0
ARC
8
DEFAULT_255_1_388
10
12.5821038
20
-0.2639305
40
0.4870358
50
89.8755506
51
97.0540979
0
ARC
8
DEFAULT_255_1_388
10
12.5874427
20
-0.1699159
40
0.3930432
50
71.6407016
51
90.6240821
0
ARC
8
DEFAULT_255_1_388
10
12.6043821
20
-0.1075567
40
0.3285421
50
39.6368051
51
71.0190743
0
ARC
8
DEFAULT_255_1_388
10
12.5327728
20
-0.1694414
40
0.4231706
50
10.6588054
51
39.9044509
0
ARC
8
DEFAULT_255_1_388
10
12.3586274
20
-0.2072777
40
0.60133
50
359.6827842
51
11.1326896
0
ARC
8
DEFAULT_255_1_388
10
12.354161
20
-0.2152285
40
0.6058047
50
347.2485908
51
0.4371098
0
ARC
8
DEFAULT_255_1_388
10
12.5417395
20
-0.2603621
40
0.4128987
50
318.1408565
51
347.6118497
0
ARC
8
DEFAULT_255_1_388
10
12.5782992
20
-0.2904097
40
0.3656244
50
275.6342406
51
317.824739
0
ARC
8
DEFAULT_255_1_388
10
12.5534513
20
-0.1442173
40
0.513655
50
269.8872513
51
276.7916069
0
ARC
8
DEFAULT_255_1_388
10
12.5472705
20
-0.2595819
40
0.398323
50
246.9139443
51
270.7436787
0
ARC
8
DEFAULT_255_1_388
10
12.5479901
20
-0.2755956
40
0.3839368
50
218.1665534
51
245.8780431
0
ARC
8
DEFAULT_255_1_388
10
12.6469273
20
-0.1928097
40
0.5128958
50
191.4115343
51
218.6077624
0
ARC
8
DEFAULT_255_1_388
10
12.864959
20
-0.1439223
40
0.7363054
50
179.6344971
51
191.7836758
0
ARC
8
DEFAULT_255_1_388
10
13.4929464
20
-0.0675505
40
1.3642984
50
171.4523743
51
180.3158856
0
ARC
8
DEFAULT_255_1_388
10
12.9985191
20
0.0093895
40
0.8639311
50
157.9802296
51
171.6246761
0
ARC
8
DEFAULT_255_1_388
10
12.7494542
20
0.1087038
40
0.5958004
50
141.4299236
51
157.8541251
0
ARC
8
DEFAULT_255_1_388
10
12.6772625
20
0.1597746
40
0.5075416
50
102.871586
51
140.8564533
0
ARC
8
DEFAULT_255_1_388
10
12.7501178
20
-0.1147057
40
0.7914163
50
90.377773
51
103.5868422
0
ARC
8
DEFAULT_255_1_388
10
12.5545699
20
-0.1827457
40
0.2667015
50
89.8751238
51
126.2072139
0
ARC
8
DEFAULT_255_1_388
10
12.559717
20
-0.2001153
40
0.2838229
50
124.9742447
51
144.8960197
0
ARC
8
DEFAULT_255_1_388
10
12.5399415
20
-0.1840019
40
0.2583845
50
145.2974778
51
160.2660922
0
ARC
8
DEFAULT_255_1_388
10
12.8855903
20
-0.1617849
40
0.5888695
50
179.6512124
51
190.285571
0
ARC
8
DEFAULT_255_1_388
10
12.6950383
20
-0.1977032
40
0.3949683
50
190.0944895
51
207.5099647
0
ARC
8
DEFAULT_255_1_388
10
12.6313965
20
-0.2279823
40
0.3245464
50
207.9585471
51
216.325377
0
ARC
8
DEFAULT_255_1_388
10
12.5931602
20
-0.2594288
40
0.2751259
50
215.7661336
51
232.5457193
0
ARC
8
DEFAULT_255_1_388
10
12.5500718
20
-0.3141727
40
0.2054668
50
232.8005815
51
270.6605497
0
ARC
8
DEFAULT_255_1_388
10
12.5552142
20
-0.2732147
40
0.2464268
50
269.3550767
51
288.474612
0
ARC
8
DEFAULT_255_1_388
10
12.5656649
20
-0.3125279
40
0.2058436
50
289.1831976
51
322.9685307
0
ARC
8
DEFAULT_255_1_388
10
12.4968751
20
-0.2582721
40
0.2934408
50
322.6007085
51
346.5183319
0
ARC
8
DEFAULT_255_1_388
10
12.3666507
20
-0.2250566
40
0.4278249
50
346.2584622
51
358.7739592
0
ARC
8
DEFAULT_255_1_388
10
12.2515082
20
-0.2188171
40
0.5430876
50
358.3757628
51
0.0082477
0
ARC
8
DEFAULT_255_1_388
10
12.33719
20
-0.2157144
40
0.4574157
50
359.6211417
51
11.28403
0
ARC
8
DEFAULT_255_1_388
10
12.4808507
20
-0.1857465
40
0.3106708
50
11.0483152
51
31.8145585
0
ARC
8
DEFAULT_255_1_388
10
12.5156212
20
-0.1668955
40
0.2711963
50
32.3028554
51
38.0820598
0
ARC
8
DEFAULT_255_1_388
10
12.5629445
20
-0.1240283
40
0.2075566
50
36.8249851
51
85.741667
0
ARC
8
DEFAULT_255_1_388
10
12.5553857
20
-0.1803935
40
0.2643487
50
85.0150021
51
90.050843
0
LINE
8
DEFAULT_255_1_388
10
13.9665188
20
0.1499153
11
13.9665188
21
0.1011229
0
LINE
8
DEFAULT_255_1_388
10
13.3566128
20
-0.6407036
11
13.3240845
21
-0.6407036
0
LINE
8
DEFAULT_255_1_388
10
13.3240845
20
-0.6407036
11
13.3240845
21
-0.4997475
0
LINE
8
DEFAULT_255_1_388
10
13.3240845
20
-0.4997475
11
13.3593235
21
-0.4997475
0
LINE
8
DEFAULT_255_1_388
10
13.7993594
20
0.117387
11
13.7993594
21
0.1842508
0
ARC
8
DEFAULT_255_1_388
10
13.4850686
20
0.2012877
40
0.4089973
50
297.4036461
51
320.0168133
0
ARC
8
DEFAULT_255_1_388
10
13.5176866
20
0.1386072
40
0.3383378
50
270.2631886
51
297.3852322
0
ARC
8
DEFAULT_255_1_388
10
13.5138542
20
0.1923343
40
0.3920983
50
269.9969069
51
270.7871389
0
ARC
8
DEFAULT_255_1_388
10
13.5109866
20
0.1905737
40
0.3903482
50
254.5997295
51
270.4178147
0
ARC
8
DEFAULT_255_1_388
10
13.4949397
20
0.1270693
40
0.3248657
50
236.4717231
51
254.3539376
0
ARC
8
DEFAULT_255_1_388
10
13.5125129
20
0.1506999
40
0.3542746
50
208.4727261
51
236.2134628
0
ARC
8
DEFAULT_255_1_388
10
13.5843892
20
0.1946676
40
0.4384402
50
204.3450776
51
209.0455365
0
ARC
8
DEFAULT_255_1_388
10
13.6608268
20
0.22708
40
0.5214459
50
183.9375459
51
204.1275509
0
ARC
8
DEFAULT_255_1_388
10
13.7630574
20
0.2380863
40
0.6242037
50
179.9652726
51
184.3010611
0
ARC
8
DEFAULT_255_1_388
10
13.736012
20
0.2418004
40
0.5971675
50
166.7585952
51
180.3200491
0
ARC
8
DEFAULT_255_1_388
10
13.6407928
20
0.2624979
40
0.4997418
50
154.6954866
51
166.5679151
0
ARC
8
DEFAULT_255_1_388
10
13.5448168
20
0.3108411
40
0.3923208
50
136.3325251
51
155.0871367
0
ARC
8
DEFAULT_255_1_388
10
13.5132087
20
0.3379271
40
0.3507618
50
121.2365985
51
135.9680081
0
ARC
8
DEFAULT_255_1_388
10
13.5290152
20
0.3086541
40
0.3839917
50
96.8454764
51
120.9881329
0
ARC
8
DEFAULT_255_1_388
10
13.5453958
20
0.2033942
40
0.4904679
50
89.887204
51
97.2797758
0
ARC
8
DEFAULT_255_1_388
10
13.5512931
20
0.2751652
40
0.418725
50
70.6505767
51
90.6748382
0
ARC
8
DEFAULT_255_1_388
10
13.5660628
20
0.3329091
40
0.3593866
50
36.7493297
51
69.8220487
0
ARC
8
DEFAULT_255_1_388
10
13.4536975
20
0.2453446
40
0.5018201
50
15.3958155
51
37.0841102
0
ARC
8
DEFAULT_255_1_388
10
13.214126
20
0.1755111
40
0.7513436
50
3.9487796
51
15.6798517
0
ARC
8
DEFAULT_255_1_388
10
12.9439902
20
0.151181
40
1.0225293
50
359.9290791
51
4.266464
0
ARC
8
DEFAULT_255_1_388
10
12.4258819
20
0.0936372
40
1.5406551
50
352.8365702
51
0.2783851
0
ARC
8
DEFAULT_255_1_388
10
13.020705
20
0.0163664
40
0.9408425
50
341.8359339
51
352.9884057
0
ARC
8
DEFAULT_255_1_388
10
13.3828037
20
-0.1056856
40
0.5587481
50
322.8579243
51
342.1527461
0
ARC
8
DEFAULT_255_1_388
10
13.4799729
20
-0.171965
40
0.4413099
50
319.3348471
51
322.100194
0
ARC
8
DEFAULT_255_1_388
10
13.445166
20
-0.1370186
40
0.4904992
50
285.954114
51
318.8878716
0
ARC
8
DEFAULT_255_1_388
10
13.3634098
20
0.1228865
40
0.7628991
50
272.9280841
51
286.4924389
0
ARC
8
DEFAULT_255_1_388
10
13.3420402
20
0.376324
40
1.017132
50
270.8209173
51
273.4010121
0
ARC
8
DEFAULT_255_1_388
10
13.3520425
20
0.1715073
40
0.6712943
50
270.6214576
51
281.4062333
0
ARC
8
DEFAULT_255_1_388
10
13.4004149
20
-0.059775
40
0.4350167
50
281.1852583
51
299.0622058
0
ARC
8
DEFAULT_255_1_388
10
13.4424394
20
-0.1408862
40
0.3437146
50
299.5068171
51
313.1200142
0
ARC
8
DEFAULT_255_1_388
10
13.4449132
20
-0.1498041
40
0.3355418
50
313.8525725
51
338.5989631
0
ARC
8
DEFAULT_255_1_388
10
13.262226
20
-0.0747424
40
0.5330317
50
338.2523315
51
351.2431701
0
ARC
8
DEFAULT_255_1_388
10
12.9910011
20
-0.0286506
40
0.8081235
50
350.940933
51
357.6690137
0
ARC
8
DEFAULT_255_1_388
10
13.5411891
20
0.1966048
40
0.2581236
50
269.9447107
51
306.8249644
0
ARC
8
DEFAULT_255_1_388
10
13.5145193
20
0.244206
40
0.3122948
50
305.5071046
51
327.0773808
0
ARC
8
DEFAULT_255_1_388
10
13.5278244
20
0.2335445
40
0.2953369
50
327.4106457
51
336.8396801
0
ARC
8
DEFAULT_255_1_388
10
13.1797958
20
0.1878932
40
0.6195743
50
359.663158
51
10.1176387
0
ARC
8
DEFAULT_255_1_388
10
13.3770721
20
0.2243922
40
0.4189561
50
9.9431549
51
26.7699242
0
ARC
8
DEFAULT_255_1_388
10
13.4442707
20
0.2553796
40
0.3450125
50
27.2018067
51
34.6833639
0
ARC
8
DEFAULT_255_1_388
10
13.499332
20
0.296756
40
0.2762035
50
34.124913
51
50.30709
0
ARC
8
DEFAULT_255_1_388
10
13.5495803
20
0.3568741
40
0.1978518
50
50.3850304
51
90.6705051
0
ARC
8
DEFAULT_255_1_388
10
13.5443196
20
0.3226074
40
0.2321235
50
89.2729817
51
111.9140267
0
ARC
8
DEFAULT_255_1_388
10
13.5421284
20
0.3384308
40
0.2166604
50
112.9381864
51
142.5320936
0
ARC
8
DEFAULT_255_1_388
10
13.6035773
20
0.2885392
40
0.2957902
50
142.1024021
51
166.3835244
0
ARC
8
DEFAULT_255_1_388
10
13.7364743
20
0.2542213
40
0.4330361
50
166.1100968
51
178.6653563
0
ARC
8
DEFAULT_255_1_388
10
13.8546668
20
0.2476061
40
0.5513642
50
178.2641888
51
180.010994
0
ARC
8
DEFAULT_255_1_388
10
13.764117
20
0.2444136
40
0.4608248
50
179.6162225
51
191.8786013
0
ARC
8
DEFAULT_255_1_388
10
13.626848
20
0.214059
40
0.3202502
50
191.6192934
51
215.2970746
0
ARC
8
DEFAULT_255_1_388
10
13.6029135
20
0.1997963
40
0.2924827
50
215.7258926
51
216.5355437
0
ARC
8
DEFAULT_255_1_388
10
13.5440755
20
0.1524919
40
0.2170661
50
215.7486606
51
239.9728403
0
ARC
8
DEFAULT_255_1_388
10
13.5361921
20
0.1467838
40
0.208217
50
241.065081
51
269.280972
0
ARC
8
DEFAULT_255_1_388
10
13.5409079
20
0.2023327
40
0.2638514
50
268.4083352
51
270.0069622
0
LINE
8
DEFAULT_255_1_388
10
14.5619678
20
-0.0127263
11
14.5619678
21
-0.1491645
0
LINE
8
DEFAULT_255_1_388
10
14.5619678
20
-0.1491645
11
14.1210284
21
-0.1491645
0
LINE
8
DEFAULT_255_1_388
10
14.1210284
20
-0.1491645
11
14.1210284
21
-0.0127263
0
LINE
8
DEFAULT_255_1_388
10
14.1210284
20
-0.0127263
11
14.5619678
21
-0.0127263
0
LINE
8
DEFAULT_255_1_388
10
14.9369471
20
0.6757898
11
14.9369471
21
-0.6398
0
LINE
8
DEFAULT_255_1_388
10
14.9369471
20
-0.6398
11
14.7634627
21
-0.6398
0
LINE
8
DEFAULT_255_1_388
10
14.7634627
20
-0.6398
11
14.7634627
21
0.6757898
0
LINE
8
DEFAULT_255_1_388
10
14.7634627
20
0.6757898
11
14.9369471
21
0.6757898
0
LINE
8
DEFAULT_255_1_388
10
15.2884336
20
0.6757898
11
15.629981
21
0.0152842
0
LINE
8
DEFAULT_255_1_388
10
15.629981
20
0.0152842
11
15.9733355
21
0.6757898
0
LINE
8
DEFAULT_255_1_388
10
15.9733355
20
0.6757898
11
16.1703125
21
0.6757898
0
LINE
8
DEFAULT_255_1_388
10
16.1703125
20
0.6757898
11
15.7167232
21
-0.1491645
0
LINE
8
DEFAULT_255_1_388
10
15.7167232
20
-0.1491645
11
15.7167232
21
-0.6398
0
LINE
8
DEFAULT_255_1_388
10
15.7167232
20
-0.6398
11
15.5432388
21
-0.6398
0
LINE
8
DEFAULT_255_1_388
10
15.5432388
20
-0.6398
11
15.5432388
21
-0.1491645
0
LINE
8
DEFAULT_255_1_388
10
15.5432388
20
-0.1491645
11
15.0896495
21
0.6757898
0
LINE
8
DEFAULT_255_1_388
10
15.0896495
20
0.6757898
11
15.2884336
21
0.6757898
0
LINE
8
DEFAULT_255_1_388
10
17.0024954
20
0.6757898
11
17.0024954
21
-0.197957
0
LINE
8
DEFAULT_255_1_388
10
17.0024954
20
-0.197957
11
17.1850154
21
-0.197957
0
LINE
8
DEFAULT_255_1_388
10
17.1850154
20
-0.197957
11
17.1850154
21
-0.3343952
0
LINE
8
DEFAULT_255_1_388
10
17.1850154
20
-0.3343952
11
17.0024954
21
-0.3343952
0
LINE
8
DEFAULT_255_1_388
10
17.0024954
20
-0.3343952
11
17.0024954
21
-0.6398
0
LINE
8
DEFAULT_255_1_388
10
17.0024954
20
-0.6398
11
16.8344324
21
-0.6398
0
LINE
8
DEFAULT_255_1_388
10
16.8344324
20
-0.6398
11
16.8344324
21
-0.3343952
0
LINE
8
DEFAULT_255_1_388
10
16.8344324
20
-0.3343952
11
16.2353692
21
-0.3343952
0
LINE
8
DEFAULT_255_1_388
10
16.2353692
20
-0.3343952
11
16.2353692
21
-0.2359067
0
LINE
8
DEFAULT_255_1_388
10
16.2353692
20
-0.2359067
11
16.8244932
21
0.6757898
0
LINE
8
DEFAULT_255_1_388
10
16.8244932
20
0.6757898
11
17.0024954
21
0.6757898
0
LINE
8
DEFAULT_255_1_388
10
16.814554
20
0.4110455
11
16.4251177
21
-0.197957
0
LINE
8
DEFAULT_255_1_388
10
16.4251177
20
-0.197957
11
16.8344324
21
-0.197957
0
LINE
8
DEFAULT_255_1_388
10
16.8344324
20
-0.197957
11
16.8344324
21
0.447188
0
LINE
8
DEFAULT_255_1_388
10
16.8344324
20
0.447188
11
16.814554
21
0.4110455
0
LINE
8
DEFAULT_255_1_388
10
18.1798399
20
-0.6398
11
17.7136006
21
-0.0280869
0
LINE
8
DEFAULT_255_1_388
10
17.7136006
20
-0.0280869
11
17.5527662
21
-0.1952463
0
LINE
8
DEFAULT_255_1_388
10
17.5527662
20
-0.1952463
11
17.5527662
21
-0.6398
0
LINE
8
DEFAULT_255_1_388
10
17.5527662
20
-0.6398
11
17.3792818
21
-0.6398
0
LINE
8
DEFAULT_255_1_388
10
17.3792818
20
-0.6398
11
17.3792818
21
0.6757898
0
LINE
8
DEFAULT_255_1_388
10
17.3792818
20
0.6757898
11
17.5527662
21
0.6757898
0
LINE
8
DEFAULT_255_1_388
10
17.5527662
20
0.6757898
11
17.5527662
21
0.0252234
0
LINE
8
DEFAULT_255_1_388
10
17.5527662
20
0.0252234
11
18.1373724
21
0.6757898
0
LINE
8
DEFAULT_255_1_388
10
18.1373724
20
0.6757898
11
18.3469993
21
0.6757898
0
LINE
8
DEFAULT_255_1_388
10
18.3469993
20
0.6757898
11
17.8292569
21
0.0947979
0
LINE
8
DEFAULT_255_1_388
10
17.8292569
20
0.0947979
11
18.3876597
21
-0.6398
0
LINE
8
DEFAULT_255_1_388
10
18.3876597
20
-0.6398
11
18.1798399
21
-0.6398
0
LINE
8
DEFAULT_255_1_388
10
9.047832
20
102.3037468
11
9.2222199
21
102.3037468
0
LINE
8
DEFAULT_255_1_388
10
8.2093242
20
102.4826525
11
8.2093242
21
102.6091516
0
LINE
8
DEFAULT_255_1_388
10
9.2222199
20
102.7790217
11
9.047832
21
102.7790217
0
LINE
8
DEFAULT_255_1_388
10
8.3837121
20
102.6046337
11
8.3837121
21
102.4772312
0
ARC
8
DEFAULT_255_1_388
10
8.6056433
20
102.3709329
40
0.6202263
50
340.1774904
51
353.7812217
0
ARC
8
DEFAULT_255_1_388
10
8.7824286
20
102.3050893
40
0.4315926
50
311.4560052
51
340.4420756
0
ARC
8
DEFAULT_255_1_388
10
8.7786826
20
102.3175665
40
0.4434573
50
282.4332229
51
310.7514507
0
ARC
8
DEFAULT_255_1_388
10
8.7292644
20
102.5217703
40
0.6535262
50
269.9358869
51
282.8096729
0
ARC
8
DEFAULT_255_1_388
10
8.7234583
20
102.6730329
40
0.8048043
50
269.9995752
51
270.3612856
0
ARC
8
DEFAULT_255_1_388
10
8.7175073
20
102.3931781
40
0.5249831
50
250.7885263
51
270.6488451
0
ARC
8
DEFAULT_255_1_388
10
8.6985898
20
102.3214853
40
0.4510942
50
219.3628377
51
250.0611024
0
ARC
8
DEFAULT_255_1_388
10
8.7918772
20
102.4007653
40
0.5735046
50
193.5480293
51
219.5755675
0
ARC
8
DEFAULT_255_1_388
10
9.0586981
20
102.470052
40
0.849146
50
181.1220183
51
193.8754971
0
ARC
8
DEFAULT_255_1_388
10
9.2910214
20
102.4824914
40
1.0816971
50
179.9914644
51
181.5398227
0
ARC
8
DEFAULT_255_1_388
10
9.0833525
20
102.6133586
40
0.8740384
50
169.5837606
51
180.275782
0
ARC
8
DEFAULT_255_1_388
10
8.8766873
20
102.6515439
40
0.6638751
50
155.0367033
51
169.6002779
0
ARC
8
DEFAULT_255_1_388
10
8.7489331
20
102.7131336
40
0.5220662
50
136.7831557
51
155.2472983
0
ARC
8
DEFAULT_255_1_388
10
8.7051122
20
102.7503577
40
0.4646502
50
121.7633063
51
136.4281161
0
ARC
8
DEFAULT_255_1_388
10
8.7202962
20
102.7223049
40
0.4964979
50
95.6460018
51
121.5489589
0
ARC
8
DEFAULT_255_1_388
10
8.7379936
20
102.5975704
40
0.6223912
50
89.9245727
51
96.1375919
0
ARC
8
DEFAULT_255_1_388
10
8.7436641
20
102.6109721
40
0.6090084
50
76.6779212
51
90.456405
0
ARC
8
DEFAULT_255_1_388
10
8.7879454
20
102.789906
40
0.42469
50
47.4858803
51
76.9287069
0
ARC
8
DEFAULT_255_1_388
10
8.7714068
20
102.7786623
40
0.4441778
50
16.5424081
51
46.8934505
0
ARC
8
DEFAULT_255_1_388
10
8.5905118
20
102.7192265
40
0.6345318
50
5.4072971
51
17.0363711
0
ARC
8
DEFAULT_255_1_388
10
8.4286843
20
102.6932304
40
0.6250632
50
7.8888693
51
15.9242022
0
ARC
8
DEFAULT_255_1_388
10
8.6521828
20
102.7581309
40
0.3923364
50
15.7650676
51
27.9410069
0
ARC
8
DEFAULT_255_1_388
10
8.7763997
20
102.8246317
40
0.2514401
50
27.8167196
51
46.4007942
0
ARC
8
DEFAULT_255_1_388
10
8.7819839
20
102.8239882
40
0.2480958
50
47.4372362
51
75.0695672
0
ARC
8
DEFAULT_255_1_388
10
8.7472675
20
102.7031277
40
0.3738281
50
74.7009379
51
87.8124314
0
ARC
8
DEFAULT_255_1_388
10
8.7390292
20
102.5847659
40
0.4924321
50
87.3802571
51
90.0251599
0
ARC
8
DEFAULT_255_1_388
10
8.7346939
20
102.7167997
40
0.3604218
50
89.3451886
51
108.5744412
0
ARC
8
DEFAULT_255_1_388
10
8.7192931
20
102.7745836
40
0.3007661
50
109.2998307
51
143.3037387
0
ARC
8
DEFAULT_255_1_388
10
8.8050221
20
102.7086584
40
0.4089031
50
143.075267
51
163.1918576
0
ARC
8
DEFAULT_255_1_388
10
9.0246055
20
102.6393652
40
0.6391492
50
162.9375929
51
174.6208776
0
ARC
8
DEFAULT_255_1_388
10
9.3200437
20
102.6069711
40
0.9363344
50
174.342123
51
180.1430283
0
ARC
8
DEFAULT_255_1_388
10
9.2152978
20
102.4726117
40
0.8315986
50
179.6817261
51
189.150555
0
ARC
8
DEFAULT_255_1_388
10
8.9339727
20
102.4257559
40
0.5464044
50
188.9911061
51
203.5772363
0
ARC
8
DEFAULT_255_1_388
10
8.8125019
20
102.3753539
40
0.4149206
50
203.9075402
51
215.1312435
0
ARC
8
DEFAULT_255_1_388
10
8.7086817
20
102.2948907
40
0.2837747
50
213.9071511
51
263.8848919
0
ARC
8
DEFAULT_255_1_388
10
8.722781
20
102.3831519
40
0.3730641
50
263.1757928
51
270.1031044
0
ARC
8
DEFAULT_255_1_388
10
8.726389
20
102.5234511
40
0.5133712
50
269.6722503
51
279.0606936
0
ARC
8
DEFAULT_255_1_388
10
8.7564045
20
102.342015
40
0.3294739
50
278.8749101
51
293.6349581
0
ARC
8
DEFAULT_255_1_388
10
8.7924249
20
102.2574251
40
0.2375405
50
293.8553806
51
310.0518171
0
ARC
8
DEFAULT_255_1_388
10
8.7929758
20
102.2504021
40
0.2318463
50
311.0644687
51
332.0111037
0
ARC
8
DEFAULT_255_1_388
10
8.6588431
20
102.3243702
40
0.3850112
50
331.6586806
51
343.2877423
0
ARC
8
DEFAULT_255_1_388
10
8.4267896
20
102.3956806
40
0.6277712
50
343.1446576
51
351.0103568
0
ARC
8
DEFAULT_255_1_388
10
8.263522
20
102.4256873
40
0.7937327
50
350.71248
51
351.1626997
0
LINE
8
DEFAULT_255_1_388
10
9.3884758
20
102.3724177
11
9.3884758
21
102.384164
0
LINE
8
DEFAULT_255_1_388
10
10.2784868
20
102.3760319
11
10.2784868
21
102.3642856
0
ARC
8
DEFAULT_255_1_388
10
10.0169202
20
102.387804
40
0.628455
50
166.3005265
51
180.3318609
0
ARC
8
DEFAULT_255_1_388
10
9.9198552
20
102.4095267
40
0.52901
50
153.8608648
51
166.0965672
0
ARC
8
DEFAULT_255_1_388
10
9.8449718
20
102.4496652
40
0.4441126
50
135.1317053
51
154.2534962
0
ARC
8
DEFAULT_255_1_388
10
9.8136369
20
102.4773431
40
0.4023863
50
121.7042632
51
134.7771455
0
ARC
8
DEFAULT_255_1_388
10
9.8211801
20
102.4628469
40
0.4186852
50
93.4001111
51
121.5399523
0
ARC
8
DEFAULT_255_1_388
10
9.8318635
20
102.3698759
40
0.5121521
50
89.9706387
51
93.9763381
0
ARC
8
DEFAULT_255_1_388
10
9.8371619
20
102.4138563
40
0.4681988
50
71.3321659
51
90.6162917
0
ARC
8
DEFAULT_255_1_388
10
9.8554653
20
102.4816003
40
0.3981841
50
41.1813875
51
70.7072086
0
ARC
8
DEFAULT_255_1_388
10
9.8017369
20
102.432813
40
0.4707474
50
12.1971434
51
41.3446641
0
ARC
8
DEFAULT_255_1_388
10
9.5850633
20
102.3812328
40
0.6934429
50
359.5702713
51
12.5803533
0
ARC
8
DEFAULT_255_1_388
10
9.6382949
20
102.3607207
40
0.6402018
50
347.0196754
51
0.3190452
0
ARC
8
DEFAULT_255_1_388
10
9.7461002
20
102.3375189
40
0.5299421
50
334.350439
51
346.8460534
0
ARC
8
DEFAULT_255_1_388
10
9.8412249
20
102.2881244
40
0.4228234
50
310.4228125
51
334.8045131
0
ARC
8
DEFAULT_255_1_388
10
9.8504227
20
102.2809301
40
0.4113892
50
301.8488154
51
310.0972985
0
ARC
8
DEFAULT_255_1_388
10
9.8467967
20
102.2894573
40
0.4205483
50
274.3078723
51
301.6554173
0
ARC
8
DEFAULT_255_1_388
10
9.8343423
20
102.3881943
40
0.5199658
50
269.954904
51
274.859116
0
ARC
8
DEFAULT_255_1_388
10
9.8288247
20
102.3318239
40
0.4636233
50
250.8887647
51
270.6313164
0
ARC
8
DEFAULT_255_1_388
10
9.8119407
20
102.2689405
40
0.398705
50
221.1701369
51
250.2227012
0
ARC
8
DEFAULT_255_1_388
10
9.8664073
20
102.3185716
40
0.4723796
50
191.6263861
51
221.3526879
0
ARC
8
DEFAULT_255_1_388
10
10.0787918
20
102.3677203
40
0.6903321
50
179.6101251
51
192.0694841
0
ARC
8
DEFAULT_255_1_388
10
10.1264266
20
102.3606681
40
0.5698993
50
179.636304
51
190.6161344
0
ARC
8
DEFAULT_255_1_388
10
9.9416598
20
102.3246635
40
0.3816643
50
190.4136062
51
208.7168709
0
ARC
8
DEFAULT_255_1_388
10
9.8842632
20
102.2961905
40
0.3176572
50
209.187109
51
217.4221816
0
ARC
8
DEFAULT_255_1_388
10
9.8247102
20
102.2437729
40
0.2385702
50
216.1156863
51
265.2575395
0
ARC
8
DEFAULT_255_1_388
10
9.8336139
20
102.3082608
40
0.3035941
50
264.5891546
51
270.0602378
0
ARC
8
DEFAULT_255_1_388
10
9.8373335
20
102.2655539
40
0.2609091
50
269.2532353
51
291.8793864
0
ARC
8
DEFAULT_255_1_388
10
9.8406214
20
102.2455359
40
0.241148
50
292.9269367
51
323.1777736
0
ARC
8
DEFAULT_255_1_388
10
9.79355
20
102.2868762
40
0.3036446
50
322.25666
51
323.087958
0
ARC
8
DEFAULT_255_1_388
10
9.7632757
20
102.3051332
40
0.3388345
50
323.6941379
51
343.8493587
0
ARC
8
DEFAULT_255_1_388
10
9.5857193
20
102.3591698
40
0.5244204
50
343.5746655
51
355.008149
0
ARC
8
DEFAULT_255_1_388
10
9.3598885
20
102.3825797
40
0.7514406
50
354.728272
51
0.1208026
0
ARC
8
DEFAULT_255_1_388
10
9.5587911
20
102.3877947
40
0.5525482
50
359.6235211
51
11.2016685
0
ARC
8
DEFAULT_255_1_388
10
9.7313738
20
102.4233284
40
0.3763527
50
10.9991302
51
30.8317616
0
ARC
8
DEFAULT_255_1_388
10
9.7759042
20
102.4467988
40
0.3260975
50
31.3007463
51
37.395541
0
ARC
8
DEFAULT_255_1_388
10
9.8317761
20
102.4939773
40
0.253082
50
36.5918894
51
62.2439906
0
ARC
8
DEFAULT_255_1_388
10
9.8370052
20
102.4936378
40
0.2509927
50
63.3364883
51
89.7193846
0
ARC
8
DEFAULT_255_1_388
10
9.8321506
20
102.4288375
40
0.3158485
50
88.8962924
51
90.004475
0
ARC
8
DEFAULT_255_1_388
10
9.8285933
20
102.4941071
40
0.250604
50
89.1923115
51
114.7099029
0
ARC
8
DEFAULT_255_1_388
10
9.8318275
20
102.4983675
40
0.2481307
50
115.7996284
51
142.2901353
0
ARC
8
DEFAULT_255_1_388
10
9.8786546
20
102.4564752
40
0.310833
50
141.4607507
51
142.383894
0
ARC
8
DEFAULT_255_1_388
10
9.8934397
20
102.4496449
40
0.3267335
50
143.0176473
51
163.2340089
0
ARC
8
DEFAULT_255_1_388
10
10.0709686
20
102.3934553
40
0.5129308
50
162.9446504
51
174.3733893
0
ARC
8
DEFAULT_255_1_388
10
10.3123659
20
102.3663483
40
0.75583
50
174.1225809
51
180.1563667
0
LINE
8
DEFAULT_255_1_388
10
10.4872102
20
102.8639567
11
10.6453339
21
102.8639567
0
LINE
8
DEFAULT_255_1_388
10
10.6453339
20
102.8639567
11
10.6498518
21
102.755529
0
LINE
8
DEFAULT_255_1_388
10
11.8579174
20
102.5413842
11
11.8579174
21
101.8863
0
LINE
8
DEFAULT_255_1_388
10
11.8579174
20
101.8863
11
11.690758
21
101.8863
0
LINE
8
DEFAULT_255_1_388
10
11.690758
20
101.8863
11
11.690758
21
102.531445
0
LINE
8
DEFAULT_255_1_388
10
11.2561435
20
102.5350593
11
11.2561435
21
101.8863
0
LINE
8
DEFAULT_255_1_388
10
11.2561435
20
101.8863
11
11.0880805
21
101.8863
0
LINE
8
DEFAULT_255_1_388
10
11.0880805
20
101.8863
11
11.0880805
21
102.5269272
0
LINE
8
DEFAULT_255_1_388
10
10.6543696
20
102.6001159
11
10.6543696
21
101.8863
0
LINE
8
DEFAULT_255_1_388
10
10.6543696
20
101.8863
11
10.4872102
21
101.8863
0
LINE
8
DEFAULT_255_1_388
10
10.4872102
20
101.8863
11
10.4872102
21
102.8639567
0
ARC
8
DEFAULT_255_1_388
10
10.9194714
20
102.5285947
40
0.3524116
50
93.0261693
51
139.913241
0
ARC
8
DEFAULT_255_1_388
10
10.9394789
20
102.3887673
40
0.493261
50
89.9515559
51
94.4896559
0
ARC
8
DEFAULT_255_1_388
10
10.9442267
20
102.4690293
40
0.4130214
50
75.8912256
51
90.6007843
0
ARC
8
DEFAULT_255_1_388
10
10.9853563
20
102.6207686
40
0.2558497
50
23.9940553
51
76.5407673
0
ARC
8
DEFAULT_255_1_388
10
11.5231998
20
102.5134138
40
0.3703589
50
118.5760068
51
145.1952627
0
ARC
8
DEFAULT_255_1_388
10
11.5088051
20
102.5409672
40
0.3392772
50
99.1481537
51
118.6669021
0
ARC
8
DEFAULT_255_1_388
10
11.5290764
20
102.4277244
40
0.454307
50
89.7792127
51
99.4015557
0
ARC
8
DEFAULT_255_1_388
10
11.5377877
20
102.4463109
40
0.4357727
50
73.2646335
51
90.9152299
0
ARC
8
DEFAULT_255_1_388
10
11.5871954
20
102.6141955
40
0.2607739
50
10.756495
51
73.0388383
0
ARC
8
DEFAULT_255_1_388
10
11.3182521
20
102.5384448
40
0.5396733
50
0.3120729
51
13.3293082
0
ARC
8
DEFAULT_255_1_388
10
11.3245
20
102.5335363
40
0.366264
50
359.6728567
51
8.7129231
0
ARC
8
DEFAULT_255_1_388
10
11.4591914
20
102.5549524
40
0.2298841
50
8.5221448
51
22.6803231
0
ARC
8
DEFAULT_255_1_388
10
11.5275614
20
102.5833786
40
0.1558403
50
22.7298708
51
42.2763259
0
ARC
8
DEFAULT_255_1_388
10
11.5414315
20
102.5921235
40
0.1397242
50
43.4492352
51
69.272112
0
ARC
8
DEFAULT_255_1_388
10
11.5068545
20
102.5057568
40
0.2327451
50
68.836098
51
81.9786568
0
ARC
8
DEFAULT_255_1_388
10
11.4842981
20
102.3547247
40
0.385449
50
81.7913044
51
90.3003404
0
LINE
8
DEFAULT_255_1_388
10
11.4822777
20
102.7401683
11
11.4820346
21
102.7401684
0
ARC
8
DEFAULT_255_1_388
10
11.4797155
20
102.4841083
40
0.2560706
50
89.4810922
51
106.5055613
0
ARC
8
DEFAULT_255_1_388
10
11.4669064
20
102.5312872
40
0.2071998
50
106.8160071
51
132.2750747
0
ARC
8
DEFAULT_255_1_388
10
11.4717587
20
102.5261017
40
0.2143007
50
132.3023562
51
166.9931148
0
ARC
8
DEFAULT_255_1_388
10
11.5445825
20
102.5052518
40
0.2899752
50
166.2176327
51
174.0999541
0
ARC
8
DEFAULT_255_1_388
10
10.7730954
20
102.531209
40
0.3150142
50
359.2211859
51
14.4876062
0
ARC
8
DEFAULT_255_1_388
10
10.9209177
20
102.5737235
40
0.1613108
50
13.0021013
51
76.7082612
0
ARC
8
DEFAULT_255_1_388
10
10.8832377
20
102.4406286
40
0.299565
50
75.5470628
51
90.7422407
0
ARC
8
DEFAULT_255_1_388
10
10.8756003
20
102.4440964
40
0.2960958
50
89.2730201
51
106.8379289
0
ARC
8
DEFAULT_255_1_388
10
10.8533408
20
102.5248973
40
0.2123216
50
107.4046439
51
156.621812
0
ARC
8
DEFAULT_255_1_388
10
10.9298222
20
102.4810952
40
0.3000669
50
154.7390611
51
156.6312403
0
LINE
8
DEFAULT_255_1_388
10
12.9358698
20
102.3796462
11
12.9358698
21
102.3642856
0
LINE
8
DEFAULT_255_1_388
10
12.2771713
20
101.9811743
11
12.2771713
21
101.5104172
0
LINE
8
DEFAULT_255_1_388
10
12.2771713
20
101.5104172
11
12.1100119
21
101.5104172
0
LINE
8
DEFAULT_255_1_388
10
12.1100119
20
101.5104172
11
12.1100119
21
102.8639567
0
LINE
8
DEFAULT_255_1_388
10
12.1100119
20
102.8639567
11
12.2627143
21
102.8639567
0
LINE
8
DEFAULT_255_1_388
10
12.2627143
20
102.8639567
11
12.2708464
21
102.755529
0
LINE
8
DEFAULT_255_1_388
10
12.2771713
20
102.6055373
11
12.2771713
21
102.1383945
0
ARC
8
DEFAULT_255_1_388
10
12.1405935
20
102.3593831
40
0.7952914
50
349.5457689
51
0.3531959
0
ARC
8
DEFAULT_255_1_388
10
12.3964713
20
102.3102711
40
0.5347531
50
331.7801944
51
349.7458841
0
ARC
8
DEFAULT_255_1_388
10
12.4781032
20
102.2705052
40
0.4440347
50
323.2239993
51
331.320727
0
ARC
8
DEFAULT_255_1_388
10
12.5707519
20
102.1919189
40
0.3228626
50
275.1519108
51
324.5512858
0
ARC
8
DEFAULT_255_1_388
10
12.5577891
20
102.2820763
40
0.4138479
50
269.929002
51
275.8184771
0
ARC
8
DEFAULT_255_1_388
10
12.5531254
20
102.3196586
40
0.451449
50
255.0666642
51
270.5268285
0
ARC
8
DEFAULT_255_1_388
10
12.5213746
20
102.2008476
40
0.3284686
50
221.9730059
51
255.0773797
0
ARC
8
DEFAULT_255_1_388
10
12.5307905
20
102.5477287
40
0.3327941
50
94.4346057
51
141.3610235
0
ARC
8
DEFAULT_255_1_388
10
12.5538435
20
102.4051867
40
0.4768419
50
89.913234
51
95.8721355
0
ARC
8
DEFAULT_255_1_388
10
12.5589973
20
102.5060946
40
0.3759596
50
70.3260364
51
90.6753935
0
ARC
8
DEFAULT_255_1_388
10
12.5703416
20
102.5527349
40
0.328261
50
36.7636238
51
69.44976
0
ARC
8
DEFAULT_255_1_388
10
12.4742025
20
102.4777455
40
0.4501685
50
16.0027939
51
37.086172
0
ARC
8
DEFAULT_255_1_388
10
12.2447792
20
102.4085013
40
0.6897988
50
4.5018317
51
16.2779312
0
ARC
8
DEFAULT_255_1_388
10
11.9665939
20
102.381276
40
0.9692771
50
359.9036593
51
4.8154966
0
ARC
8
DEFAULT_255_1_388
10
12.140123
20
102.3867646
40
0.6285971
50
359.6805954
51
9.1297647
0
ARC
8
DEFAULT_255_1_388
10
12.3548326
20
102.4225143
40
0.4109369
50
8.9584658
51
23.6939885
0
ARC
8
DEFAULT_255_1_388
10
12.4488084
20
102.4618721
40
0.3090717
50
24.0136272
51
36.1951724
0
ARC
8
DEFAULT_255_1_388
10
12.515368
20
102.5161253
40
0.2233637
50
35.0467028
51
84.5489768
0
ARC
8
DEFAULT_255_1_388
10
12.5052874
20
102.4494397
40
0.2907289
50
83.8197232
51
90.0823413
0
ARC
8
DEFAULT_255_1_388
10
12.5009005
20
102.4716874
40
0.2685104
50
89.1530367
51
112.3459134
0
ARC
8
DEFAULT_255_1_388
10
12.4958093
20
102.4975252
40
0.2427311
50
113.5532703
51
146.2373945
0
ARC
8
DEFAULT_255_1_388
10
12.568072
20
102.4420111
40
0.3337124
50
145.2086902
51
150.6580233
0
ARC
8
DEFAULT_255_1_388
10
12.5178197
20
102.2688753
40
0.273746
50
208.46678
51
230.7447697
0
ARC
8
DEFAULT_255_1_388
10
12.4938737
20
102.2473351
40
0.2419641
50
231.9080157
51
266.0622442
0
ARC
8
DEFAULT_255_1_388
10
12.5063249
20
102.3365434
40
0.3318765
50
264.9752933
51
270.060741
0
ARC
8
DEFAULT_255_1_388
10
12.5098849
20
102.2480683
40
0.2434225
50
269.2448363
51
292.3382162
0
ARC
8
DEFAULT_255_1_388
10
12.5118163
20
102.2322065
40
0.2280566
50
293.4040635
51
323.0231773
0
ARC
8
DEFAULT_255_1_388
10
12.4660412
20
102.2724037
40
0.2888399
50
322.1147526
51
323.3512864
0
ARC
8
DEFAULT_255_1_388
10
12.4479824
20
102.2812269
40
0.3086176
50
324.0383098
51
342.5340044
0
ARC
8
DEFAULT_255_1_388
10
12.260782
20
102.3425984
40
0.5056129
50
342.2670619
51
353.2817647
0
ARC
8
DEFAULT_255_1_388
10
11.9648477
20
102.379797
40
0.8038702
50
353.1162085
51
0.2468587
0
LINE
8
DEFAULT_255_1_388
10
13.92708
20
101.8863
11
13.7517885
21
101.8863
0
LINE
8
DEFAULT_255_1_388
10
13.5629436
20
102.4790383
11
13.7255852
21
102.4790383
0
LINE
8
DEFAULT_255_1_388
10
13.7255852
20
102.4790383
11
13.7255852
21
102.5558413
0
LINE
8
DEFAULT_255_1_388
10
13.3081384
20
102.5928874
11
13.1400754
21
102.5928874
0
LINE
8
DEFAULT_255_1_388
10
13.8927446
20
102.5648769
11
13.8927446
21
102.1149018
0
LINE
8
DEFAULT_255_1_388
10
13.92708
20
101.900757
11
13.92708
21
101.8863
0
LINE
8
DEFAULT_255_1_388
10
13.7255852
20
102.16008
11
13.7255852
21
102.3606713
0
LINE
8
DEFAULT_255_1_388
10
13.7255852
20
102.3606713
11
13.5945683
21
102.3606713
0
ARC
8
DEFAULT_255_1_388
10
13.8687035
20
101.94301
40
0.1299428
50
197.0784902
51
205.8758668
0
ARC
8
DEFAULT_255_1_388
10
14.0081621
20
101.9871959
40
0.2762313
50
192.2927663
51
197.3441989
0
ARC
8
DEFAULT_255_1_388
10
14.2277126
20
102.035976
40
0.5011345
50
189.1573793
51
192.3977084
0
ARC
8
DEFAULT_255_1_388
10
14.5441973
20
102.0875878
40
0.8217995
50
186.8686098
51
189.1982636
0
ARC
8
DEFAULT_255_1_388
10
13.4387064
20
102.261626
40
0.3975173
50
294.0079259
51
316.7603918
0
ARC
8
DEFAULT_255_1_388
10
13.4532246
20
102.2411902
40
0.3729755
50
269.5043226
51
293.2478373
0
ARC
8
DEFAULT_255_1_388
10
13.4465298
20
102.2862915
40
0.4180772
50
255.4034155
51
270.4753052
0
ARC
8
DEFAULT_255_1_388
10
13.4206512
20
102.1858652
40
0.3143705
50
228.6141063
51
255.3550831
0
ARC
8
DEFAULT_255_1_388
10
13.3832493
20
102.150054
40
0.2628114
50
181.8954381
51
229.5703134
0
ARC
8
DEFAULT_255_1_388
10
13.4497429
20
102.1572824
40
0.329546
50
179.9848815
51
182.7691528
0
ARC
8
DEFAULT_255_1_388
10
13.4404496
20
102.1611827
40
0.3202753
50
161.0342928
51
180.6822077
0
ARC
8
DEFAULT_255_1_388
10
13.3910111
20
102.1740422
40
0.2693695
50
125.0525065
51
160.2034058
0
ARC
8
DEFAULT_255_1_388
10
13.4654832
20
102.0724275
40
0.3953338
50
106.2670809
51
125.4300189
0
ARC
8
DEFAULT_255_1_388
10
13.5298874
20
101.8619795
40
0.6154041
50
95.4857579
51
106.5348562
0
ARC
8
DEFAULT_255_1_388
10
13.5606161
20
101.5807993
40
0.8982419
50
89.8515405
51
95.7222579
0
ARC
8
DEFAULT_255_1_388
10
13.4886742
20
102.5578925
40
0.2369198
50
359.5039339
51
14.3181205
0
ARC
8
DEFAULT_255_1_388
10
13.5532747
20
102.5746862
40
0.170173
50
14.2184556
51
45.2028524
0
ARC
8
DEFAULT_255_1_388
10
13.5573443
20
102.5762862
40
0.1661795
50
45.8098216
51
73.0032926
0
ARC
8
DEFAULT_255_1_388
10
13.5293269
20
102.490626
40
0.2562942
50
72.6112517
51
85.7231489
0
ARC
8
DEFAULT_255_1_388
10
13.5192054
20
102.3879339
40
0.3594635
50
85.335019
51
90.0855069
0
ARC
8
DEFAULT_255_1_388
10
13.5165487
20
102.4543472
40
0.2930574
50
89.5854741
51
103.459124
0
ARC
8
DEFAULT_255_1_388
10
13.4994026
20
102.5258134
40
0.2195632
50
103.448332
51
126.5403399
0
ARC
8
DEFAULT_255_1_388
10
13.4725002
20
102.5602224
40
0.1759039
50
126.1730306
51
141.5008224
0
ARC
8
DEFAULT_255_1_388
10
13.4299317
20
102.5936266
40
0.1217955
50
141.3332087
51
180.3477313
0
ARC
8
DEFAULT_255_1_388
10
13.3540741
20
102.5916904
40
0.214002
50
151.6373605
51
179.6795088
0
ARC
8
DEFAULT_255_1_388
10
13.4217976
20
102.5579768
40
0.2896224
50
142.4981529
51
152.1330509
0
ARC
8
DEFAULT_255_1_388
10
13.4575981
20
102.5298781
40
0.3351307
50
120.8284906
51
142.4132156
0
ARC
8
DEFAULT_255_1_388
10
13.5043956
20
102.4566185
40
0.4220297
50
113.9634885
51
121.1871733
0
ARC
8
DEFAULT_255_1_388
10
13.5197265
20
102.4192705
40
0.4623867
50
93.3784336
51
113.8197902
0
ARC
8
DEFAULT_255_1_388
10
13.5283648
20
102.3331549
40
0.5488732
50
89.9745993
51
93.7488475
0
ARC
8
DEFAULT_255_1_388
10
13.5322894
20
102.3372587
40
0.5447818
50
79.1327128
51
90.3871707
0
ARC
8
DEFAULT_255_1_388
10
13.5688658
20
102.5200597
40
0.3583662
50
60.1434453
51
79.365517
0
ARC
8
DEFAULT_255_1_388
10
13.5977424
20
102.5755195
40
0.2959028
50
48.6191018
51
59.6466565
0
ARC
8
DEFAULT_255_1_388
10
13.6031136
20
102.5826356
40
0.2870136
50
9.0349502
51
48.4845487
0
ARC
8
DEFAULT_255_1_388
10
13.4820434
20
102.5562084
40
0.4107927
50
1.2091359
51
10.0234369
0
ARC
8
DEFAULT_255_1_388
10
14.7517882
20
102.1121422
40
0.8590481
50
179.8159449
51
185.3205667
0
ARC
8
DEFAULT_255_1_388
10
14.4485728
20
102.0831945
40
0.5544553
50
185.2475628
51
192.7952551
0
ARC
8
DEFAULT_255_1_388
10
14.2503552
20
102.0377024
40
0.3510853
50
192.7195981
51
202.9584216
0
ARC
8
DEFAULT_255_1_388
10
13.4743588
20
102.3074895
40
0.2937869
50
270.006916
51
300.503478
0
ARC
8
DEFAULT_255_1_388
10
13.4881523
20
102.2930888
40
0.2744162
50
299.5482616
51
315.609538
0
ARC
8
DEFAULT_255_1_388
10
13.5207819
20
102.2597072
40
0.2277499
50
315.8682065
51
334.0592465
0
ARC
8
DEFAULT_255_1_388
10
13.5896792
20
101.57609
40
0.7845965
50
89.64297
51
97.2867877
0
ARC
8
DEFAULT_255_1_388
10
13.540039
20
101.9477936
40
0.4096042
50
96.9938706
51
109.7783917
0
ARC
8
DEFAULT_255_1_388
10
13.4651852
20
102.1481851
40
0.1957225
50
109.0087985
51
135.3265591
0
ARC
8
DEFAULT_255_1_388
10
13.4344272
20
102.1862764
40
0.1471704
50
137.4537784
51
182.1083946
0
ARC
8
DEFAULT_255_1_388
10
13.4764971
20
102.1790101
40
0.1891498
50
179.4390335
51
195.7201623
0
ARC
8
DEFAULT_255_1_388
10
13.4302006
20
102.1663585
40
0.1411576
50
195.8683556
51
230.157074
0
ARC
8
DEFAULT_255_1_388
10
13.4574729
20
102.1990228
40
0.1837102
50
230.1532486
51
259.7486257
0
ARC
8
DEFAULT_255_1_388
10
13.4730772
20
102.2725472
40
0.258848
50
259.2461118
51
270.2915316
0
LINE
8
DEFAULT_255_1_388
10
14.7773342
20
102.1944155
11
14.935458
21
102.1944155
0
LINE
8
DEFAULT_255_1_388
10
14.1114072
20
102.3660927
11
14.1114072
21
102.3941032
0
LINE
8
DEFAULT_255_1_388
10
14.935458
20
102.5278308
11
14.7773342
21
102.5278308
0
LINE
8
DEFAULT_255_1_388
10
14.2785666
20
102.3877783
11
14.2785666
21
102.3561535
0
ARC
8
DEFAULT_255_1_388
10
14.5509899
20
102.2454109
40
0.2407783
50
269.0327343
51
309.2224588
0
ARC
8
DEFAULT_255_1_388
10
14.5745902
20
102.221219
40
0.207135
50
308.3965377
51
329.6987678
0
ARC
8
DEFAULT_255_1_388
10
14.5900961
20
102.2094899
40
0.1878439
50
330.4013397
51
355.3970937
0
ARC
8
DEFAULT_255_1_388
10
14.6414945
20
102.2114312
40
0.2944555
50
329.2357424
51
356.6872018
0
ARC
8
DEFAULT_255_1_388
10
14.579684
20
102.2441153
40
0.3643032
50
324.8702872
51
329.7911998
0
ARC
8
DEFAULT_255_1_388
10
14.5708122
20
102.2517113
40
0.3759315
50
298.8769973
51
324.7015261
0
ARC
8
DEFAULT_255_1_388
10
14.5334666
20
102.311229
40
0.4461015
50
296.902888
51
299.3854973
0
ARC
8
DEFAULT_255_1_388
10
14.5480663
20
102.2788595
40
0.4106323
50
269.8407861
51
297.1298875
0
ARC
8
DEFAULT_255_1_388
10
14.5420659
20
102.3506354
40
0.4824312
50
253.3156606
51
270.5771301
0
ARC
8
DEFAULT_255_1_388
10
14.5142837
20
102.2500943
40
0.3781531
50
221.1002518
51
252.9743523
0
ARC
8
DEFAULT_255_1_388
10
14.5660307
20
102.2945131
40
0.4463481
50
194.5394284
51
221.0302764
0
ARC
8
DEFAULT_255_1_388
10
14.7740128
20
102.3524897
40
0.6622359
50
182.0498004
51
194.8774376
0
ARC
8
DEFAULT_255_1_388
10
14.9733218
20
102.3657778
40
0.8619146
50
179.9790673
51
182.4586753
0
ARC
8
DEFAULT_255_1_388
10
14.7776531
20
102.3974412
40
0.6662543
50
168.615001
51
180.2870547
0
ARC
8
DEFAULT_255_1_388
10
14.642444
20
102.4239636
40
0.5284705
50
154.9162417
51
168.5402053
0
ARC
8
DEFAULT_255_1_388
10
14.5387716
20
102.4751942
40
0.4128641
50
133.5745308
51
155.2559538
0
ARC
8
DEFAULT_255_1_388
10
14.5204559
20
102.4908116
40
0.3889328
50
122.0165845
51
133.2056002
0
ARC
8
DEFAULT_255_1_388
10
14.5244883
20
102.4808977
40
0.3994808
50
97.8732516
51
121.753124
0
ARC
8
DEFAULT_255_1_388
10
14.5446341
20
102.361959
40
0.5200708
50
89.8471322
51
98.2768545
0
ARC
8
DEFAULT_255_1_388
10
14.5501189
20
102.4305809
40
0.4514657
50
73.3760755
51
90.5199878
0
ARC
8
DEFAULT_255_1_388
10
14.5722105
20
102.511855
40
0.3672743
50
47.7085939
51
73.0510707
0
ARC
8
DEFAULT_255_1_388
10
14.5868208
20
102.5245231
40
0.3480795
50
3.7442743
51
48.0844373
0
ARC
8
DEFAULT_255_1_388
10
14.4756202
20
102.5067946
40
0.4603187
50
2.6192831
51
5.0424684
0
ARC
8
DEFAULT_255_1_388
10
14.5271673
20
102.5112986
40
0.2507126
50
3.78087
51
23.9354314
0
ARC
8
DEFAULT_255_1_388
10
14.5528932
20
102.5203644
40
0.2235311
50
24.4867863
51
46.9439952
0
ARC
8
DEFAULT_255_1_388
10
14.5529878
20
102.5229874
40
0.2215567
50
46.4987715
51
89.3298168
0
ARC
8
DEFAULT_255_1_388
10
14.5460537
20
102.4563742
40
0.2883121
50
88.1066411
51
90.0063536
0
ARC
8
DEFAULT_255_1_388
10
14.5429512
20
102.4621548
40
0.2825481
50
89.3773571
51
107.2070287
0
ARC
8
DEFAULT_255_1_388
10
14.5268781
20
102.5203667
40
0.2221946
50
107.688418
51
143.3582986
0
ARC
8
DEFAULT_255_1_388
10
14.5907075
20
102.4724064
40
0.3020337
50
143.2845866
51
162.9352432
0
ARC
8
DEFAULT_255_1_388
10
14.7601091
20
102.4180401
40
0.4799362
50
162.6652705
51
174.0802646
0
ARC
8
DEFAULT_255_1_388
10
15.0011572
20
102.3900287
40
0.7225942
50
173.8422673
51
180.1784414
0
ARC
8
DEFAULT_255_1_388
10
14.9395242
20
102.3527276
40
0.6609665
50
179.7030218
51
188.2277356
0
ARC
8
DEFAULT_255_1_388
10
14.703085
20
102.3173143
40
0.4218948
50
188.0630838
51
201.115837
0
ARC
8
DEFAULT_255_1_388
10
14.5795735
20
102.270173
40
0.2896941
50
201.2186162
51
216.9761863
0
ARC
8
DEFAULT_255_1_388
10
14.5287892
20
102.2321225
40
0.2262366
50
217.0136373
51
265.2055518
0
ARC
8
DEFAULT_255_1_388
10
14.5463229
20
102.3358503
40
0.3311837
50
263.6824874
51
270.1042034
0
LINE
8
DEFAULT_255_1_388
10
15.1830346
20
103.1006906
11
15.350194
21
103.1006906
0
LINE
8
DEFAULT_255_1_388
10
15.350194
20
103.1006906
11
15.350194
21
102.8639567
0
LINE
8
DEFAULT_255_1_388
10
15.350194
20
102.8639567
11
15.5327141
21
102.8639567
0
LINE
8
DEFAULT_255_1_388
10
15.5327141
20
102.8639567
11
15.5327141
21
102.734747
0
LINE
8
DEFAULT_255_1_388
10
15.5327141
20
102.734747
11
15.350194
21
102.734747
0
LINE
8
DEFAULT_255_1_388
10
15.350194
20
102.734747
11
15.350194
21
102.1284553
0
LINE
8
DEFAULT_255_1_388
10
15.5372319
20
102.0218347
11
15.5372319
21
101.8863
0
LINE
8
DEFAULT_255_1_388
10
15.1830346
20
102.1284553
11
15.1830346
21
102.734747
0
LINE
8
DEFAULT_255_1_388
10
15.1830346
20
102.734747
11
15.0050324
21
102.734747
0
LINE
8
DEFAULT_255_1_388
10
15.0050324
20
102.734747
11
15.0050324
21
102.8639567
0
LINE
8
DEFAULT_255_1_388
10
15.0050324
20
102.8639567
11
15.1830346
21
102.8639567
0
LINE
8
DEFAULT_255_1_388
10
15.1830346
20
102.8639567
11
15.1830346
21
103.1006906
0
ARC
8
DEFAULT_255_1_388
10
15.5760448
20
102.1272842
40
0.2258538
50
179.7029045
51
187.9180047
0
ARC
8
DEFAULT_255_1_388
10
15.4921022
20
102.1152019
40
0.1410477
50
187.7540838
51
200.2454047
0
ARC
8
DEFAULT_255_1_388
10
15.4447928
20
102.0975591
40
0.0905561
50
200.1304287
51
219.1733455
0
ARC
8
DEFAULT_255_1_388
10
15.4295094
20
102.0871695
40
0.0721626
50
220.4434631
51
249.6169985
0
ARC
8
DEFAULT_255_1_388
10
15.4469321
20
102.1309919
40
0.1193141
50
249.1038184
51
262.7745376
0
ARC
8
DEFAULT_255_1_388
10
15.4568502
20
102.2017481
40
0.1907583
50
262.4921618
51
270.2607019
0
ARC
8
DEFAULT_255_1_388
10
15.4565584
20
102.2259817
40
0.2149929
50
270.309081
51
275.6615459
0
ARC
8
DEFAULT_255_1_388
10
15.4404992
20
102.3948342
40
0.3846066
50
275.5607354
51
279.087751
0
ARC
8
DEFAULT_255_1_388
10
15.4032924
20
102.6309428
40
0.6236283
50
279.0369545
51
281.5000133
0
ARC
8
DEFAULT_255_1_388
10
15.3642192
20
102.8286499
40
0.825157
50
281.4217093
51
282.1031556
0
ARC
8
DEFAULT_255_1_388
10
15.4018167
20
102.3743229
40
0.5064619
50
275.2597791
51
285.5081125
0
ARC
8
DEFAULT_255_1_388
10
15.4087181
20
102.3117452
40
0.4435166
50
270.0268175
51
275.1130565
0
ARC
8
DEFAULT_255_1_388
10
15.4064633
20
102.1624367
40
0.2942182
50
257.3572424
51
270.4795428
0
ARC
8
DEFAULT_255_1_388
10
15.3824903
20
102.0613952
40
0.1903838
50
230.8036715
51
257.7414447
0
ARC
8
DEFAULT_255_1_388
10
15.3748399
20
102.0490723
40
0.1760087
50
219.9745381
51
230.1985446
0
ARC
8
DEFAULT_255_1_388
10
15.4121687
20
102.0776116
40
0.2229598
50
196.5081334
51
219.4319996
0
ARC
8
DEFAULT_255_1_388
10
15.5264298
20
102.1134617
40
0.3427033
50
184.6408645
51
196.8266009
0
ARC
8
DEFAULT_255_1_388
10
15.6665203
20
102.127601
40
0.4834863
50
179.8987586
51
184.9677262
0
LINE
8
DEFAULT_255_1_388
10
16.379354
20
102.5115666
11
16.2456264
21
102.5459021
0
LINE
8
DEFAULT_255_1_388
10
16.2456264
20
102.5459021
11
16.3124902
21
103.2018898
0
LINE
8
DEFAULT_255_1_388
10
16.3124902
20
103.2018898
11
16.9865493
21
103.2018898
0
LINE
8
DEFAULT_255_1_388
10
16.9865493
20
103.2018898
11
16.9865493
21
103.0473803
0
LINE
8
DEFAULT_255_1_388
10
16.9865493
20
103.0473803
11
16.4543498
21
103.0473803
0
LINE
8
DEFAULT_255_1_388
10
16.4543498
20
103.0473803
11
16.414593
21
102.6886652
0
LINE
8
DEFAULT_255_1_388
10
16.1986411
20
102.2323652
11
16.3567648
21
102.2323652
0
LINE
8
DEFAULT_255_1_388
10
16.4236286
20
102.5477092
11
16.379354
21
102.5115666
0
ARC
8
DEFAULT_255_1_388
10
16.6232543
20
102.3309241
40
0.4141476
50
93.7181681
51
120.253934
0
ARC
8
DEFAULT_255_1_388
10
16.6338595
20
102.2400284
40
0.5055616
50
89.9660471
51
94.2495185
0
ARC
8
DEFAULT_255_1_388
10
16.6384417
20
102.3063154
40
0.4392953
50
73.8045384
51
90.5585736
0
ARC
8
DEFAULT_255_1_388
10
16.6648675
20
102.402852
40
0.3392225
50
41.3071072
51
73.543002
0
ARC
8
DEFAULT_255_1_388
10
16.6180495
20
102.3625461
40
0.4009977
50
13.5075837
51
41.2174839
0
ARC
8
DEFAULT_255_1_388
10
16.4333592
20
102.3141907
40
0.5918864
50
1.1330171
51
13.8830737
0
ARC
8
DEFAULT_255_1_388
10
16.2737238
20
102.3056522
40
0.7516787
50
359.9925091
51
1.5431298
0
ARC
8
DEFAULT_255_1_388
10
16.4181853
20
102.3010027
40
0.6072343
50
347.8572712
51
0.4294349
0
ARC
8
DEFAULT_255_1_388
10
16.6150988
20
102.2563898
40
0.4053482
50
323.6727442
51
348.1674594
0
ARC
8
DEFAULT_255_1_388
10
16.6481952
20
102.2362175
40
0.3667495
50
316.8171818
51
323.1486802
0
ARC
8
DEFAULT_255_1_388
10
16.6551076
20
102.2320612
40
0.358869
50
281.839603
51
316.5458142
0
ARC
8
DEFAULT_255_1_388
10
16.6128364
20
102.4070363
40
0.5388223
50
269.5770964
51
282.4214641
0
ARC
8
DEFAULT_255_1_388
10
16.6048284
20
102.382993
40
0.5147801
50
256.2425863
51
270.4486481
0
ARC
8
DEFAULT_255_1_388
10
16.5711812
20
102.2480124
40
0.3756708
50
228.9024379
51
256.33135
0
ARC
8
DEFAULT_255_1_388
10
16.5628792
20
102.2349054
40
0.360344
50
193.7536029
51
228.5272638
0
ARC
8
DEFAULT_255_1_388
10
16.7021357
20
102.2757463
40
0.5053599
50
184.9244437
51
194.4976052
0
ARC
8
DEFAULT_255_1_388
10
16.7237999
20
102.2797722
40
0.3700839
50
187.3596909
51
198.6733728
0
ARC
8
DEFAULT_255_1_388
10
16.6057242
20
102.2388373
40
0.2451195
50
198.4453795
51
217.7945479
0
ARC
8
DEFAULT_255_1_388
10
16.5724415
20
102.2152563
40
0.2043754
50
218.2887146
51
228.5613203
0
ARC
8
DEFAULT_255_1_388
10
16.5834421
20
102.2300902
40
0.2227819
50
228.9652423
51
258.1237049
0
ARC
8
DEFAULT_255_1_388
10
16.6065859
20
102.3291964
40
0.3245374
50
257.7260585
51
270.4013717
0
ARC
8
DEFAULT_255_1_388
10
16.6116357
20
102.2791255
40
0.2744726
50
269.4204315
51
286.420998
0
ARC
8
DEFAULT_255_1_388
10
16.6283413
20
102.2184705
40
0.2115721
50
286.7250065
51
320.6004665
0
ARC
8
DEFAULT_255_1_388
10
16.5852328
20
102.2534527
40
0.2670878
50
320.6712228
51
344.5440474
0
ARC
8
DEFAULT_255_1_388
10
16.4551042
20
102.2916394
40
0.4026927
50
344.241448
51
356.735803
0
ARC
8
DEFAULT_255_1_388
10
16.3147349
20
102.3032656
40
0.5435085
50
356.3547471
51
0.0507222
0
ARC
8
DEFAULT_255_1_388
10
16.4649614
20
102.3067812
40
0.3932934
50
359.5579289
51
12.9534322
0
ARC
8
DEFAULT_255_1_388
10
16.5836454
20
102.3355586
40
0.2711827
50
12.6489751
51
41.608121
0
ARC
8
DEFAULT_255_1_388
10
16.6095614
20
102.3575946
40
0.2371737
50
41.7851122
51
85.9892156
0
ARC
8
DEFAULT_255_1_388
10
16.5956924
20
102.2660738
40
0.3295244
50
84.6965848
51
90.0672125
0
ARC
8
DEFAULT_255_1_388
10
16.5930492
20
102.1909118
40
0.4046926
50
89.6804991
51
99.161352
0
ARC
8
DEFAULT_255_1_388
10
16.5699501
20
102.3289848
40
0.2647044
50
98.9836248
51
113.8905702
0
ARC
8
DEFAULT_255_1_388
10
16.5441176
20
102.3899118
40
0.1985386
50
114.195234
51
127.3641866
0
LINE
8
DEFAULT_255_1_388
10
18.0328769
20
102.664269
11
18.0328769
21
102.4474135
0
LINE
8
DEFAULT_255_1_388
10
17.2025012
20
102.4248244
11
17.2025012
21
102.6480048
0
LINE
8
DEFAULT_255_1_388
10
17.8657175
20
102.4022353
11
17.8657175
21
102.6760153
0
LINE
8
DEFAULT_255_1_388
10
17.3696606
20
102.6886652
11
17.3696606
21
102.4212102
0
ARC
8
DEFAULT_255_1_388
10
16.6551103
20
102.4419118
40
1.3777776
50
353.8440855
51
0.2287917
0
ARC
8
DEFAULT_255_1_388
10
17.177012
20
102.3836414
40
0.852639
50
344.4934746
51
353.9763743
0
ARC
8
DEFAULT_255_1_388
10
17.5136928
20
102.2879191
40
0.5026273
50
329.2803599
51
344.7473406
0
ARC
8
DEFAULT_255_1_388
10
17.6252423
20
102.2267038
40
0.3754848
50
324.9361395
51
328.6153007
0
ARC
8
DEFAULT_255_1_388
10
17.6678073
20
102.1969586
40
0.3235566
50
280.5801797
51
324.9173226
0
ARC
8
DEFAULT_255_1_388
10
17.6226702
20
102.3849236
40
0.5167077
50
269.5979457
51
281.6732777
0
ARC
8
DEFAULT_255_1_388
10
17.6145605
20
102.3714113
40
0.5032026
50
256.6228565
51
270.5105488
0
ARC
8
DEFAULT_255_1_388
10
17.5693348
20
102.1972345
40
0.3233092
50
215.8618351
51
257.2787793
0
ARC
8
DEFAULT_255_1_388
10
17.6842055
20
102.2743106
40
0.4615831
50
197.9695203
51
215.2622745
0
ARC
8
DEFAULT_255_1_388
10
17.9637731
20
102.3686641
40
0.7566307
50
187.8816486
51
198.2346584
0
ARC
8
DEFAULT_255_1_388
10
18.4090969
20
102.4329453
40
1.2065653
50
180.8977266
51
188.0054894
0
ARC
8
DEFAULT_255_1_388
10
18.7141183
20
102.44444
40
1.5117443
50
180.7434591
51
181.152202
0
ARC
8
DEFAULT_255_1_388
10
18.5466179
20
102.6534371
40
1.3441277
50
173.7674302
51
180.2315596
0
ARC
8
DEFAULT_255_1_388
10
18.0384047
20
102.7108779
40
0.8326847
50
164.3058537
51
173.9000553
0
ARC
8
DEFAULT_255_1_388
10
17.7108047
20
102.8052652
40
0.4917711
50
148.7922028
51
164.5682288
0
ARC
8
DEFAULT_255_1_388
10
17.6038785
20
102.8649457
40
0.3694204
50
144.5883979
51
148.1161588
0
ARC
8
DEFAULT_255_1_388
10
17.565153
20
102.8919667
40
0.322202
50
101.6440149
51
144.5142619
0
ARC
8
DEFAULT_255_1_388
10
17.6129722
20
102.7019337
40
0.5180451
50
89.528284
51
102.5820197
0
ARC
8
DEFAULT_255_1_388
10
17.6218714
20
102.6975376
40
0.5224441
50
77.0437914
51
90.508231
0
ARC
8
DEFAULT_255_1_388
10
17.6670968
20
102.8823272
40
0.3322297
50
48.2777708
51
77.4996087
0
ARC
8
DEFAULT_255_1_388
10
17.6752708
20
102.8968557
40
0.315966
50
36.3141586
51
47.6307332
0
ARC
8
DEFAULT_255_1_388
10
17.577543
20
102.8310159
40
0.4337313
50
18.2931065
51
35.6770203
0
ARC
8
DEFAULT_255_1_388
10
17.2914271
20
102.7328107
40
0.7362203
50
8.0246996
51
18.5605636
0
ARC
8
DEFAULT_255_1_388
10
16.8230626
20
102.6636432
40
1.2096583
50
1.127539
51
8.1718423
0
ARC
8
DEFAULT_255_1_388
10
16.458176
20
102.6493374
40
1.5747719
50
0.5432713
51
1.38669
0
ARC
8
DEFAULT_255_1_388
10
16.6639139
20
102.6800163
40
1.2018103
50
359.8092569
51
4.9408001
0
ARC
8
DEFAULT_255_1_388
10
17.137572
20
102.72229
40
0.7262727
50
4.8364937
51
12.2906017
0
ARC
8
DEFAULT_255_1_388
10
17.4475185
20
102.7913485
40
0.4087324
50
12.0806994
51
23.8171225
0
ARC
8
DEFAULT_255_1_388
10
17.5795581
20
102.8472508
40
0.2653719
50
24.2874621
51
31.3934353
0
ARC
8
DEFAULT_255_1_388
10
17.6386017
20
102.8858822
40
0.1948607
50
30.7407708
51
82.4658033
0
ARC
8
DEFAULT_255_1_388
10
17.6183677
20
102.7865017
40
0.2961198
50
81.1057101
51
90.2187368
0
ARC
8
DEFAULT_255_1_388
10
17.6143489
20
102.8155421
40
0.2670929
50
89.380395
51
105.6763916
0
ARC
8
DEFAULT_255_1_388
10
17.5937211
20
102.890532
40
0.1893189
50
105.7980655
51
149.7387869
0
ARC
8
DEFAULT_255_1_388
10
17.7134351
20
102.8185719
40
0.3289892
50
149.4208441
51
163.628295
0
ARC
8
DEFAULT_255_1_388
10
17.9486581
20
102.7468345
40
0.5749004
50
163.3764549
51
172.141138
0
ARC
8
DEFAULT_255_1_388
10
18.3199302
20
102.6936582
40
0.9499585
50
172.0258462
51
178.0705453
0
ARC
8
DEFAULT_255_1_388
10
18.6620855
20
102.6774682
40
1.2924734
50
177.8639301
51
179.5036263
0
ARC
8
DEFAULT_255_1_388
10
18.5401874
20
102.4171151
40
1.170534
50
179.7995545
51
185.246089
0
ARC
8
DEFAULT_255_1_388
10
18.0853467
20
102.3740404
40
0.7136613
50
185.1411911
51
193.0082205
0
ARC
8
DEFAULT_255_1_388
10
17.7879728
20
102.3037441
40
0.4080987
50
192.7897338
51
205.2507384
0
ARC
8
DEFAULT_255_1_388
10
17.6701938
20
102.2511538
40
0.2791522
50
205.8001921
51
211.2545876
0
ARC
8
DEFAULT_255_1_388
10
17.6113477
20
102.2117132
40
0.2084074
50
210.3789935
51
238.4007996
0
ARC
8
DEFAULT_255_1_388
10
17.6091563
20
102.2169786
40
0.2117943
50
239.6521916
51
265.9793852
0
ARC
8
DEFAULT_255_1_388
10
17.6187412
20
102.2926358
40
0.2879689
50
265.1324455
51
270.0603288
0
ARC
8
DEFAULT_255_1_388
10
17.6219789
20
102.2561418
40
0.2514919
50
269.3314378
51
287.2180039
0
ARC
8
DEFAULT_255_1_388
10
17.6374871
20
102.1995291
40
0.1928357
50
287.7957942
51
329.0808983
0
ARC
8
DEFAULT_255_1_388
10
17.5297628
20
102.2667651
40
0.319808
50
328.6635261
51
343.3325043
0
ARC
8
DEFAULT_255_1_388
10
17.2853087
20
102.3429195
40
0.5758408
50
343.0498092
51
351.9392499
0
ARC
8
DEFAULT_255_1_388
10
16.8952408
20
102.4004205
40
0.9701202
50
351.8071632
51
357.7957897
0
ARC
8
DEFAULT_255_1_388
10
16.5317885
20
102.4192724
40
1.3340376
50
357.5870923
51
359.2682493
0
LINE
8
DEFAULT_255_1_388
10
19.071976
20
102.664269
11
19.071976
21
102.4474135
0
LINE
8
DEFAULT_255_1_388
10
18.2416003
20
102.4248244
11
18.2416003
21
102.6480048
0
LINE
8
DEFAULT_255_1_388
10
18.9048166
20
102.4022353
11
18.9048166
21
102.6760153
0
LINE
8
DEFAULT_255_1_388
10
18.4087597
20
102.6886652
11
18.4087597
21
102.4212102
0
ARC
8
DEFAULT_255_1_388
10
17.6942094
20
102.4419118
40
1.3777776
50
353.8440855
51
0.2287917
0
ARC
8
DEFAULT_255_1_388
10
18.2161112
20
102.3836414
40
0.852639
50
344.4934746
51
353.9763743
0
ARC
8
DEFAULT_255_1_388
10
18.5527919
20
102.2879191
40
0.5026273
50
329.2803599
51
344.7473406
0
ARC
8
DEFAULT_255_1_388
10
18.6643415
20
102.2267038
40
0.3754848
50
324.9361395
51
328.6153007
0
ARC
8
DEFAULT_255_1_388
10
18.7069064
20
102.1969586
40
0.3235566
50
280.5801797
51
324.9173226
0
ARC
8
DEFAULT_255_1_388
10
18.6617693
20
102.3849236
40
0.5167077
50
269.5979457
51
281.6732777
0
ARC
8
DEFAULT_255_1_388
10
18.6536596
20
102.3714113
40
0.5032026
50
256.6228565
51
270.5105488
0
ARC
8
DEFAULT_255_1_388
10
18.6084339
20
102.1972345
40
0.3233092
50
215.8618351
51
257.2787793
0
ARC
8
DEFAULT_255_1_388
10
18.7233046
20
102.2743106
40
0.4615831
50
197.9695203
51
215.2622745
0
ARC
8
DEFAULT_255_1_388
10
19.0028722
20
102.3686641
40
0.7566307
50
187.8816486
51
198.2346584
0
ARC
8
DEFAULT_255_1_388
10
19.448196
20
102.4329453
40
1.2065653
50
180.8977266
51
188.0054894
0
ARC
8
DEFAULT_255_1_388
10
19.7532174
20
102.44444
40
1.5117443
50
180.7434591
51
181.152202
0
ARC
8
DEFAULT_255_1_388
10
19.585717
20
102.6534371
40
1.3441277
50
173.7674302
51
180.2315596
0
ARC
8
DEFAULT_255_1_388
10
19.0775039
20
102.7108779
40
0.8326847
50
164.3058537
51
173.9000553
0
ARC
8
DEFAULT_255_1_388
10
18.7499039
20
102.8052652
40
0.4917711
50
148.7922028
51
164.5682288
0
ARC
8
DEFAULT_255_1_388
10
18.6429776
20
102.8649457
40
0.3694204
50
144.5883979
51
148.1161588
0
ARC
8
DEFAULT_255_1_388
10
18.6042521
20
102.8919667
40
0.322202
50
101.6440149
51
144.5142619
0
ARC
8
DEFAULT_255_1_388
10
18.6520714
20
102.7019337
40
0.5180451
50
89.528284
51
102.5820197
0
ARC
8
DEFAULT_255_1_388
10
18.6609706
20
102.6975376
40
0.5224441
50
77.0437914
51
90.508231
0
ARC
8
DEFAULT_255_1_388
10
18.7061959
20
102.8823272
40
0.3322297
50
48.2777708
51
77.4996087
0
ARC
8
DEFAULT_255_1_388
10
18.7143699
20
102.8968557
40
0.315966
50
36.3141586
51
47.6307332
0
ARC
8
DEFAULT_255_1_388
10
18.6166421
20
102.8310159
40
0.4337313
50
18.2931065
51
35.6770203
0
ARC
8
DEFAULT_255_1_388
10
18.3305262
20
102.7328107
40
0.7362203
50
8.0246996
51
18.5605636
0
ARC
8
DEFAULT_255_1_388
10
17.8621618
20
102.6636432
40
1.2096583
50
1.127539
51
8.1718423
0
ARC
8
DEFAULT_255_1_388
10
17.4972751
20
102.6493374
40
1.5747719
50
0.5432713
51
1.38669
0
ARC
8
DEFAULT_255_1_388
10
17.703013
20
102.6800163
40
1.2018103
50
359.8092569
51
4.9408001
0
ARC
8
DEFAULT_255_1_388
10
18.1766711
20
102.72229
40
0.7262727
50
4.8364937
51
12.2906017
0
ARC
8
DEFAULT_255_1_388
10
18.4866176
20
102.7913485
40
0.4087324
50
12.0806994
51
23.8171225
0
ARC
8
DEFAULT_255_1_388
10
18.6186572
20
102.8472508
40
0.2653719
50
24.2874621
51
31.3934353
0
ARC
8
DEFAULT_255_1_388
10
18.6777008
20
102.8858822
40
0.1948607
50
30.7407708
51
82.4658033
0
ARC
8
DEFAULT_255_1_388
10
18.6574669
20
102.7865017
40
0.2961198
50
81.1057101
51
90.2187368
0
ARC
8
DEFAULT_255_1_388
10
18.6534481
20
102.8155421
40
0.2670929
50
89.380395
51
105.6763916
0
ARC
8
DEFAULT_255_1_388
10
18.6328202
20
102.890532
40
0.1893189
50
105.7980655
51
149.7387869
0
ARC
8
DEFAULT_255_1_388
10
18.7525343
20
102.8185719
40
0.3289892
50
149.4208441
51
163.628295
0
ARC
8
DEFAULT_255_1_388
10
18.9877572
20
102.7468345
40
0.5749004
50
163.3764549
51
172.141138
0
ARC
8
DEFAULT_255_1_388
10
19.3590294
20
102.6936582
40
0.9499585
50
172.0258462
51
178.0705453
0
ARC
8
DEFAULT_255_1_388
10
19.7011846
20
102.6774682
40
1.2924734
50
177.8639301
51
179.5036263
0
ARC
8
DEFAULT_255_1_388
10
19.5792865
20
102.4171151
40
1.170534
50
179.7995545
51
185.246089
0
ARC
8
DEFAULT_255_1_388
10
19.1244458
20
102.3740404
40
0.7136613
50
185.1411911
51
193.0082205
0
ARC
8
DEFAULT_255_1_388
10
18.8270719
20
102.3037441
40
0.4080987
50
192.7897338
51
205.2507384
0
ARC
8
DEFAULT_255_1_388
10
18.7092929
20
102.2511538
40
0.2791522
50
205.8001921
51
211.2545876
0
ARC
8
DEFAULT_255_1_388
10
18.6504468
20
102.2117132
40
0.2084074
50
210.3789935
51
238.4007996
0
ARC
8
DEFAULT_255_1_388
10
18.6482554
20
102.2169786
40
0.2117943
50
239.6521916
51
265.9793852
0
ARC
8
DEFAULT_255_1_388
10
18.6578403
20
102.2926358
40
0.2879689
50
265.1324455
51
270.0603288
0
ARC
8
DEFAULT_255_1_388
10
18.661078
20
102.2561418
40
0.2514919
50
269.3314378
51
287.2180039
0
ARC
8
DEFAULT_255_1_388
10
18.6765862
20
102.1995291
40
0.1928357
50
287.7957942
51
329.0808983
0
ARC
8
DEFAULT_255_1_388
10
18.5688619
20
102.2667651
40
0.319808
50
328.6635261
51
343.3325043
0
ARC
8
DEFAULT_255_1_388
10
18.3244078
20
102.3429195
40
0.5758408
50
343.0498092
51
351.9392499
0
ARC
8
DEFAULT_255_1_388
10
17.9343399
20
102.4004205
40
0.9701202
50
351.8071632
51
357.7957897
0
ARC
8
DEFAULT_255_1_388
10
17.5708876
20
102.4192724
40
1.3340376
50
357.5870923
51
359.2682493
0
LINE
8
DEFAULT_255_1_388
10
20.1110751
20
102.664269
11
20.1110751
21
102.4474135
0
LINE
8
DEFAULT_255_1_388
10
19.2806994
20
102.4248244
11
19.2806994
21
102.6480048
0
LINE
8
DEFAULT_255_1_388
10
19.9439157
20
102.4022353
11
19.9439157
21
102.6760153
0
LINE
8
DEFAULT_255_1_388
10
19.4478588
20
102.6886652
11
19.4478588
21
102.4212102
0
ARC
8
DEFAULT_255_1_388
10
18.7333085
20
102.4419118
40
1.3777776
50
353.8440855
51
0.2287917
0
ARC
8
DEFAULT_255_1_388
10
19.2552103
20
102.3836414
40
0.852639
50
344.4934746
51
353.9763743
0
ARC
8
DEFAULT_255_1_388
10
19.591891
20
102.2879191
40
0.5026273
50
329.2803599
51
344.7473406
0
ARC
8
DEFAULT_255_1_388
10
19.7034406
20
102.2267038
40
0.3754848
50
324.9361395
51
328.6153007
0
ARC
8
DEFAULT_255_1_388
10
19.7460056
20
102.1969586
40
0.3235566
50
280.5801797
51
324.9173226
0
ARC
8
DEFAULT_255_1_388
10
19.7008684
20
102.3849236
40
0.5167077
50
269.5979457
51
281.6732777
0
ARC
8
DEFAULT_255_1_388
10
19.6927588
20
102.3714113
40
0.5032026
50
256.6228565
51
270.5105488
0
ARC
8
DEFAULT_255_1_388
10
19.647533
20
102.1972345
40
0.3233092
50
215.8618351
51
257.2787793
0
ARC
8
DEFAULT_255_1_388
10
19.7624037
20
102.2743106
40
0.4615831
50
197.9695203
51
215.2622745
0
ARC
8
DEFAULT_255_1_388
10
20.0419713
20
102.3686641
40
0.7566307
50
187.8816486
51
198.2346584
0
ARC
8
DEFAULT_255_1_388
10
20.4872951
20
102.4329453
40
1.2065653
50
180.8977266
51
188.0054894
0
ARC
8
DEFAULT_255_1_388
10
20.7923165
20
102.44444
40
1.5117443
50
180.7434591
51
181.152202
0
ARC
8
DEFAULT_255_1_388
10
20.6248161
20
102.6534371
40
1.3441277
50
173.7674302
51
180.2315596
0
ARC
8
DEFAULT_255_1_388
10
20.116603
20
102.7108779
40
0.8326847
50
164.3058537
51
173.9000553
0
ARC
8
DEFAULT_255_1_388
10
19.789003
20
102.8052652
40
0.4917711
50
148.7922028
51
164.5682288
0
ARC
8
DEFAULT_255_1_388
10
19.6820767
20
102.8649457
40
0.3694204
50
144.5883979
51
148.1161588
0
ARC
8
DEFAULT_255_1_388
10
19.6433513
20
102.8919667
40
0.322202
50
101.6440149
51
144.5142619
0
ARC
8
DEFAULT_255_1_388
10
19.6911705
20
102.7019337
40
0.5180451
50
89.528284
51
102.5820197
0
ARC
8
DEFAULT_255_1_388
10
19.7000697
20
102.6975376
40
0.5224441
50
77.0437914
51
90.508231
0
ARC
8
DEFAULT_255_1_388
10
19.745295
20
102.8823272
40
0.3322297
50
48.2777708
51
77.4996087
0
ARC
8
DEFAULT_255_1_388
10
19.753469
20
102.8968557
40
0.315966
50
36.3141586
51
47.6307332
0
ARC
8
DEFAULT_255_1_388
10
19.6557413
20
102.8310159
40
0.4337313
50
18.2931065
51
35.6770203
0
ARC
8
DEFAULT_255_1_388
10
19.3696253
20
102.7328107
40
0.7362203
50
8.0246996
51
18.5605636
0
ARC
8
DEFAULT_255_1_388
10
18.9012609
20
102.6636432
40
1.2096583
50
1.127539
51
8.1718423
0
ARC
8
DEFAULT_255_1_388
10
18.5363742
20
102.6493374
40
1.5747719
50
0.5432713
51
1.38669
0
ARC
8
DEFAULT_255_1_388
10
18.7421121
20
102.6800163
40
1.2018103
50
359.8092569
51
4.9408001
0
ARC
8
DEFAULT_255_1_388
10
19.2157702
20
102.72229
40
0.7262727
50
4.8364937
51
12.2906017
0
ARC
8
DEFAULT_255_1_388
10
19.5257167
20
102.7913485
40
0.4087324
50
12.0806994
51
23.8171225
0
ARC
8
DEFAULT_255_1_388
10
19.6577563
20
102.8472508
40
0.2653719
50
24.2874621
51
31.3934353
0
ARC
8
DEFAULT_255_1_388
10
19.7167999
20
102.8858822
40
0.1948607
50
30.7407708
51
82.4658033
0
ARC
8
DEFAULT_255_1_388
10
19.696566
20
102.7865017
40
0.2961198
50
81.1057101
51
90.2187368
0
ARC
8
DEFAULT_255_1_388
10
19.6925472
20
102.8155421
40
0.2670929
50
89.380395
51
105.6763916
0
ARC
8
DEFAULT_255_1_388
10
19.6719194
20
102.890532
40
0.1893189
50
105.7980655
51
149.7387869
0
ARC
8
DEFAULT_255_1_388
10
19.7916334
20
102.8185719
40
0.3289892
50
149.4208441
51
163.628295
0
ARC
8
DEFAULT_255_1_388
10
20.0268563
20
102.7468345
40
0.5749004
50
163.3764549
51
172.141138
0
ARC
8
DEFAULT_255_1_388
10
20.3981285
20
102.6936582
40
0.9499585
50
172.0258462
51
178.0705453
0
ARC
8
DEFAULT_255_1_388
10
20.7402838
20
102.6774682
40
1.2924734
50
177.8639301
51
179.5036263
0
ARC
8
DEFAULT_255_1_388
10
20.6183856
20
102.4171151
40
1.170534
50
179.7995545
51
185.246089
0
ARC
8
DEFAULT_255_1_388
10
20.1635449
20
102.3740404
40
0.7136613
50
185.1411911
51
193.0082205
0
ARC
8
DEFAULT_255_1_388
10
19.866171
20
102.3037441
40
0.4080987
50
192.7897338
51
205.2507384
0
ARC
8
DEFAULT_255_1_388
10
19.748392
20
102.2511538
40
0.2791522
50
205.8001921
51
211.2545876
0
ARC
8
DEFAULT_255_1_388
10
19.6895459
20
102.2117132
40
0.2084074
50
210.3789935
51
238.4007996
0
ARC
8
DEFAULT_255_1_388
10
19.6873545
20
102.2169786
40
0.2117943
50
239.6521916
51
265.9793852
0
ARC
8
DEFAULT_255_1_388
10
19.6969394
20
102.2926358
40
0.2879689
50
265.1324455
51
270.0603288
0
ARC
8
DEFAULT_255_1_388
10
19.7001771
20
102.2561418
40
0.2514919
50
269.3314378
51
287.2180039
0
ARC
8
DEFAULT_255_1_388
10
19.7156853
20
102.1995291
40
0.1928357
50
287.7957942
51
329.0808983
0
ARC
8
DEFAULT_255_1_388
10
19.607961
20
102.2667651
40
0.319808
50
328.6635261
51
343.3325043
0
ARC
8
DEFAULT_255_1_388
10
19.3635069
20
102.3429195
40
0.5758408
50
343.0498092
51
351.9392499
0
ARC
8
DEFAULT_255_1_388
10
18.9734391
20
102.4004205
40
0.9701202
50
351.8071632
51
357.7957897
0
ARC
8
DEFAULT_255_1_388
10
18.6099868
20
102.4192724
40
1.3340376
50
357.5870923
51
359.2682493
0
LINE
8
DEFAULT_255_2_778
10
11.0359959
20
104.8731531
11
10.9838959
21
105.2104531
0
LINE
8
DEFAULT_255_2_778
10
10.9838959
20
105.2104531
11
10.4068959
21
105.2104531
0
LINE
8
DEFAULT_255_2_778
10
10.4068959
20
105.2104531
11
10.2364959
21
104.8731531
0
LINE
8
DEFAULT_255_2_778
10
10.2364959
20
104.8731531
11
9.8694959
21
104.8731531
0
LINE
8
DEFAULT_255_2_778
10
9.8694959
20
104.8731531
11
10.7531959
21
106.5106531
0
LINE
8
DEFAULT_255_2_778
10
10.7531959
20
106.5106531
11
11.0608959
21
106.5106531
0
LINE
8
DEFAULT_255_2_778
10
11.0608959
20
106.5106531
11
11.3754959
21
104.8731531
0
LINE
8
DEFAULT_255_2_778
10
11.3754959
20
104.8731531
11
11.0357959
21
104.8731531
0
LINE
8
DEFAULT_255_2_778
10
11.0357959
20
104.8731531
11
11.0359959
21
104.8731531
0
LINE
8
DEFAULT_255_2_778
10
10.8486959
20
106.0934531
11
10.5430959
21
105.4838531
0
LINE
8
DEFAULT_255_2_778
10
10.5430959
20
105.4838531
11
10.9418959
21
105.4838531
0
LINE
8
DEFAULT_255_2_778
10
10.9418959
20
105.4838531
11
10.8486959
21
106.0934531
0
LINE
8
DEFAULT_255_2_778
10
10.8486959
20
106.0934531
11
10.8486959
21
106.0934531
0
LINE
8
DEFAULT_255_2_778
10
12.1615594
20
106.6006646
11
11.8593594
21
104.8729646
0
LINE
8
DEFAULT_255_2_778
10
11.8593594
20
104.8729646
11
11.5368594
21
104.8729646
0
LINE
8
DEFAULT_255_2_778
10
11.5368594
20
104.8729646
11
11.8400594
21
106.6006646
0
LINE
8
DEFAULT_255_2_778
10
11.8400594
20
106.6006646
11
12.1615594
21
106.6006646
0
LINE
8
DEFAULT_255_2_778
10
12.1615594
20
106.6006646
11
12.1615594
21
106.6006646
0
LINE
8
DEFAULT_255_2_778
10
12.7717594
20
106.6006646
11
12.4695594
21
104.8729646
0
LINE
8
DEFAULT_255_2_778
10
12.4695594
20
104.8729646
11
12.1470594
21
104.8729646
0
LINE
8
DEFAULT_255_2_778
10
12.1470594
20
104.8729646
11
12.4502594
21
106.6006646
0
LINE
8
DEFAULT_255_2_778
10
12.4502594
20
106.6006646
11
12.7717594
21
106.6006646
0
LINE
8
DEFAULT_255_2_778
10
12.7717594
20
106.6006646
11
12.7717594
21
106.6006646
0
ARC
8
DEFAULT_255_2_778
10
13.3180767
20
105.3887764
40
0.5383522
50
238.763891
51
270.7055166
0
ARC
8
DEFAULT_255_2_778
10
13.2867625
20
105.333452
40
0.4748131
50
204.061185
51
238.5328679
0
ARC
8
DEFAULT_255_2_778
10
13.3693681
20
105.3730331
40
0.5663841
50
179.4896096
51
204.3103027
0
ARC
8
DEFAULT_255_2_778
10
13.4933843
20
105.3775727
40
0.6903781
50
175.123126
51
179.9580366
0
ARC
8
DEFAULT_255_2_778
10
13.5850479
20
105.4125152
40
0.7790728
50
149.5392097
51
174.9446897
0
ARC
8
DEFAULT_255_2_778
10
13.459184
20
105.4960212
40
0.628301
50
120.7003982
51
150.2846053
0
ARC
8
DEFAULT_255_2_778
10
13.4196851
20
105.5557024
40
0.556829
50
89.4236852
51
120.3409826
0
ARC
8
DEFAULT_255_2_778
10
13.4252352
20
105.4569671
40
0.6555361
50
88.4553682
51
89.9955718
0
ARC
8
DEFAULT_255_2_778
10
13.4481363
20
105.6411369
40
0.4711572
50
58.4514404
51
90.636095
0
ARC
8
DEFAULT_255_2_778
10
13.4744403
20
105.7045423
40
0.403504
50
35.6058989
51
56.9235594
0
ARC
8
DEFAULT_255_2_778
10
13.3641882
20
105.6307058
40
0.5361477
50
0.6851965
51
35.1616077
0
ARC
8
DEFAULT_255_2_778
10
13.1616313
20
105.6103229
40
0.7391521
50
359.9888194
51
2.0774415
0
ARC
8
DEFAULT_255_2_778
10
13.0480025
20
105.6120249
40
0.852783
50
353.383538
51
359.8759623
0
ARC
8
DEFAULT_255_2_778
10
13.534221
20
105.3596119
40
0.4107176
50
177.8018731
51
179.9839782
0
ARC
8
DEFAULT_255_2_778
10
13.3756217
20
105.348124
40
0.2523852
50
177.3650374
51
219.8309448
0
ARC
8
DEFAULT_255_2_778
10
13.3462068
20
105.3348401
40
0.2214564
50
222.0668323
51
271.55222
0
ARC
8
DEFAULT_255_2_778
10
13.3632002
20
105.5396289
40
0.4263057
50
268.5221572
51
269.9980687
0
ARC
8
DEFAULT_255_2_778
10
13.3616001
20
105.5100217
40
0.3967017
50
270.2290309
51
318.5203973
0
ARC
8
DEFAULT_255_2_778
10
13.4310056
20
105.3267979
40
0.4555006
50
292.4982989
51
325.2807674
0
ARC
8
DEFAULT_255_2_778
10
13.3411907
20
105.5053545
40
0.6549996
50
269.6158853
51
293.7802026
0
ARC
8
DEFAULT_255_2_778
10
13.3368026
20
105.592233
40
0.7418635
50
269.0811303
51
269.9997673
0
ARC
8
DEFAULT_255_2_778
10
13.4205249
20
105.5851977
40
0.2651417
50
88.6426435
51
89.9971979
0
ARC
8
DEFAULT_255_2_778
10
13.4187009
20
105.6204788
40
0.2298681
50
89.5421073
51
130.5025885
0
ARC
8
DEFAULT_255_2_778
10
13.5174398
20
105.5203327
40
0.370282
50
132.0556576
51
154.4346079
0
ARC
8
DEFAULT_255_2_778
10
13.9187288
20
105.3027869
40
0.8264843
50
152.8348001
51
159.2008974
0
ARC
8
DEFAULT_255_2_778
10
13.283715
20
105.6737268
40
0.3137404
50
351.1327381
51
359.8552777
0
ARC
8
DEFAULT_255_2_778
10
13.3301744
20
105.6733274
40
0.2672803
50
359.9157472
51
8.073482
0
ARC
8
DEFAULT_255_2_778
10
13.4328726
20
105.6886276
40
0.1634528
50
7.8192239
51
49.4174523
0
ARC
8
DEFAULT_255_2_778
10
13.4309336
20
105.6754377
40
0.174876
50
51.746929
51
91.3525911
0
LINE
8
DEFAULT_255_2_778
10
12.8055056
20
105.436265
11
12.8090056
21
105.481165
0
LINE
8
DEFAULT_255_2_778
10
13.8951056
20
105.513765
11
13.8768056
21
105.375365
0
LINE
8
DEFAULT_255_2_778
10
13.8768056
20
105.375365
11
13.1238056
21
105.375365
0
LINE
8
DEFAULT_255_2_778
10
13.6588056
20
105.247265
11
13.8054056
21
105.067365
0
LINE
8
DEFAULT_255_2_778
10
13.3249056
20
104.850465
11
13.3247056
21
104.850465
0
LINE
8
DEFAULT_255_2_778
10
13.1461056
20
105.596265
11
13.5868056
21
105.596265
0
LINE
8
DEFAULT_255_2_778
10
13.5868056
20
105.596265
11
13.5937056
21
105.625365
0
LINE
8
DEFAULT_255_2_778
10
13.4268056
20
105.850265
11
13.4268056
21
105.850265
0
ARC
8
DEFAULT_255_2_778
10
14.7973588
20
105.6688783
40
0.4439397
50
89.8554796
51
141.1589213
0
ARC
8
DEFAULT_255_2_778
10
14.7984572
20
105.607943
40
0.5048737
50
88.7717605
51
89.9975792
0
ARC
8
DEFAULT_255_2_778
10
14.8178417
20
105.7968406
40
0.315976
50
50.4893295
51
91.5528058
0
ARC
8
DEFAULT_255_2_778
10
14.8339359
20
105.8312178
40
0.2793745
50
33.8414583
51
48.5499238
0
ARC
8
DEFAULT_255_2_778
10
14.731985
20
105.7723286
40
0.3969262
50
4.3932888
51
32.7062485
0
ARC
8
DEFAULT_255_2_778
10
14.4819065
20
105.7369301
40
0.6491822
50
359.8769204
51
5.8177478
0
ARC
8
DEFAULT_255_2_778
10
14.2701804
20
105.7378881
40
0.8609097
50
353.9399056
51
359.8434284
0
ARC
8
DEFAULT_255_2_778
10
14.4164047
20
105.7035967
40
0.3954956
50
352.2407688
51
359.7520116
0
ARC
8
DEFAULT_255_2_778
10
14.5201997
20
105.7024041
40
0.2916973
50
359.8980094
51
5.448398
0
ARC
8
DEFAULT_255_2_778
10
14.6814536
20
105.7195865
40
0.129553
50
4.6550554
51
97.2610773
0
ARC
8
DEFAULT_255_2_778
10
14.655996
20
105.5938531
40
0.2544097
50
87.9539208
51
89.9945997
0
ARC
8
DEFAULT_255_2_778
10
14.6629447
20
105.5782668
40
0.2700847
50
91.4691634
51
141.078713
0
ARC
8
DEFAULT_255_2_778
10
14.7966376
20
105.4364301
40
0.4639576
50
137.8219849
51
140.394746
0
ARC
8
DEFAULT_255_2_778
10
16.9661161
20
105.483211
40
1.026426
50
77.5141066
51
90.4821212
0
ARC
8
DEFAULT_255_2_778
10
17.0845798
20
105.9924611
40
0.5036389
50
52.814306
51
78.1469212
0
ARC
8
DEFAULT_255_2_778
10
17.1732245
20
106.1207438
40
0.3479303
50
357.5432245
51
51.6759047
0
ARC
8
DEFAULT_255_2_778
10
16.9814613
20
106.1061938
40
0.5393738
50
356.248244
51
359.9613012
0
ARC
8
DEFAULT_255_2_778
10
17.128092
20
106.0935882
40
0.3922439
50
295.0867564
51
356.6841236
0
ARC
8
DEFAULT_255_2_778
10
16.9599154
20
106.3563279
40
0.7026958
50
292.6018649
51
298.4245718
0
ARC
8
DEFAULT_255_2_778
10
17.1412835
20
105.443675
40
0.2784307
50
29.5992916
51
71.4243751
0
ARC
8
DEFAULT_255_2_778
10
17.0686219
20
105.4014727
40
0.3624559
50
358.8250622
51
29.7265593
0
ARC
8
DEFAULT_255_2_778
10
16.932071
20
105.3943262
40
0.4989307
50
356.3312443
51
359.9671937
0
ARC
8
DEFAULT_255_2_778
10
16.9581925
20
105.3755387
40
0.4719696
50
307.6792206
51
358.4048608
0
ARC
8
DEFAULT_255_2_778
10
16.8807048
20
105.4963643
40
0.6150877
50
279.1080464
51
306.5123219
0
ARC
8
DEFAULT_255_2_778
10
16.7961448
20
105.9184116
40
1.0453321
50
269.63465
51
280.0226117
0
ARC
8
DEFAULT_255_2_778
10
16.8094212
20
105.4835308
40
0.3407431
50
267.9747348
51
304.6141501
0
ARC
8
DEFAULT_255_2_778
10
16.8661516
20
105.3973067
40
0.2375665
50
305.166569
51
352.3059676
0
ARC
8
DEFAULT_255_2_778
10
16.775822
20
105.4183166
40
0.3300111
50
350.7906063
51
359.6837465
0
ARC
8
DEFAULT_255_2_778
10
16.9356152
20
105.4239465
40
0.170376
50
357.4933304
51
35.754963
0
ARC
8
DEFAULT_255_2_778
10
16.9423472
20
105.4096963
40
0.1739313
50
40.8670445
51
88.9145542
0
ARC
8
DEFAULT_255_2_778
10
16.9113357
20
105.2244792
40
0.360752
50
84.5431107
51
87.5464559
0
ARC
8
DEFAULT_255_2_778
10
16.8864523
20
106.1965688
40
0.3741259
50
268.9933192
51
299.9063201
0
ARC
8
DEFAULT_255_2_778
10
16.9296435
20
106.1037438
40
0.2722705
50
301.7671328
51
305.0688299
0
ARC
8
DEFAULT_255_2_778
10
16.9572403
20
106.0676463
40
0.2268776
50
304.6024496
51
352.3134516
0
ARC
8
DEFAULT_255_2_778
10
16.9035208
20
106.0783322
40
0.2815642
50
351.6205962
51
359.745937
0
ARC
8
DEFAULT_255_2_778
10
17.0391775
20
106.0844083
40
0.1460884
50
357.1260689
51
87.9509322
0
ARC
8
DEFAULT_255_2_778
10
16.9733166
20
105.8050677
40
0.4312349
50
80.5121161
51
90.1776895
0
ARC
8
DEFAULT_255_2_778
10
18.304359
20
105.1332308
40
0.6634375
50
79.3314563
51
88.7113465
0
ARC
8
DEFAULT_255_2_778
10
18.3079683
20
105.3666839
40
0.4299655
50
88.4925657
51
89.9946723
0
ARC
8
DEFAULT_255_2_778
10
18.2982438
20
105.4867608
40
0.3100425
50
88.1952228
51
143.885382
0
ARC
8
DEFAULT_255_2_778
10
18.4077805
20
105.7317129
40
0.3980768
50
117.0828142
51
147.9763761
0
ARC
8
DEFAULT_255_2_778
10
18.3544747
20
105.8150295
40
0.2997784
50
89.5977622
51
115.2613452
0
ARC
8
DEFAULT_255_2_778
10
18.3464621
20
105.6428482
40
0.4720608
50
75.0830674
51
88.7719532
0
ARC
8
DEFAULT_255_2_778
10
19.3883565
20
104.9600588
40
0.303463
50
178.9513385
51
196.6911244
0
ARC
8
DEFAULT_255_2_778
10
19.5567182
20
104.9654238
40
0.4717738
50
177.8405456
51
179.9770623
0
ARC
8
DEFAULT_255_2_778
10
18.7787325
20
105.2700947
40
0.4198561
50
270.5473861
51
316.8967404
0
ARC
8
DEFAULT_255_2_778
10
18.7827705
20
105.2804581
40
0.4302003
50
268.5226571
51
269.9964175
0
ARC
8
DEFAULT_255_2_778
10
18.7647216
20
105.2285252
40
0.3781887
50
226.455184
51
271.0541416
0
ARC
8
DEFAULT_255_2_778
10
18.7161161
20
105.1831869
40
0.311866
50
179.0506747
51
227.1894377
0
ARC
8
DEFAULT_255_2_778
10
18.7977006
20
105.1882683
40
0.3934079
50
177.4603384
51
179.9875271
0
ARC
8
DEFAULT_255_2_778
10
18.7677222
20
105.2042892
40
0.3630457
50
122.3464314
51
179.7772632
0
ARC
8
DEFAULT_255_2_778
10
18.9127921
20
104.9771577
40
0.6325515
50
98.6956815
51
122.4402135
0
ARC
8
DEFAULT_255_2_778
10
18.9977072
20
104.5221789
40
1.0952432
50
89.6404969
51
99.4883828
0
ARC
8
DEFAULT_255_2_778
10
18.91142
20
105.737456
40
0.2635833
50
349.2520325
51
359.7979352
0
ARC
8
DEFAULT_255_2_778
10
18.9485896
20
105.7366836
40
0.2264121
50
359.9602232
51
5.7075699
0
ARC
8
DEFAULT_255_2_778
10
19.0517084
20
105.7508244
40
0.1224577
50
3.9221136
51
47.9806675
0
ARC
8
DEFAULT_255_2_778
10
19.0461009
20
105.7334028
40
0.1393558
50
51.0640414
51
91.6537281
0
ARC
8
DEFAULT_255_2_778
10
19.0343864
20
105.5992856
40
0.2735232
50
88.3883484
51
89.9950272
0
ARC
8
DEFAULT_255_2_778
10
19.0289472
20
105.6771996
40
0.1956856
50
88.4002709
51
125.6558116
0
ARC
8
DEFAULT_255_2_778
10
19.0229477
20
105.6954867
40
0.1774238
50
127.5242925
51
170.6536699
0
ARC
8
DEFAULT_255_2_778
10
18.8789596
20
105.7092573
40
0.3527561
50
122.7014157
51
177.7346919
0
ARC
8
DEFAULT_255_2_778
10
19.030198
20
105.5042043
40
0.6072396
50
91.7146868
51
124.2570002
0
ARC
8
DEFAULT_255_2_778
10
19.05893
20
105.2473064
40
0.865138
50
89.9735854
51
93.1077226
0
ARC
8
DEFAULT_255_2_778
10
19.0592938
20
105.190756
40
0.9216883
50
89.4414218
51
89.9978259
0
ARC
8
DEFAULT_255_2_778
10
19.0704714
20
105.5922068
40
0.5201984
50
63.6868659
51
90.2414521
0
ARC
8
DEFAULT_255_2_778
10
19.1244671
20
105.7201249
40
0.3816898
50
44.805062
51
62.4405121
0
ARC
8
DEFAULT_255_2_778
10
19.1511934
20
105.7443957
40
0.3456276
50
358.4368244
51
45.0725574
0
ARC
8
DEFAULT_255_2_778
10
18.9988451
20
105.7357092
40
0.4978477
50
354.0151208
51
359.9146153
0
ARC
8
DEFAULT_255_2_778
10
19.916384
20
105.0134006
40
0.5223437
50
178.2666392
51
179.9853875
0
ARC
8
DEFAULT_255_2_778
10
19.7189724
20
105.0055635
40
0.3250299
50
178.5948625
51
200.018038
0
ARC
8
DEFAULT_255_2_778
10
18.8607749
20
105.3944835
40
0.2979407
50
268.1351457
51
269.9967975
0
ARC
8
DEFAULT_255_2_778
10
18.8555143
20
105.3919809
40
0.2954847
50
271.0168715
51
323.4470831
0
ARC
8
DEFAULT_255_2_778
10
19.0185177
20
105.0324003
40
0.3950093
50
89.6139406
51
115.9632081
0
ARC
8
DEFAULT_255_2_778
10
18.9568146
20
105.1735476
40
0.2411766
50
117.4642621
51
142.4598629
0
ARC
8
DEFAULT_255_2_778
10
18.9147894
20
105.2104762
40
0.1853888
50
143.595728
51
174.110017
0
ARC
8
DEFAULT_255_2_778
10
18.8922711
20
105.2049244
40
0.1637466
50
171.368069
51
179.7835889
0
ARC
8
DEFAULT_255_2_778
10
18.8267207
20
105.2018088
40
0.098266
50
177.8221965
51
224.0379617
0
ARC
8
DEFAULT_255_2_778
10
18.8464576
20
105.2268517
40
0.1299333
50
225.9269812
51
272.0384171
0
ARC
8
DEFAULT_255_2_778
10
20.216987
20
105.7619976
40
0.3515032
50
37.8132465
51
89.9360651
0
ARC
8
DEFAULT_255_2_778
10
20.0346749
20
105.2717418
40
0.4267183
50
285.291584
51
321.0175046
0
ARC
8
DEFAULT_255_2_778
10
20.0570669
20
105.2255225
40
0.3763475
50
269.8450062
51
283.8588709
0
ARC
8
DEFAULT_255_2_778
10
20.0560587
20
105.2582286
40
0.4090522
50
268.5880369
51
269.9986183
0
ARC
8
DEFAULT_255_2_778
10
20.0420305
20
105.2050487
40
0.3557701
50
236.3475668
51
270.6359501
0
ARC
8
DEFAULT_255_2_778
10
20.0598141
20
105.2165321
40
0.3752788
50
201.8435891
51
235.058908
0
ARC
8
DEFAULT_255_2_778
10
20.3322211
20
105.3355871
40
0.6724873
50
181.1917384
51
202.6233367
0
ARC
8
DEFAULT_255_2_778
10
20.6351677
20
105.3686339
40
0.9764219
50
180.0156472
51
182.7609519
0
ARC
8
DEFAULT_255_2_778
10
20.5470549
20
105.3692658
40
0.8883095
50
174.2087211
51
180.0579587
0
ARC
8
DEFAULT_255_2_778
10
20.6346038
20
105.3821468
40
0.9727968
50
152.6606942
51
172.4775279
0
ARC
8
DEFAULT_255_2_778
10
20.4685375
20
105.4566269
40
0.7911386
50
151.1967159
51
151.9287309
0
ARC
8
DEFAULT_255_2_778
10
20.2724416
20
105.5806657
40
0.559722
50
125.8155177
51
152.6517649
0
ARC
8
DEFAULT_255_2_778
10
20.1926864
20
105.6751789
40
0.4365104
50
121.2895022
51
124.5859333
0
ARC
8
DEFAULT_255_2_778
10
20.2005174
20
105.6608255
40
0.4528439
50
89.3885498
51
121.1930117
0
ARC
8
DEFAULT_255_2_778
10
20.205315
20
105.5790492
40
0.5345942
50
88.6747242
51
89.9962477
0
ARC
8
DEFAULT_255_2_778
10
21.0229427
20
105.3416181
40
1.044966
50
173.5557888
51
179.5636493
0
ARC
8
DEFAULT_255_2_778
10
20.5582157
20
105.348589
40
0.5802095
50
179.9025124
51
183.3187157
0
ARC
8
DEFAULT_255_2_778
10
20.270534
20
105.319649
40
0.2915917
50
180.9134286
51
207.6247443
0
ARC
8
DEFAULT_255_2_778
10
20.135005
20
105.2552881
40
0.1417894
50
209.9763709
51
272.172214
0
ARC
8
DEFAULT_255_2_778
10
20.1512082
20
105.3790383
40
0.2656585
50
267.6638236
51
269.9934853
0
ARC
8
DEFAULT_255_2_778
10
20.1452669
20
105.3828962
40
0.2695812
50
271.2564257
51
323.4819236
0
ARC
8
DEFAULT_255_2_778
10
20.0042443
20
105.5217425
40
0.4663623
50
320.0808185
51
322.7722781
0
ARC
8
DEFAULT_255_2_778
10
20.2905955
20
105.6680938
40
0.1811681
50
17.7085133
51
91.4917236
0
ARC
8
DEFAULT_255_2_778
10
20.2776466
20
105.5673302
40
0.2819906
50
88.3270304
51
89.9962875
0
ARC
8
DEFAULT_255_2_778
10
20.2751839
20
105.6154886
40
0.2338453
50
89.3920923
51
141.8934507
0
ARC
8
DEFAULT_255_2_778
10
20.4150372
20
105.5058724
40
0.411538
50
141.9009784
51
164.0634131
0
ARC
8
DEFAULT_255_2_778
10
20.9401614
20
105.3381385
40
0.9626867
50
163.0454941
51
172.7936709
0
LINE
8
DEFAULT_255_2_778
10
14.1790793
20
106.0902006
11
14.4788793
21
106.0913006
0
LINE
8
DEFAULT_255_2_778
10
14.4788793
20
106.0913006
11
14.4515793
21
105.9473006
0
LINE
8
DEFAULT_255_2_778
10
15.1262793
20
105.6470006
11
14.9968793
21
104.8731006
0
LINE
8
DEFAULT_255_2_778
10
14.9968793
20
104.8731006
11
14.6764793
21
104.8731006
0
LINE
8
DEFAULT_255_2_778
10
14.6764793
20
104.8731006
11
14.8082793
21
105.6502006
0
LINE
8
DEFAULT_255_2_778
10
14.4391793
20
105.7322006
11
14.2856793
21
104.8729006
0
LINE
8
DEFAULT_255_2_778
10
14.2856793
20
104.8729006
11
13.9652793
21
104.8729006
0
LINE
8
DEFAULT_255_2_778
10
13.9652793
20
104.8729006
11
14.1787793
21
106.0900006
0
LINE
8
DEFAULT_255_2_778
10
14.1787793
20
106.0900006
11
14.1790793
21
106.0902006
0
LINE
8
DEFAULT_255_2_778
10
16.0157793
20
105.7053006
11
15.9692793
21
105.4433006
0
LINE
8
DEFAULT_255_2_778
10
15.9692793
20
105.4433006
11
15.3466793
21
105.4433006
0
LINE
8
DEFAULT_255_2_778
10
15.3466793
20
105.4433006
11
15.3921793
21
105.7053006
0
LINE
8
DEFAULT_255_2_778
10
15.3921793
20
105.7053006
11
16.0157793
21
105.7053006
0
LINE
8
DEFAULT_255_2_778
10
16.0157793
20
105.7053006
11
16.0157793
21
105.7053006
0
LINE
8
DEFAULT_255_2_778
10
16.7894793
20
104.8731006
11
16.1544793
21
104.8731006
0
LINE
8
DEFAULT_255_2_778
10
16.1544793
20
104.8731006
11
16.4417793
21
106.5106006
0
LINE
8
DEFAULT_255_2_778
10
16.4417793
20
106.5106006
11
16.9574793
21
106.5096006
0
LINE
8
DEFAULT_255_2_778
10
16.7894793
20
104.8731006
11
16.7894793
21
104.8731006
0
LINE
8
DEFAULT_255_2_778
10
16.9267793
20
105.5851006
11
16.6131793
21
105.5862006
0
LINE
8
DEFAULT_255_2_778
10
16.6131793
20
105.5862006
11
16.5348793
21
105.1441006
0
LINE
8
DEFAULT_255_2_778
10
16.5348793
20
105.1441006
11
16.7973793
21
105.1430006
0
LINE
8
DEFAULT_255_2_778
10
16.9267793
20
105.5849006
11
16.9267793
21
105.5851006
0
LINE
8
DEFAULT_255_2_778
10
16.7267793
20
106.2376006
11
16.6539793
21
105.8248006
0
LINE
8
DEFAULT_255_2_778
10
16.6539793
20
105.8248006
11
16.8798793
21
105.8225006
0
LINE
8
DEFAULT_255_2_778
10
16.9719793
20
106.2363006
11
16.7267793
21
106.2373006
0
LINE
8
DEFAULT_255_2_778
10
16.7267793
20
106.2373006
11
16.7267793
21
106.2376006
0
LINE
8
DEFAULT_255_2_778
10
18.4681793
20
106.0990006
11
18.4271793
21
105.7852006
0
LINE
8
DEFAULT_255_2_778
10
18.0477793
20
105.6695006
11
17.9056793
21
104.8731006
0
LINE
8
DEFAULT_255_2_778
10
17.9056793
20
104.8731006
11
17.5852793
21
104.8731006
0
LINE
8
DEFAULT_255_2_778
10
17.5852793
20
104.8731006
11
17.7987793
21
106.0902006
0
LINE
8
DEFAULT_255_2_778
10
17.7987793
20
106.0902006
11
18.0998793
21
106.0913006
0
LINE
8
DEFAULT_255_2_778
10
18.0998793
20
106.0913006
11
18.0702793
21
105.9428006
0
LINE
8
DEFAULT_255_2_778
10
18.4679793
20
106.0990006
11
18.4681793
21
106.0990006
0
LINE
8
DEFAULT_255_2_778
10
19.4122793
20
104.8729006
11
19.0976793
21
104.8729006
0
LINE
8
DEFAULT_255_2_778
10
19.0045793
20
105.6174006
11
19.1545793
21
105.6153006
0
LINE
8
DEFAULT_255_2_778
10
19.1545793
20
105.6153006
11
19.1703793
21
105.6883006
0
LINE
8
DEFAULT_255_2_778
10
18.8478793
20
105.7243006
11
18.5264793
21
105.7232006
0
LINE
8
DEFAULT_255_2_778
10
19.4939793
20
105.6838006
11
19.3997793
21
105.1012006
0
LINE
8
DEFAULT_255_2_778
10
19.3997793
20
105.1012006
11
19.3942793
21
105.0292006
0
LINE
8
DEFAULT_255_2_778
10
19.4135793
20
104.8943006
11
19.4124793
21
104.8729006
0
LINE
8
DEFAULT_255_2_778
10
19.4124793
20
104.8729006
11
19.4122793
21
104.8729006
0
LINE
8
DEFAULT_255_2_778
10
19.0928793
20
105.2160006
11
19.1325793
21
105.4264006
0
LINE
8
DEFAULT_255_2_778
10
19.1325793
20
105.4264006
11
19.0211793
21
105.4274006
0
LINE
8
DEFAULT_255_2_778
10
18.8510793
20
105.0970006
11
18.8510793
21
105.0967006
0
LINE
8
DEFAULT_255_2_778
10
20.4946793
20
105.9775006
11
20.6150793
21
106.6006006
0
LINE
8
DEFAULT_255_2_778
10
20.6150793
20
106.6006006
11
20.9364793
21
106.6006006
0
LINE
8
DEFAULT_255_2_778
10
20.9364793
20
106.6006006
11
20.6343793
21
104.8729006
0
LINE
8
DEFAULT_255_2_778
10
20.6343793
20
104.8729006
11
20.3480793
21
104.8729006
0
LINE
8
DEFAULT_255_2_778
10
20.3480793
20
104.8729006
11
20.3663793
21
105.0033006
0
LINE
8
DEFAULT_255_2_778
10
19.6632793
20
105.4589006
11
19.6701793
21
105.5095006
0
LINE
8
DEFAULT_255_2_778
10
20.2176793
20
106.1135006
11
20.2173793
21
106.1135006
0
LINE
8
DEFAULT_255_2_778
10
20.3755793
20
105.2396006
11
20.4631793
21
105.7232006
0
LINE
8
DEFAULT_255_2_778
10
19.9850793
20
105.4589006
11
19.9845793
21
105.4589006
0
LINE
8
DEFAULT_255_2_778
10
21.5304594
20
106.6006646
11
21.2282594
21
104.8729646
0
LINE
8
DEFAULT_255_2_778
10
21.2282594
20
104.8729646
11
20.9057594
21
104.8729646
0
LINE
8
DEFAULT_255_2_778
10
20.9057594
20
104.8729646
11
21.2089594
21
106.6006646
0
LINE
8
DEFAULT_255_2_778
10
21.2089594
20
106.6006646
11
21.5304594
21
106.6006646
0
LINE
8
DEFAULT_255_2_778
10
21.5304594
20
106.6006646
11
21.5304594
21
106.6006646
0
ARC
8
DEFAULT_255_2_778
10
22.0768767
20
105.3887764
40
0.5383522
50
238.763891
51
270.7055166
0
ARC
8
DEFAULT_255_2_778
10
22.0455625
20
105.333452
40
0.4748131
50
204.061185
51
238.5328679
0
ARC
8
DEFAULT_255_2_778
10
22.1281681
20
105.3730331
40
0.5663841
50
179.4896096
51
204.3103027
0
ARC
8
DEFAULT_255_2_778
10
22.2521843
20
105.3775727
40
0.6903781
50
175.123126
51
179.9580366
0
ARC
8
DEFAULT_255_2_778
10
22.3438479
20
105.4125152
40
0.7790728
50
149.5392097
51
174.9446897
0
ARC
8
DEFAULT_255_2_778
10
22.217984
20
105.4960212
40
0.628301
50
120.7003982
51
150.2846053
0
ARC
8
DEFAULT_255_2_778
10
22.1784851
20
105.5557024
40
0.556829
50
89.4236852
51
120.3409826
0
ARC
8
DEFAULT_255_2_778
10
22.1840352
20
105.4569671
40
0.6555361
50
88.4553682
51
89.9955718
0
ARC
8
DEFAULT_255_2_778
10
22.2069363
20
105.6411369
40
0.4711572
50
58.4514404
51
90.636095
0
ARC
8
DEFAULT_255_2_778
10
22.2332403
20
105.7045423
40
0.403504
50
35.6058989
51
56.9235594
0
ARC
8
DEFAULT_255_2_778
10
22.1229882
20
105.6307058
40
0.5361477
50
0.6851965
51
35.1616077
0
ARC
8
DEFAULT_255_2_778
10
21.9204313
20
105.6103229
40
0.7391521
50
359.9888194
51
2.0774415
0
ARC
8
DEFAULT_255_2_778
10
21.8068025
20
105.6120249
40
0.852783
50
353.383538
51
359.8759623
0
ARC
8
DEFAULT_255_2_778
10
22.293021
20
105.3596119
40
0.4107176
50
177.8018731
51
179.9839782
0
ARC
8
DEFAULT_255_2_778
10
22.1344217
20
105.348124
40
0.2523852
50
177.3650374
51
219.8309448
0
ARC
8
DEFAULT_255_2_778
10
22.1050068
20
105.3348401
40
0.2214564
50
222.0668323
51
271.55222
0
ARC
8
DEFAULT_255_2_778
10
22.1220002
20
105.5396289
40
0.4263057
50
268.5221572
51
269.9980687
0
ARC
8
DEFAULT_255_2_778
10
22.1204001
20
105.5100217
40
0.3967017
50
270.2290309
51
318.5203973
0
ARC
8
DEFAULT_255_2_778
10
22.1898056
20
105.3267979
40
0.4555006
50
292.4982989
51
325.2807674
0
ARC
8
DEFAULT_255_2_778
10
22.0999907
20
105.5053545
40
0.6549996
50
269.6158853
51
293.7802026
0
ARC
8
DEFAULT_255_2_778
10
22.0956026
20
105.592233
40
0.7418635
50
269.0811303
51
269.9997673
0
ARC
8
DEFAULT_255_2_778
10
22.1793249
20
105.5851977
40
0.2651417
50
88.6426435
51
89.9971979
0
ARC
8
DEFAULT_255_2_778
10
22.1775009
20
105.6204788
40
0.2298681
50
89.5421073
51
130.5025885
0
ARC
8
DEFAULT_255_2_778
10
22.2762398
20
105.5203327
40
0.370282
50
132.0556576
51
154.4346079
0
ARC
8
DEFAULT_255_2_778
10
22.6775288
20
105.3027869
40
0.8264843
50
152.8348001
51
159.2008974
0
ARC
8
DEFAULT_255_2_778
10
22.042515
20
105.6737268
40
0.3137404
50
351.1327381
51
359.8552777
0
ARC
8
DEFAULT_255_2_778
10
22.0889744
20
105.6733274
40
0.2672803
50
359.9157472
51
8.073482
0
ARC
8
DEFAULT_255_2_778
10
22.1916726
20
105.6886276
40
0.1634528
50
7.8192239
51
49.4174523
0
ARC
8
DEFAULT_255_2_778
10
22.1897336
20
105.6754377
40
0.174876
50
51.746929
51
91.3525911
0
LINE
8
DEFAULT_255_2_778
10
21.5643056
20
105.436265
11
21.5678056
21
105.481165
0
LINE
8
DEFAULT_255_2_778
10
22.6539056
20
105.513765
11
22.6356056
21
105.375365
0
LINE
8
DEFAULT_255_2_778
10
22.6356056
20
105.375365
11
21.8826056
21
105.375365
0
LINE
8
DEFAULT_255_2_778
10
22.4176056
20
105.247265
11
22.5642056
21
105.067365
0
LINE
8
DEFAULT_255_2_778
10
22.0837056
20
104.850465
11
22.0835056
21
104.850465
0
LINE
8
DEFAULT_255_2_778
10
21.9049056
20
105.596265
11
22.3456056
21
105.596265
0
LINE
8
DEFAULT_255_2_778
10
22.3456056
20
105.596265
11
22.3525056
21
105.625365
0
LINE
8
DEFAULT_255_2_778
10
22.1856056
20
105.850265
11
22.1856056
21
105.850265
0
ARC
8
DEFAULT_255_2_778
10
22.5732251
20
104.9893848
40
0.7187609
50
318.1171527
51
335.3457065
0
ARC
8
DEFAULT_255_2_778
10
22.7861338
20
104.8072586
40
0.4387075
50
306.2044829
51
317.2623563
0
ARC
8
DEFAULT_255_2_778
10
22.8118587
20
104.7765063
40
0.3987066
50
269.0092455
51
305.8318035
0
ARC
8
DEFAULT_255_2_778
10
22.8209703
20
104.9411254
40
0.5634934
50
257.9736769
51
268.3723286
0
ARC
8
DEFAULT_255_2_778
10
22.976467
20
105.7953273
40
1.431581
50
256.8370098
51
259.0102636
0
ARC
8
DEFAULT_255_2_778
10
22.7299218
20
105.043381
40
0.396887
50
268.3457775
51
269.9906226
0
ARC
8
DEFAULT_255_2_778
10
22.744688
20
104.8839479
40
0.2379166
50
266.425992
51
328.6474802
0
LINE
8
DEFAULT_255_2_778
10
23.1491646
20
106.0899594
11
23.2378646
21
105.3364594
0
LINE
8
DEFAULT_255_2_778
10
23.2378646
20
105.3364594
11
23.5889646
21
106.0899594
0
LINE
8
DEFAULT_255_2_778
10
23.5889646
20
106.0899594
11
23.9453646
21
106.0899594
0
LINE
8
DEFAULT_255_2_778
10
23.9453646
20
106.0899594
11
23.2264646
21
104.6895594
0
LINE
8
DEFAULT_255_2_778
10
22.6504646
20
104.4013594
11
22.6742646
21
104.6487594
0
LINE
8
DEFAULT_255_2_778
10
22.6742646
20
104.6487594
11
22.7184646
21
104.6466594
0
LINE
8
DEFAULT_255_2_778
10
22.9478646
20
104.7601594
11
23.0182646
21
104.8895594
0
LINE
8
DEFAULT_255_2_778
10
23.0182646
20
104.8895594
11
22.8171646
21
106.0896594
0
LINE
8
DEFAULT_255_2_778
10
22.8171646
20
106.0896594
11
23.1489646
21
106.0896594
0
LINE
8
DEFAULT_255_2_778
10
23.1489646
20
106.0896594
11
23.1491646
21
106.0899594
0
LINE
8
DEFAULT_255_2_778
10
5.4244542
20
106.4894666
11
5.4244542
21
105.3041666
0
LINE
8
DEFAULT_255_2_778
10
5.4244542
20
105.3041666
11
8.3507542
21
105.2671666
0
LINE
8
DEFAULT_255_2_778
10
8.3507542
20
105.2671666
11
8.3507542
21
106.4894666
0
LINE
8
DEFAULT_255_2_778
10
8.3507542
20
106.4894666
11
7.4246542
21
107.3414666
0
LINE
8
DEFAULT_255_2_778
10
7.4246542
20
107.3414666
11
6.2764542
21
107.3414666
0
LINE
8
DEFAULT_255_2_778
10
6.2764542
20
107.3414666
11
5.4244542
21
106.4894666
0
LINE
8
DEFAULT_255_2_778
10
5.5726542
20
105.0819666
11
8.2025542
21
105.0819666
0
LINE
8
DEFAULT_255_2_778
10
8.2025542
20
105.0819666
11
7.4617542
21
104.3781666
0
LINE
8
DEFAULT_255_2_778
10
7.4617542
20
104.3781666
11
6.3504542
21
104.3781666
0
LINE
8
DEFAULT_255_2_778
10
6.3504542
20
104.3781666
11
5.5726542
21
105.0819666
0
ARC
8
DEFAULT_255_2_778
10
7.8458226
20
105.6310768
40
0.1423419
50
264.5115721
51
318.4176283
0
ARC
8
DEFAULT_255_2_778
10
7.8189879
20
105.6281225
40
0.1616977
50
325.5297452
51
3.3557414
0
ARC
8
DEFAULT_255_2_778
10
7.8389795
20
105.9846157
40
0.142084
50
354.4959081
51
48.5537602
0
ARC
8
DEFAULT_255_2_778
10
7.8416444
20
105.9574068
40
0.1619557
50
55.6500697
51
93.3401169
0
ARC
8
DEFAULT_255_2_778
10
7.8414709
20
106.183925
40
0.0654958
50
261.8698976
51
8.1301024
0
ARC
8
DEFAULT_255_2_778
10
7.7988672
20
106.5666455
40
0.1074847
50
358.3696885
51
95.9524071
0
ARC
8
DEFAULT_255_2_778
10
7.7588839
20
106.3382916
40
0.3364968
50
85.0838783
51
90.1320543
0
LINE
8
DEFAULT_255_2_778
10
5.6838084
20
105.4893875
11
6.1283084
21
106.7117875
0
LINE
8
DEFAULT_255_2_778
10
6.1283084
20
106.7117875
11
6.3876084
21
106.7117875
0
LINE
8
DEFAULT_255_2_778
10
6.3876084
20
106.7117875
11
6.8691084
21
105.5264875
0
LINE
8
DEFAULT_255_2_778
10
6.8691084
20
105.5264875
11
6.5358084
21
105.5264875
0
LINE
8
DEFAULT_255_2_778
10
6.5358084
20
105.5264875
11
6.4246084
21
105.7857875
0
LINE
8
DEFAULT_255_2_778
10
6.4246084
20
105.7857875
11
6.0913084
21
105.7857875
0
LINE
8
DEFAULT_255_2_778
10
6.0913084
20
105.7857875
11
6.0913084
21
105.9338875
0
LINE
8
DEFAULT_255_2_778
10
6.0913084
20
105.9338875
11
6.3876084
21
105.9338875
0
LINE
8
DEFAULT_255_2_778
10
6.3876084
20
105.9338875
11
6.2024084
21
106.3783875
0
LINE
8
DEFAULT_255_2_778
10
6.2024084
20
106.3783875
11
5.8690084
21
105.4893875
0
LINE
8
DEFAULT_255_2_778
10
5.8690084
20
105.4893875
11
5.6838084
21
105.4893875
0
LINE
8
DEFAULT_255_2_778
10
5.6838084
20
105.4893875
11
5.6838084
21
105.4893875
0
LINE
8
DEFAULT_255_2_778
10
6.7580084
20
106.1561875
11
6.9062084
21
106.1561875
0
LINE
8
DEFAULT_255_2_778
10
6.9062084
20
106.1561875
11
6.9062084
21
106.0079875
0
LINE
8
DEFAULT_255_2_778
10
6.9062084
20
106.0079875
11
6.7580084
21
106.0079875
0
LINE
8
DEFAULT_255_2_778
10
6.7580084
20
106.0079875
11
6.7580084
21
106.1561875
0
LINE
8
DEFAULT_255_2_778
10
7.2766084
20
106.4895875
11
7.6100084
21
106.4895875
0
LINE
8
DEFAULT_255_2_778
10
7.6100084
20
106.4895875
11
7.6100084
21
106.1190875
0
LINE
8
DEFAULT_255_2_778
10
7.6100084
20
106.1190875
11
7.3507084
21
106.1190875
0
LINE
8
DEFAULT_255_2_778
10
7.3507084
20
106.1190875
11
7.3507084
21
105.9709875
0
LINE
8
DEFAULT_255_2_778
10
7.3507084
20
105.9709875
11
7.6840084
21
105.9709875
0
LINE
8
DEFAULT_255_2_778
10
7.6840084
20
105.9709875
11
7.6840084
21
105.6375875
0
LINE
8
DEFAULT_255_2_778
10
7.6840084
20
105.6375875
11
7.2766084
21
105.6375875
0
LINE
8
DEFAULT_255_2_778
10
7.2766084
20
105.6375875
11
7.2766084
21
106.4895875
0
LINE
8
DEFAULT_255_2_778
10
7.2766084
20
106.4895875
11
7.2766084
21
106.4895875
0
LINE
8
DEFAULT_255_2_778
10
6.9803084
20
106.6747875
11
6.9803084
21
105.4893875
0
LINE
8
DEFAULT_255_2_778
10
6.9803084
20
105.4893875
11
7.8322084
21
105.4893875
0
LINE
8
DEFAULT_255_2_778
10
7.9804084
20
105.6375875
11
7.9804084
21
105.9709875
0
LINE
8
DEFAULT_255_2_778
10
7.9063084
20
106.1931875
11
7.9063084
21
106.5635875
0
LINE
8
DEFAULT_255_2_778
10
7.7581084
20
106.6747875
11
6.9803084
21
106.6747875
0
LINE
8
DEFAULT_255_2_778
10
6.9803084
20
106.6747875
11
6.9803084
21
106.6747875
0
LINE
8
DEFAULT_255_2_778
10
6.3394427
20
104.6990198
11
6.3367427
21
104.6990198
0
ARC
8
DEFAULT_255_2_778
10
6.3340483
20
104.8240854
40
0.1250946
50
247.1356448
51
271.2341787
0
ARC
8
DEFAULT_255_2_778
10
6.3160916
20
104.7817164
40
0.0790776
50
215.0349981
51
247.1960091
0
ARC
8
DEFAULT_255_2_778
10
6.3109464
20
104.7763964
40
0.0718243
50
178.625123
51
213.9163394
0
ARC
8
DEFAULT_255_2_778
10
6.3131693
20
104.8934391
40
0.0740421
50
147.0420611
51
181.175799
0
ARC
8
DEFAULT_255_2_778
10
6.3147919
20
104.8895628
40
0.0775487
50
112.4780918
51
145.2909011
0
ARC
8
DEFAULT_255_2_778
10
6.333917
20
104.8451534
40
0.1258981
50
88.7138988
51
112.7934617
0
ARC
8
DEFAULT_255_2_778
10
6.339481
20
104.8456878
40
0.1253619
50
67.159311
51
91.2516049
0
ARC
8
DEFAULT_255_2_778
10
6.3569794
20
104.8876852
40
0.0798654
50
35.1978461
51
67.0331611
0
ARC
8
DEFAULT_255_2_778
10
6.3626391
20
104.8936431
40
0.0718243
50
358.625123
51
33.9163394
0
ARC
8
DEFAULT_255_2_778
10
6.3604162
20
104.7766004
40
0.0740421
50
327.0420611
51
1.175799
0
ARC
8
DEFAULT_255_2_778
10
6.361381
20
104.7778218
40
0.0739133
50
291.6436853
51
325.8406333
0
ARC
8
DEFAULT_255_2_778
10
6.3401809
20
104.786874
40
0.0482768
50
265.9160158
51
308.3617549
0
ARC
8
DEFAULT_255_2_778
10
6.3451719
20
104.7758207
40
0.036631
50
312.9754563
51
3.2850623
0
ARC
8
DEFAULT_255_2_778
10
6.3448152
20
104.893502
40
0.0369754
50
357.082104
51
47.4006092
0
ARC
8
DEFAULT_255_2_778
10
6.339634
20
104.8833686
40
0.0480383
50
51.0349629
51
93.4505724
0
ARC
8
DEFAULT_255_2_778
10
6.3340455
20
104.883049
40
0.0483461
50
86.8017862
51
128.8135095
0
ARC
8
DEFAULT_255_2_778
10
6.3287702
20
104.893502
40
0.0369754
50
132.5993908
51
182.917896
0
ARC
8
DEFAULT_255_2_778
10
6.3284135
20
104.7758207
40
0.036631
50
176.7149377
51
227.0245437
0
ARC
8
DEFAULT_255_2_778
10
6.3334908
20
104.787186
40
0.0485752
50
231.7867693
51
273.8385805
0
ARC
8
DEFAULT_255_2_778
10
6.5570034
20
104.7755567
40
0.0766655
50
226.2029837
51
273.3195937
0
ARC
8
DEFAULT_255_2_778
10
6.5622798
20
104.7735746
40
0.0790566
50
176.8492311
51
222.4458356
0
ARC
8
DEFAULT_255_2_778
10
6.5699928
20
104.7754647
40
0.043631
50
176.5112098
51
217.639275
0
ARC
8
DEFAULT_255_2_778
10
6.5593879
20
104.7703664
40
0.0322122
50
221.9818643
51
273.6574471
0
ARC
8
DEFAULT_255_2_778
10
6.5632217
20
104.7708151
40
0.0326438
50
266.8760675
51
317.6392064
0
ARC
8
DEFAULT_255_2_778
10
6.5527926
20
104.7754647
40
0.043631
50
322.360725
51
3.4887902
0
ARC
8
DEFAULT_255_2_778
10
6.5605056
20
104.7735746
40
0.0790566
50
317.5541644
51
3.1507689
0
ARC
8
DEFAULT_255_2_778
10
6.5656687
20
104.7758223
40
0.0769357
50
266.6274163
51
313.7210327
0
LINE
8
DEFAULT_255_2_778
10
6.4394427
20
104.6374198
11
6.3828427
21
104.6374198
0
LINE
8
DEFAULT_255_2_778
10
6.3828427
20
104.6374198
11
6.3394427
21
104.6990198
0
LINE
8
DEFAULT_255_2_778
10
6.2391427
20
104.7781198
11
6.2391427
21
104.8919198
0
LINE
8
DEFAULT_255_2_778
10
6.4344427
20
104.8919198
11
6.4344427
21
104.7781198
0
LINE
8
DEFAULT_255_2_778
10
6.3886427
20
104.7091198
11
6.4394427
21
104.6376198
0
LINE
8
DEFAULT_255_2_778
10
6.4394427
20
104.6376198
11
6.4394427
21
104.6374198
0
LINE
8
DEFAULT_255_2_778
10
6.3817427
20
104.7779198
11
6.3817427
21
104.8916198
0
LINE
8
DEFAULT_255_2_778
10
6.2918427
20
104.8916198
11
6.2918427
21
104.7779198
0
LINE
8
DEFAULT_255_2_778
10
6.3367427
20
104.7387198
11
6.3367427
21
104.7387198
0
LINE
8
DEFAULT_255_2_778
10
6.4833427
20
104.7779198
11
6.4833427
21
104.9670198
0
LINE
8
DEFAULT_255_2_778
10
6.4833427
20
104.9670198
11
6.5264427
21
104.9670198
0
LINE
8
DEFAULT_255_2_778
10
6.5264427
20
104.9670198
11
6.5264427
21
104.7781198
0
LINE
8
DEFAULT_255_2_778
10
6.5963427
20
104.7781198
11
6.5963427
21
104.9670198
0
LINE
8
DEFAULT_255_2_778
10
6.5963427
20
104.9670198
11
6.6394427
21
104.9670198
0
LINE
8
DEFAULT_255_2_778
10
6.6394427
20
104.9670198
11
6.6394427
21
104.7779198
0
LINE
8
DEFAULT_255_2_778
10
6.5611427
20
104.6990198
11
6.5614427
21
104.6990198
0
ARC
8
DEFAULT_255_2_778
10
12.1641553
20
106.0021635
40
5.5033955
50
191.4837585
51
191.8239227
0
ARC
8
DEFAULT_255_2_778
10
8.3589245
20
105.1983972
40
1.6145995
50
189.6626565
51
190.4158531
0
ARC
8
DEFAULT_255_2_778
10
6.1197449
20
105.0312409
40
0.6557616
50
349.0334606
51
350.8880298
0
ARC
8
DEFAULT_255_2_778
10
6.0674183
20
105.0348866
40
0.7078549
50
346.9283592
51
349.5494987
0
ARC
8
DEFAULT_255_2_778
10
7.2958769
20
104.8040243
40
0.1856762
50
15.5793022
51
22.5708948
0
ARC
8
DEFAULT_255_2_778
10
7.3328007
20
104.8088058
40
0.1489195
50
11.1061152
51
17.6230497
0
ARC
8
DEFAULT_255_2_778
10
8.063214
20
104.6930593
40
0.6018696
50
164.5010167
51
166.1150622
0
ARC
8
DEFAULT_255_2_778
10
7.6620856
20
104.8040243
40
0.1856762
50
157.4291052
51
164.4206978
0
LINE
8
DEFAULT_255_2_778
10
6.7201313
20
104.7024917
11
6.6762313
21
104.7024917
0
LINE
8
DEFAULT_255_2_778
10
6.6762313
20
104.7024917
11
6.7392313
21
104.9670917
0
LINE
8
DEFAULT_255_2_778
10
6.7392313
20
104.9670917
11
6.7942313
21
104.9670917
0
LINE
8
DEFAULT_255_2_778
10
6.7942313
20
104.9670917
11
6.8577313
21
104.7024917
0
LINE
8
DEFAULT_255_2_778
10
6.8577313
20
104.7024917
11
6.8138313
21
104.7024917
0
LINE
8
DEFAULT_255_2_778
10
6.8138313
20
104.7024917
11
6.8000313
21
104.7664917
0
LINE
8
DEFAULT_255_2_778
10
6.8000313
20
104.7664917
11
6.7336313
21
104.7664917
0
LINE
8
DEFAULT_255_2_778
10
6.7336313
20
104.7664917
11
6.7199313
21
104.7024917
0
LINE
8
DEFAULT_255_2_778
10
6.7199313
20
104.7024917
11
6.7201313
21
104.7024917
0
LINE
8
DEFAULT_255_2_778
10
6.7569313
20
104.8749917
11
6.7418313
21
104.8035917
0
LINE
8
DEFAULT_255_2_778
10
6.7418313
20
104.8035917
11
6.7926313
21
104.8035917
0
LINE
8
DEFAULT_255_2_778
10
6.7926313
20
104.8035917
11
6.7775313
21
104.8744917
0
LINE
8
DEFAULT_255_2_778
10
6.7569313
20
104.8747917
11
6.7569313
21
104.8749917
0
LINE
8
DEFAULT_255_2_778
10
7.0231313
20
104.7024917
11
6.8741313
21
104.7024917
0
LINE
8
DEFAULT_255_2_778
10
6.8741313
20
104.7024917
11
6.8741313
21
104.9670917
0
LINE
8
DEFAULT_255_2_778
10
6.8741313
20
104.9670917
11
6.9170313
21
104.9670917
0
LINE
8
DEFAULT_255_2_778
10
6.9170313
20
104.9670917
11
6.9170313
21
104.7434917
0
LINE
8
DEFAULT_255_2_778
10
6.9170313
20
104.7434917
11
7.0231313
21
104.7434917
0
LINE
8
DEFAULT_255_2_778
10
7.0231313
20
104.7434917
11
7.0231313
21
104.7024917
0
LINE
8
DEFAULT_255_2_778
10
7.0231313
20
104.7024917
11
7.0231313
21
104.7024917
0
LINE
8
DEFAULT_255_2_778
10
7.1760313
20
104.7024917
11
7.0321313
21
104.7024917
0
LINE
8
DEFAULT_255_2_778
10
7.0321313
20
104.7024917
11
7.0321313
21
104.7434917
0
LINE
8
DEFAULT_255_2_778
10
7.0321313
20
104.7434917
11
7.0823313
21
104.7434917
0
LINE
8
DEFAULT_255_2_778
10
7.0823313
20
104.7434917
11
7.0823313
21
104.9260917
0
LINE
8
DEFAULT_255_2_778
10
7.0823313
20
104.9260917
11
7.0321313
21
104.9260917
0
LINE
8
DEFAULT_255_2_778
10
7.0321313
20
104.9260917
11
7.0321313
21
104.9670917
0
LINE
8
DEFAULT_255_2_778
10
7.0321313
20
104.9670917
11
7.1760313
21
104.9670917
0
LINE
8
DEFAULT_255_2_778
10
7.1760313
20
104.9670917
11
7.1760313
21
104.9260917
0
LINE
8
DEFAULT_255_2_778
10
7.1760313
20
104.9260917
11
7.1257313
21
104.9260917
0
LINE
8
DEFAULT_255_2_778
10
7.1257313
20
104.9260917
11
7.1257313
21
104.7434917
0
LINE
8
DEFAULT_255_2_778
10
7.1257313
20
104.7434917
11
7.1760313
21
104.7434917
0
LINE
8
DEFAULT_255_2_778
10
7.1760313
20
104.7434917
11
7.1760313
21
104.7024917
0
LINE
8
DEFAULT_255_2_778
10
7.1760313
20
104.7024917
11
7.1760313
21
104.7024917
0
LINE
8
DEFAULT_255_2_778
10
7.2940313
20
104.7024917
11
7.2509313
21
104.7024917
0
LINE
8
DEFAULT_255_2_778
10
7.2509313
20
104.7024917
11
7.2509313
21
104.9260917
0
LINE
8
DEFAULT_255_2_778
10
7.2509313
20
104.9260917
11
7.1855313
21
104.9260917
0
LINE
8
DEFAULT_255_2_778
10
7.1855313
20
104.9260917
11
7.1855313
21
104.9670917
0
LINE
8
DEFAULT_255_2_778
10
7.1855313
20
104.9670917
11
7.3596313
21
104.9670917
0
LINE
8
DEFAULT_255_2_778
10
7.3596313
20
104.9670917
11
7.3596313
21
104.9260917
0
LINE
8
DEFAULT_255_2_778
10
7.3596313
20
104.9260917
11
7.2943313
21
104.9260917
0
LINE
8
DEFAULT_255_2_778
10
7.2943313
20
104.9260917
11
7.2943313
21
104.7024917
0
LINE
8
DEFAULT_255_2_778
10
7.2943313
20
104.7024917
11
7.2940313
21
104.7024917
0
LINE
8
DEFAULT_255_2_778
10
7.4996313
20
104.7024917
11
7.4565313
21
104.7024917
0
LINE
8
DEFAULT_255_2_778
10
7.4565313
20
104.7024917
11
7.4565313
21
104.7985917
0
LINE
8
DEFAULT_255_2_778
10
7.4565313
20
104.7985917
11
7.3832313
21
104.9670917
0
LINE
8
DEFAULT_255_2_778
10
7.3832313
20
104.9670917
11
7.4281313
21
104.9670917
0
LINE
8
DEFAULT_255_2_778
10
7.4281313
20
104.9670917
11
7.4673313
21
104.8752917
0
LINE
8
DEFAULT_255_2_778
10
7.4906313
20
104.8752917
11
7.5287313
21
104.9670917
0
LINE
8
DEFAULT_255_2_778
10
7.5287313
20
104.9670917
11
7.5731313
21
104.9670917
0
LINE
8
DEFAULT_255_2_778
10
7.5731313
20
104.9670917
11
7.4998313
21
104.7985917
0
LINE
8
DEFAULT_255_2_778
10
7.4998313
20
104.7985917
11
7.4998313
21
104.7024917
0
LINE
8
DEFAULT_255_2_778
10
7.4998313
20
104.7024917
11
7.4996313
21
104.7024917
0
LINE
8
DEFAULT_255_2_778
10
9.3932417
20
92.4719078
11
10.7161417
21
92.4719078
0
LINE
8
DEFAULT_255_2_778
10
10.7161417
20
92.4719078
11
10.7161417
21
51.4615078
0
LINE
8
DEFAULT_255_2_778
10
9.3932834
20
51.4614333
11
12.0390834
21
51.4614333
0
LINE
8
DEFAULT_255_2_778
10
12.0390834
20
51.4614333
11
12.0390834
21
46.1697333
0
LINE
8
DEFAULT_255_2_778
10
12.0390834
20
46.1697333
11
9.3932834
21
46.1697333
0
LINE
8
DEFAULT_255_2_778
10
9.3932834
20
46.1697333
11
9.3932834
21
51.4614333
0
ARC
8
DEFAULT_255_2_778_1
10
13.1928591
20
46.272177
40
4.816461
50
120.9442904
51
122.351755
0
ARC
8
DEFAULT_255_2_778_1
10
12.7462523
20
46.9758039
40
3.9830657
50
122.3407904
51
124.1946752
0
ARC
8
DEFAULT_255_2_778_1
10
12.3063464
20
47.6223306
40
3.2010724
50
124.1855758
51
126.4338849
0
ARC
8
DEFAULT_255_2_778_1
10
11.9204129
20
48.1450611
40
2.5513094
50
126.4326926
51
128.8877368
0
ARC
8
DEFAULT_255_2_778_1
10
11.5855968
20
48.5594658
40
2.0185498
50
128.8749205
51
131.8726567
0
ARC
8
DEFAULT_255_2_778_1
10
11.2884677
20
48.8904854
40
1.5737356
50
131.8616166
51
135.4168838
0
ARC
8
DEFAULT_255_2_778_1
10
11.025668
20
49.1486765
40
1.2053256
50
135.3893975
51
139.9687014
0
ARC
8
DEFAULT_255_2_778_1
10
10.7927889
20
49.3435102
40
0.9016937
50
139.9301659
51
145.9260426
0
ARC
8
DEFAULT_255_2_778_1
10
10.596654
20
49.4755104
40
0.6652776
50
145.8787362
51
153.8146208
0
ARC
8
DEFAULT_255_2_778_1
10
10.4445553
20
49.5498797
40
0.4959714
50
153.770634
51
164.3484794
0
ARC
8
DEFAULT_255_2_778_1
10
10.3432387
20
49.5780786
40
0.3908039
50
164.3220276
51
179.8083066
0
ARC
8
DEFAULT_255_2_778_1
10
10.3642789
20
49.586215
40
0.4118985
50
180.9499449
51
213.8111542
0
ARC
8
DEFAULT_255_2_778_1
10
10.6401828
20
49.7557896
40
0.73561
50
212.8271214
51
224.258472
0
ARC
8
DEFAULT_255_2_778_1
10
11.0230335
20
50.1251236
40
1.267567
50
224.1376218
51
231.4508261
0
ARC
8
DEFAULT_255_2_778_1
10
11.6657195
20
50.9281168
40
2.2960809
50
231.3955893
51
236.1256478
0
ARC
8
DEFAULT_255_2_778_1
10
13.4980223
20
53.6746293
40
5.5976905
50
236.2233172
51
239.1314682
0
ARC
8
DEFAULT_255_2_778_1
10
25.447927
20
73.4023568
40
28.6623793
50
238.8606853
51
239.0711101
0
ARC
8
DEFAULT_255_2_778_1
10
6.2757281
20
41.3052653
40
8.7248518
50
57.2420924
51
59.4062964
0
ARC
8
DEFAULT_255_2_778_1
10
9.5034241
20
46.3362102
40
2.747542
50
52.8289294
51
57.079028
0
ARC
8
DEFAULT_255_2_778_1
10
10.2780783
20
47.3565488
40
1.466457
50
46.3041868
51
52.8596521
0
ARC
8
DEFAULT_255_2_778_1
10
10.7103073
20
47.8066842
40
0.8424061
50
36.2174211
51
46.4090895
0
ARC
8
DEFAULT_255_2_778_1
10
10.9948088
20
48.0115128
40
0.4918609
50
17.400375
51
36.5489745
0
ARC
8
DEFAULT_255_2_778_1
10
11.1088994
20
48.0513754
40
0.3710912
50
0.0676858
51
16.7951297
0
ARC
8
DEFAULT_255_2_778_1
10
11.0878613
20
48.0532428
40
0.3921317
50
343.8035191
51
359.7912046
0
ARC
8
DEFAULT_255_2_778_1
10
10.9815912
20
48.0837167
40
0.5026844
50
333.2506233
51
343.8465691
0
ARC
8
DEFAULT_255_2_778_1
10
10.8277757
20
48.1604313
40
0.6745679
50
325.6600948
51
333.3122657
0
ARC
8
DEFAULT_255_2_778_1
10
10.6323344
20
48.2932296
40
0.9108568
50
319.7560915
51
325.6976089
0
ARC
8
DEFAULT_255_2_778_1
10
10.404199
20
48.4850002
40
1.2088854
50
315.4577584
51
319.8037947
0
ARC
8
DEFAULT_255_2_778_1
10
10.1408127
20
48.7438507
40
1.5781764
50
311.7298824
51
315.4670864
0
ARC
8
DEFAULT_255_2_778_1
10
9.8317879
20
49.0894074
40
2.0417554
50
308.723055
51
311.7470879
0
ARC
8
DEFAULT_255_2_778_1
10
9.477589
20
49.5306492
40
2.6075745
50
306.1165163
51
308.7300151
0
ARC
8
DEFAULT_255_2_778_1
10
9.0746091
20
50.0819523
40
3.2904564
50
303.9559446
51
306.1266333
0
ARC
8
DEFAULT_255_2_778_1
10
8.6630432
20
50.691215
40
4.0257023
50
302.3733397
51
303.9712246
0
ARC
8
DEFAULT_255_2_778_1
10
8.2434347
20
51.3527058
40
4.8090549
50
300.9434827
51
302.3758078
0
LINE
8
DEFAULT_255_2_778
10
10.7161417
20
46.1698078
11
10.7161417
21
5.1594078
0
LINE
8
DEFAULT_255_2_778
10
10.7161417
20
5.1594078
11
9.3932417
21
5.1594078
0
LINE
8
DEFAULT_255_1_388
10
4.8809318
20
100.0383382
11
4.8809318
21
99.9019
0
LINE
8
DEFAULT_255_1_388
10
4.8809318
20
99.9019
11
4.0189313
21
99.9019
0
LINE
8
DEFAULT_255_1_388
10
4.0189313
20
99.9019
11
4.0189313
21
100.0220741
0
LINE
8
DEFAULT_255_1_388
10
4.0189313
20
100.0220741
11
4.4743278
21
100.5280702
0
LINE
8
DEFAULT_255_1_388
10
4.1607909
20
100.8298607
11
3.9936315
21
100.8298607
0
LINE
8
DEFAULT_255_1_388
10
4.5728163
20
100.420546
11
4.2204262
21
100.0383382
0
LINE
8
DEFAULT_255_1_388
10
4.2204262
20
100.0383382
11
4.8809318
21
100.0383382
0
ARC
8
DEFAULT_255_1_388
10
2.9567337
20
101.8700983
40
2.0258655
50
318.5132526
51
320.7829045
0
ARC
8
DEFAULT_255_1_388
10
3.5515294
20
101.3859929
40
1.2589638
50
320.7372878
51
323.9739031
0
ARC
8
DEFAULT_255_1_388
10
3.9924226
20
101.0665554
40
0.7145141
50
323.8962701
51
328.64194
0
ARC
8
DEFAULT_255_1_388
10
4.2226484
20
100.9245545
40
0.4440242
50
328.8294576
51
331.7891185
0
ARC
8
DEFAULT_255_1_388
10
4.3348804
20
100.8666374
40
0.3177517
50
331.4254512
51
352.9365785
0
ARC
8
DEFAULT_255_1_388
10
4.3501804
20
100.863205
40
0.3021496
50
353.2257659
51
0.0166158
0
ARC
8
DEFAULT_255_1_388
10
4.3738564
20
100.8657894
40
0.2784847
50
359.486299
51
15.9343185
0
ARC
8
DEFAULT_255_1_388
10
4.4308831
20
100.8811269
40
0.2194403
50
16.1712913
51
43.5286088
0
ARC
8
DEFAULT_255_1_388
10
4.4395776
20
100.8898191
40
0.2071504
50
43.4417391
51
83.1661095
0
ARC
8
DEFAULT_255_1_388
10
4.4244937
20
100.8069316
40
0.2912888
50
82.160179
51
90.1505708
0
ARC
8
DEFAULT_255_1_388
10
4.4209418
20
100.7465279
40
0.3517025
50
89.5460741
51
102.5418361
0
ARC
8
DEFAULT_255_1_388
10
4.3936138
20
100.8624933
40
0.2325748
50
102.1738499
51
129.206123
0
ARC
8
DEFAULT_255_1_388
10
4.3847592
20
100.8764664
40
0.2161591
50
129.72865
51
135.753947
0
ARC
8
DEFAULT_255_1_388
10
4.3984074
20
100.8655728
40
0.2335433
50
136.1757367
51
166.3673339
0
ARC
8
DEFAULT_255_1_388
10
4.5116762
20
100.8352148
40
0.3507873
50
165.9090694
51
178.8684636
0
ARC
8
DEFAULT_255_1_388
10
4.6092534
20
100.8299263
40
0.4484624
50
178.4391136
51
180.0083808
0
ARC
8
DEFAULT_255_1_388
10
4.4513235
20
100.8343197
40
0.4577138
50
163.2878482
51
180.5581842
0
ARC
8
DEFAULT_255_1_388
10
4.3611276
20
100.8591393
40
0.3641968
50
133.4540601
51
162.947111
0
ARC
8
DEFAULT_255_1_388
10
4.3812158
20
100.8377789
40
0.3935189
50
100.7869829
51
133.4382499
0
ARC
8
DEFAULT_255_1_388
10
4.4203403
20
100.6635399
40
0.5720313
50
89.660664
51
101.3702276
0
ARC
8
DEFAULT_255_1_388
10
4.4278012
20
100.6704263
40
0.5651495
50
78.2172678
51
90.412935
0
ARC
8
DEFAULT_255_1_388
10
4.4677478
20
100.8531511
40
0.378122
50
55.9269121
51
78.4888449
0
ARC
8
DEFAULT_255_1_388
10
4.4898193
20
100.8912187
40
0.3342379
50
47.929771
51
55.4049217
0
ARC
8
DEFAULT_255_1_388
10
4.5012723
20
100.9028618
40
0.3179217
50
4.334829
51
48.0560205
0
ARC
8
DEFAULT_255_1_388
10
4.3780525
20
100.8837487
40
0.442341
50
359.9251713
51
5.5971671
0
ARC
8
DEFAULT_255_1_388
10
4.426268
20
100.8900728
40
0.3941854
50
337.8914027
51
358.9967534
0
ARC
8
DEFAULT_255_1_388
10
4.121025
20
101.0078295
40
0.7213271
50
326.9132501
51
338.3508308
0
ARC
8
DEFAULT_255_1_388
10
3.6726362
20
101.2952105
40
1.2538973
50
319.6471833
51
327.0959558
0
ARC
8
DEFAULT_255_1_388
10
3.241302
20
101.651005
40
1.8129975
50
317.2588228
51
319.9045804
0
LINE
8
DEFAULT_255_1_388
10
5.7637143
20
101.2174898
11
5.7637143
21
100.343743
0
LINE
8
DEFAULT_255_1_388
10
5.7637143
20
100.343743
11
5.9462343
21
100.343743
0
LINE
8
DEFAULT_255_1_388
10
5.9462343
20
100.343743
11
5.9462343
21
100.2073048
0
LINE
8
DEFAULT_255_1_388
10
5.9462343
20
100.2073048
11
5.7637143
21
100.2073048
0
LINE
8
DEFAULT_255_1_388
10
5.7637143
20
100.2073048
11
5.7637143
21
99.9019
0
LINE
8
DEFAULT_255_1_388
10
5.7637143
20
99.9019
11
5.5956513
21
99.9019
0
LINE
8
DEFAULT_255_1_388
10
5.5956513
20
99.9019
11
5.5956513
21
100.2073048
0
LINE
8
DEFAULT_255_1_388
10
5.5956513
20
100.2073048
11
4.996588
21
100.2073048
0
LINE
8
DEFAULT_255_1_388
10
4.996588
20
100.2073048
11
4.996588
21
100.3057933
0
LINE
8
DEFAULT_255_1_388
10
4.996588
20
100.3057933
11
5.5857121
21
101.2174898
0
LINE
8
DEFAULT_255_1_388
10
5.5857121
20
101.2174898
11
5.7637143
21
101.2174898
0
LINE
8
DEFAULT_255_1_388
10
5.5757729
20
100.9527455
11
5.1863366
21
100.343743
0
LINE
8
DEFAULT_255_1_388
10
5.1863366
20
100.343743
11
5.5956513
21
100.343743
0
LINE
8
DEFAULT_255_1_388
10
5.5956513
20
100.343743
11
5.5956513
21
100.988888
0
LINE
8
DEFAULT_255_1_388
10
5.5956513
20
100.988888
11
5.5757729
21
100.9527455
0
LINE
8
DEFAULT_255_1_388
10
6.201943
20
101.2174898
11
6.5760187
21
100.1323089
0
LINE
8
DEFAULT_255_1_388
10
6.5760187
20
100.1323089
11
6.9519015
21
101.2174898
0
LINE
8
DEFAULT_255_1_388
10
6.9519015
20
101.2174898
11
7.14165
21
101.2174898
0
LINE
8
DEFAULT_255_1_388
10
7.14165
20
101.2174898
11
6.6537252
21
99.9019
0
LINE
8
DEFAULT_255_1_388
10
6.6537252
20
99.9019
11
6.5001193
21
99.9019
0
LINE
8
DEFAULT_255_1_388
10
6.5001193
20
99.9019
11
6.013098
21
101.2174898
0
LINE
8
DEFAULT_255_1_388
10
6.013098
20
101.2174898
11
6.201943
21
101.2174898
0
LINE
8
DEFAULT_255_1_388
10
4.8122322
20
4.6519
11
4.5267058
21
5.1840995
0
LINE
8
DEFAULT_255_1_388
10
4.5267058
20
5.1840995
11
4.2176868
21
5.1840995
0
LINE
8
DEFAULT_255_1_388
10
4.2176868
20
5.1840995
11
4.2176868
21
4.6519
0
LINE
8
DEFAULT_255_1_388
10
4.2176868
20
4.6519
11
4.0432988
21
4.6519
0
LINE
8
DEFAULT_255_1_388
10
4.0432988
20
4.6519
11
4.0432988
21
5.9674898
0
LINE
8
DEFAULT_255_1_388
10
4.0432988
20
5.9674898
11
4.4788169
21
5.9674898
0
LINE
8
DEFAULT_255_1_388
10
4.6893474
20
5.2211456
11
4.9983665
21
4.6627428
0
LINE
8
DEFAULT_255_1_388
10
4.9983665
20
4.6627428
11
4.9983665
21
4.6519
0
LINE
8
DEFAULT_255_1_388
10
4.9983665
20
4.6519
11
4.8122322
21
4.6519
0
LINE
8
DEFAULT_255_1_388
10
4.2176868
20
5.8247267
11
4.2176868
21
5.3259591
0
LINE
8
DEFAULT_255_1_388
10
4.2176868
20
5.3259591
11
4.4842383
21
5.3259591
0
LINE
8
DEFAULT_255_1_388
10
4.4833347
20
5.8247267
11
4.2176868
21
5.8247267
0
ARC
8
DEFAULT_255_1_388
10
4.4835015
20
5.1843346
40
0.7831693
50
80.6535681
51
90.3427203
0
ARC
8
DEFAULT_255_1_388
10
4.5306925
20
5.4613722
40
0.5021479
50
65.6987674
51
80.8330164
0
ARC
8
DEFAULT_255_1_388
10
4.5844219
20
5.5845479
40
0.3677787
50
50.0019152
51
65.4304412
0
ARC
8
DEFAULT_255_1_388
10
4.6090035
20
5.6177603
40
0.3265454
50
11.6284215
51
49.5603681
0
ARC
8
DEFAULT_255_1_388
10
4.4362521
20
5.5755524
40
0.5043009
50
359.5655533
51
12.3693319
0
ARC
8
DEFAULT_255_1_388
10
4.5573858
20
5.5685038
40
0.3831661
50
341.998418
51
0.4822212
0
ARC
8
DEFAULT_255_1_388
10
4.6018044
20
5.5564479
40
0.3372036
50
323.8610842
51
341.6141514
0
ARC
8
DEFAULT_255_1_388
10
4.567859
20
5.5826615
40
0.3800784
50
296.7019299
51
323.6876213
0
ARC
8
DEFAULT_255_1_388
10
4.5182548
20
5.6713532
40
0.4816219
50
290.808313
51
297.2325929
0
ARC
8
DEFAULT_255_1_388
10
4.4871342
20
5.7302377
40
0.404289
50
269.5895908
51
281.8058892
0
ARC
8
DEFAULT_255_1_388
10
4.5153608
20
5.601136
40
0.2721459
50
281.5499321
51
303.9358954
0
ARC
8
DEFAULT_255_1_388
10
4.5308143
20
5.5743588
40
0.2413121
50
304.4410786
51
311.211123
0
ARC
8
DEFAULT_255_1_388
10
4.5456548
20
5.5587152
40
0.2197678
50
310.9874923
51
356.2715203
0
ARC
8
DEFAULT_255_1_388
10
4.4606294
20
5.5713992
40
0.3055212
50
354.9346315
51
0.0617816
0
ARC
8
DEFAULT_255_1_388
10
4.4395135
20
5.5744427
40
0.3266482
50
359.5239293
51
12.8808621
0
ARC
8
DEFAULT_255_1_388
10
4.5494898
20
5.6013638
40
0.2134449
50
12.417206
51
43.1023141
0
ARC
8
DEFAULT_255_1_388
10
4.5564228
20
5.6055253
40
0.2055463
50
43.575886
51
48.2047245
0
ARC
8
DEFAULT_255_1_388
10
4.5373489
20
5.5806151
40
0.2368418
50
48.7809155
51
72.6968768
0
ARC
8
DEFAULT_255_1_388
10
4.4974853
20
5.4596385
40
0.364206
50
72.3699892
51
84.8793749
0
ARC
8
DEFAULT_255_1_388
10
4.4808859
20
5.3086651
40
0.5160674
50
84.5398226
51
89.7281165
0
LINE
8
DEFAULT_255_1_388
10
6.0202979
20
5.9674898
11
6.0202979
21
5.8247267
0
LINE
8
DEFAULT_255_1_388
10
6.0202979
20
5.8247267
11
5.5974297
21
5.8247267
0
LINE
8
DEFAULT_255_1_388
10
5.5974297
20
5.8247267
11
5.5974297
21
4.6519
0
LINE
8
DEFAULT_255_1_388
10
5.5974297
20
4.6519
11
5.4248489
21
4.6519
0
LINE
8
DEFAULT_255_1_388
10
5.4248489
20
4.6519
11
5.4248489
21
5.8247267
0
LINE
8
DEFAULT_255_1_388
10
5.4248489
20
5.8247267
11
5.0028843
21
5.8247267
0
LINE
8
DEFAULT_255_1_388
10
5.0028843
20
5.8247267
11
5.0028843
21
5.9674898
0
LINE
8
DEFAULT_255_1_388
10
5.0028843
20
5.9674898
11
6.0202979
21
5.9674898
0
LINE
8
DEFAULT_255_1_388
10
6.5796042
20
4.6519
11
6.2154678
21
4.6519
0
LINE
8
DEFAULT_255_1_388
10
6.2154678
20
4.6519
11
6.2154678
21
5.9674898
0
LINE
8
DEFAULT_255_1_388
10
6.2154678
20
5.9674898
11
6.5868328
21
5.9674898
0
LINE
8
DEFAULT_255_1_388
10
7.1669211
20
5.3539696
11
7.1669211
21
5.2699381
0
LINE
8
DEFAULT_255_1_388
10
6.5913506
20
5.8247267
11
6.3889521
21
5.8247267
0
LINE
8
DEFAULT_255_1_388
10
6.3889521
20
5.8247267
11
6.3889521
21
4.7937596
0
LINE
8
DEFAULT_255_1_388
10
6.3889521
20
4.7937596
11
6.5714722
21
4.7937596
0
LINE
8
DEFAULT_255_1_388
10
6.9952439
20
5.2735523
11
6.9952439
21
5.3503553
0
ARC
8
DEFAULT_255_1_388
10
6.5912122
20
5.3076436
40
0.6598608
50
75.4100343
51
90.3802731
0
ARC
8
DEFAULT_255_1_388
10
6.6170368
20
5.4152691
40
0.5492049
50
60.1455157
51
75.1889627
0
ARC
8
DEFAULT_255_1_388
10
6.6348959
20
5.4463914
40
0.5133226
50
26.525419
51
60.1451222
0
ARC
8
DEFAULT_255_1_388
10
6.5088746
20
5.3795642
40
0.6559324
50
7.4029944
51
26.832209
0
ARC
8
DEFAULT_255_1_388
10
6.3295143
20
5.3516229
40
0.8374103
50
0.1605597
51
7.7176135
0
ARC
8
DEFAULT_255_1_388
10
6.3479543
20
5.2656321
40
0.8189782
50
348.7289744
51
0.30125
0
ARC
8
DEFAULT_255_1_388
10
6.5343007
20
5.2286156
40
0.628991
50
333.0706936
51
348.7181455
0
ARC
8
DEFAULT_255_1_388
10
6.6430635
20
5.1695449
40
0.5052808
50
299.2531435
51
333.4571133
0
ARC
8
DEFAULT_255_1_388
10
6.6024666
20
5.2466629
40
0.5924066
50
278.1072193
51
299.0340218
0
ARC
8
DEFAULT_255_1_388
10
6.5736715
20
5.4162979
40
0.7644209
50
270.4446841
51
278.4508355
0
ARC
8
DEFAULT_255_1_388
10
6.5760198
20
5.31173
40
0.5179903
50
269.4969684
51
284.0204874
0
ARC
8
DEFAULT_255_1_388
10
6.6159917
20
5.1581415
40
0.3592968
50
283.7699076
51
318.1557121
0
ARC
8
DEFAULT_255_1_388
10
6.5780462
20
5.1865399
40
0.4065308
50
318.7417595
51
343.687252
0
ARC
8
DEFAULT_255_1_388
10
6.3751041
20
5.2499275
40
0.6191194
50
343.3324891
51
355.8548594
0
ARC
8
DEFAULT_255_1_388
10
6.1390078
20
5.2723719
40
0.856237
50
355.4988754
51
0.0789913
0
ARC
8
DEFAULT_255_1_388
10
6.2270877
20
5.355108
40
0.7681709
50
359.6455047
51
9.8607559
0
ARC
8
DEFAULT_255_1_388
10
6.4926601
20
5.4030664
40
0.498312
50
9.6573037
51
26.1931522
0
ARC
8
DEFAULT_255_1_388
10
6.5970676
20
5.4515587
40
0.3832303
50
26.5777895
51
40.1533752
0
ARC
8
DEFAULT_255_1_388
10
6.6258341
20
5.474002
40
0.3467742
50
40.3839958
51
80.1430923
0
ARC
8
DEFAULT_255_1_388
10
6.5890596
20
5.3109486
40
0.5137832
50
79.2153636
51
89.7445174
0
LINE
8
DEFAULT_255_1_388
10
4.3177367
20
13.9049898
11
4.3177367
21
12.5894
0
LINE
8
DEFAULT_255_1_388
10
4.3177367
20
12.5894
11
4.1442523
21
12.5894
0
LINE
8
DEFAULT_255_1_388
10
4.1442523
20
12.5894
11
4.1442523
21
13.9049898
0
LINE
8
DEFAULT_255_1_388
10
4.1442523
20
13.9049898
11
4.3177367
21
13.9049898
0
LINE
8
DEFAULT_255_1_388
10
4.8345755
20
13.1920775
11
4.8345755
21
13.3285157
0
LINE
8
DEFAULT_255_1_388
10
4.8345755
20
13.3285157
11
4.960171
21
13.3285157
0
LINE
8
DEFAULT_255_1_388
10
4.7460262
20
13.5598282
11
4.5788668
21
13.5598282
0
LINE
8
DEFAULT_255_1_388
10
4.5671205
20
12.9363687
11
4.7351834
21
12.9363687
0
LINE
8
DEFAULT_255_1_388
10
4.960171
20
13.1920775
11
4.8345755
21
13.1920775
0
ARC
8
DEFAULT_255_1_388
10
4.9568936
20
13.7101922
40
0.3816905
50
270.491971
51
281.8953028
0
ARC
8
DEFAULT_255_1_388
10
4.9840363
20
13.5862199
40
0.2547877
50
281.6690378
51
301.2943765
0
ARC
8
DEFAULT_255_1_388
10
5.0031815
20
13.5511926
40
0.2149197
50
301.7834992
51
311.754567
0
ARC
8
DEFAULT_255_1_388
10
5.0134856
20
13.539765
40
0.1995326
50
311.7325027
51
354.2803031
0
ARC
8
DEFAULT_255_1_388
10
4.9317272
20
13.553828
40
0.2823461
50
353.0941646
51
0.1174696
0
ARC
8
DEFAULT_255_1_388
10
4.879883
20
13.5591874
40
0.3342238
50
359.1804452
51
15.0452323
0
ARC
8
DEFAULT_255_1_388
10
5.0312888
20
13.6033546
40
0.1765747
50
13.957816
51
77.6713812
0
ARC
8
DEFAULT_255_1_388
10
4.9878124
20
13.4475464
40
0.3381982
50
76.111571
51
90.7028736
0
ARC
8
DEFAULT_255_1_388
10
4.9811536
20
13.478325
40
0.3074046
50
89.5321574
51
103.5319393
0
ARC
8
DEFAULT_255_1_388
10
4.958592
20
13.5682443
40
0.2147041
50
103.2930114
51
133.5619756
0
ARC
8
DEFAULT_255_1_388
10
4.9535861
20
13.5749351
40
0.2064084
50
133.8349761
51
173.5343225
0
ARC
8
DEFAULT_255_1_388
10
5.0349519
20
13.5605144
40
0.2889266
50
172.5097183
51
180.1360699
0
ARC
8
DEFAULT_255_1_388
10
4.9279283
20
13.564388
40
0.3490913
50
155.3483706
51
180.7484035
0
ARC
8
DEFAULT_255_1_388
10
4.9224258
20
13.5611519
40
0.3454798
50
131.5745177
51
154.4799474
0
ARC
8
DEFAULT_255_1_388
10
4.9576541
20
13.5255422
40
0.3955058
50
96.9874487
51
131.9690874
0
ARC
8
DEFAULT_255_1_388
10
4.9823434
20
13.3854407
40
0.537622
50
89.8592909
51
97.7827481
0
ARC
8
DEFAULT_255_1_388
10
4.9877543
20
13.355936
40
0.5671399
50
78.3654493
51
90.4132586
0
ARC
8
DEFAULT_255_1_388
10
5.0280184
20
13.5425918
40
0.3762034
50
56.6229818
51
78.6387103
0
ARC
8
DEFAULT_255_1_388
10
5.0522013
20
13.5848846
40
0.3275964
50
47.0254604
51
56.085558
0
ARC
8
DEFAULT_255_1_388
10
5.0544264
20
13.5893189
40
0.3228382
50
10.9207523
51
46.777927
0
ARC
8
DEFAULT_255_1_388
10
4.9009858
20
13.5538401
40
0.4802559
50
359.6364235
51
11.6087615
0
ARC
8
DEFAULT_255_1_388
10
5.1074024
20
13.5521404
40
0.273833
50
332.3549969
51
359.7179765
0
ARC
8
DEFAULT_255_1_388
10
5.0342424
20
13.5868285
40
0.3547505
50
325.2332381
51
332.8746682
0
ARC
8
DEFAULT_255_1_388
10
5.0514007
20
13.5748763
40
0.3338396
50
292.9803892
51
325.2391113
0
ARC
8
DEFAULT_255_1_388
10
5.0203203
20
13.6353679
40
0.4016959
50
292.542178
51
293.6931461
0
ARC
8
DEFAULT_255_1_388
10
5.0646775
20
12.9088036
40
0.372079
50
57.643292
51
72.8626085
0
ARC
8
DEFAULT_255_1_388
10
5.1045609
20
12.9734273
40
0.2961455
50
36.7246661
51
57.4701329
0
ARC
8
DEFAULT_255_1_388
10
5.1032766
20
12.974847
40
0.2963321
50
8.054535
51
36.3561529
0
ARC
8
DEFAULT_255_1_388
10
5.0062439
20
12.9574073
40
0.3948682
50
359.8316595
51
8.5873361
0
ARC
8
DEFAULT_255_1_388
10
4.9639913
20
12.951997
40
0.4371398
50
343.9831631
51
0.557075
0
ARC
8
DEFAULT_255_1_388
10
5.0636962
20
12.9246963
40
0.3337749
50
311.6358204
51
343.7652116
0
ARC
8
DEFAULT_255_1_388
10
5.0211216
20
12.9726955
40
0.3979351
50
279.7829743
51
311.625622
0
ARC
8
DEFAULT_255_1_388
10
4.9872351
20
13.1343642
40
0.5630417
50
269.7285092
51
280.3857694
0
ARC
8
DEFAULT_255_1_388
10
4.9802664
20
13.1297241
40
0.5584119
50
256.6827433
51
270.4412869
0
ARC
8
DEFAULT_255_1_388
10
4.9421651
20
12.9739698
40
0.3980715
50
229.4223821
51
256.8554507
0
ARC
8
DEFAULT_255_1_388
10
4.8955204
20
12.9214683
40
0.3278564
50
181.8183354
51
229.6455015
0
ARC
8
DEFAULT_255_1_388
10
5.0124814
20
12.9361825
40
0.4453611
50
179.9760419
51
183.2330638
0
ARC
8
DEFAULT_255_1_388
10
4.9931366
20
12.9338781
40
0.2579652
50
179.4467996
51
196.2871626
0
ARC
8
DEFAULT_255_1_388
10
4.938282
20
12.9188709
40
0.2011057
50
196.5661293
51
227.7059371
0
ARC
8
DEFAULT_255_1_388
10
4.9567427
20
12.9395155
40
0.2287994
50
227.7653015
51
257.8763321
0
ARC
8
DEFAULT_255_1_388
10
4.982051
20
13.0455961
40
0.3378385
50
257.4583525
51
270.4267406
0
ARC
8
DEFAULT_255_1_388
10
4.987176
20
13.078223
40
0.3704652
50
269.5965319
51
280.8788143
0
ARC
8
DEFAULT_255_1_388
10
5.0129988
20
12.9492529
40
0.2389415
50
280.6347277
51
299.8594068
0
ARC
8
DEFAULT_255_1_388
10
5.0344757
20
12.9084736
40
0.19289
50
300.3575552
51
314.5515667
0
ARC
8
DEFAULT_255_1_388
10
5.0251433
20
12.9153025
40
0.204312
50
315.0730962
51
345.0429362
0
ARC
8
DEFAULT_255_1_388
10
4.9212941
20
12.9455539
40
0.31246
50
344.598526
51
357.9270698
0
ARC
8
DEFAULT_255_1_388
10
4.8203245
20
12.9524705
40
0.4136265
50
357.4755098
51
0.0224936
0
ARC
8
DEFAULT_255_1_388
10
4.9356123
20
12.9552099
40
0.2983498
50
359.5051035
51
13.4236939
0
ARC
8
DEFAULT_255_1_388
10
5.0331213
20
12.9801637
40
0.1977186
50
12.9497905
51
48.7550905
0
ARC
8
DEFAULT_255_1_388
10
5.0126135
20
12.9521373
40
0.2323321
50
49.509109
51
72.1832965
0
ARC
8
DEFAULT_255_1_388
10
4.9723603
20
12.8326632
40
0.358397
50
71.9008458
51
84.3555134
0
ARC
8
DEFAULT_255_1_388
10
4.9541998
20
12.6794712
40
0.512641
50
84.019632
51
89.3326067
0
LINE
8
DEFAULT_255_1_388
10
5.9956559
20
13.2164737
11
5.9956559
21
13.0800355
0
LINE
8
DEFAULT_255_1_388
10
5.9956559
20
13.0800355
11
5.5547164
21
13.0800355
0
LINE
8
DEFAULT_255_1_388
10
5.5547164
20
13.0800355
11
5.5547164
21
13.2164737
0
LINE
8
DEFAULT_255_1_388
10
5.5547164
20
13.2164737
11
5.9956559
21
13.2164737
0
LINE
8
DEFAULT_255_1_388
10
4.1787367
20
21.8424898
11
4.1787367
21
20.5269
0
LINE
8
DEFAULT_255_1_388
10
4.1787367
20
20.5269
11
4.0052523
21
20.5269
0
LINE
8
DEFAULT_255_1_388
10
4.0052523
20
20.5269
11
4.0052523
21
21.8424898
0
LINE
8
DEFAULT_255_1_388
10
4.0052523
20
21.8424898
11
4.1787367
21
21.8424898
0
LINE
8
DEFAULT_255_1_388
10
4.6955755
20
21.1295775
11
4.6955755
21
21.2660157
0
LINE
8
DEFAULT_255_1_388
10
4.6955755
20
21.2660157
11
4.821171
21
21.2660157
0
LINE
8
DEFAULT_255_1_388
10
4.6070262
20
21.4973282
11
4.4398668
21
21.4973282
0
LINE
8
DEFAULT_255_1_388
10
4.4281205
20
20.8738687
11
4.5961834
21
20.8738687
0
LINE
8
DEFAULT_255_1_388
10
4.821171
20
21.1295775
11
4.6955755
21
21.1295775
0
ARC
8
DEFAULT_255_1_388
10
4.8178936
20
21.6476922
40
0.3816905
50
270.491971
51
281.8953028
0
ARC
8
DEFAULT_255_1_388
10
4.8450363
20
21.5237199
40
0.2547877
50
281.6690378
51
301.2943765
0
ARC
8
DEFAULT_255_1_388
10
4.8641815
20
21.4886926
40
0.2149197
50
301.7834992
51
311.754567
0
ARC
8
DEFAULT_255_1_388
10
4.8744856
20
21.477265
40
0.1995326
50
311.7325027
51
354.2803031
0
ARC
8
DEFAULT_255_1_388
10
4.7927272
20
21.491328
40
0.2823461
50
353.0941646
51
0.1174696
0
ARC
8
DEFAULT_255_1_388
10
4.740883
20
21.4966874
40
0.3342238
50
359.1804452
51
15.0452323
0
ARC
8
DEFAULT_255_1_388
10
4.8922888
20
21.5408546
40
0.1765747
50
13.957816
51
77.6713812
0
ARC
8
DEFAULT_255_1_388
10
4.8488124
20
21.3850464
40
0.3381982
50
76.111571
51
90.7028736
0
ARC
8
DEFAULT_255_1_388
10
4.8421536
20
21.415825
40
0.3074046
50
89.5321574
51
103.5319393
0
ARC
8
DEFAULT_255_1_388
10
4.819592
20
21.5057443
40
0.2147041
50
103.2930114
51
133.5619756
0
ARC
8
DEFAULT_255_1_388
10
4.8145861
20
21.5124351
40
0.2064084
50
133.8349761
51
173.5343225
0
ARC
8
DEFAULT_255_1_388
10
4.8959519
20
21.4980144
40
0.2889266
50
172.5097183
51
180.1360699
0
ARC
8
DEFAULT_255_1_388
10
4.7889283
20
21.501888
40
0.3490913
50
155.3483706
51
180.7484035
0
ARC
8
DEFAULT_255_1_388
10
4.7834258
20
21.4986519
40
0.3454798
50
131.5745177
51
154.4799474
0
ARC
8
DEFAULT_255_1_388
10
4.8186541
20
21.4630422
40
0.3955058
50
96.9874487
51
131.9690874
0
ARC
8
DEFAULT_255_1_388
10
4.8433434
20
21.3229407
40
0.537622
50
89.8592909
51
97.7827481
0
ARC
8
DEFAULT_255_1_388
10
4.8487543
20
21.293436
40
0.5671399
50
78.3654493
51
90.4132586
0
ARC
8
DEFAULT_255_1_388
10
4.8890184
20
21.4800918
40
0.3762034
50
56.6229818
51
78.6387103
0
ARC
8
DEFAULT_255_1_388
10
4.9132013
20
21.5223846
40
0.3275964
50
47.0254604
51
56.085558
0
ARC
8
DEFAULT_255_1_388
10
4.9154264
20
21.5268189
40
0.3228382
50
10.9207523
51
46.777927
0
ARC
8
DEFAULT_255_1_388
10
4.7619858
20
21.4913401
40
0.4802559
50
359.6364235
51
11.6087615
0
ARC
8
DEFAULT_255_1_388
10
4.9684024
20
21.4896404
40
0.273833
50
332.3549969
51
359.7179765
0
ARC
8
DEFAULT_255_1_388
10
4.8952424
20
21.5243285
40
0.3547505
50
325.2332381
51
332.8746682
0
ARC
8
DEFAULT_255_1_388
10
4.9124007
20
21.5123763
40
0.3338396
50
292.9803892
51
325.2391113
0
ARC
8
DEFAULT_255_1_388
10
4.8813203
20
21.5728679
40
0.4016959
50
292.542178
51
293.6931461
0
ARC
8
DEFAULT_255_1_388
10
4.9256775
20
20.8463036
40
0.372079
50
57.643292
51
72.8626085
0
ARC
8
DEFAULT_255_1_388
10
4.9655609
20
20.9109273
40
0.2961455
50
36.7246661
51
57.4701329
0
ARC
8
DEFAULT_255_1_388
10
4.9642766
20
20.912347
40
0.2963321
50
8.054535
51
36.3561529
0
ARC
8
DEFAULT_255_1_388
10
4.8672439
20
20.8949073
40
0.3948682
50
359.8316595
51
8.5873361
0
ARC
8
DEFAULT_255_1_388
10
4.8249913
20
20.889497
40
0.4371398
50
343.9831631
51
0.557075
0
ARC
8
DEFAULT_255_1_388
10
4.9246962
20
20.8621963
40
0.3337749
50
311.6358204
51
343.7652116
0
ARC
8
DEFAULT_255_1_388
10
4.8821216
20
20.9101955
40
0.3979351
50
279.7829743
51
311.625622
0
ARC
8
DEFAULT_255_1_388
10
4.8482351
20
21.0718642
40
0.5630417
50
269.7285092
51
280.3857694
0
ARC
8
DEFAULT_255_1_388
10
4.8412664
20
21.0672241
40
0.5584119
50
256.6827433
51
270.4412869
0
ARC
8
DEFAULT_255_1_388
10
4.8031651
20
20.9114698
40
0.3980715
50
229.4223821
51
256.8554507
0
ARC
8
DEFAULT_255_1_388
10
4.7565204
20
20.8589683
40
0.3278564
50
181.8183354
51
229.6455015
0
ARC
8
DEFAULT_255_1_388
10
4.8734814
20
20.8736825
40
0.4453611
50
179.9760419
51
183.2330638
0
ARC
8
DEFAULT_255_1_388
10
4.8541366
20
20.8713781
40
0.2579652
50
179.4467996
51
196.2871626
0
ARC
8
DEFAULT_255_1_388
10
4.799282
20
20.8563709
40
0.2011057
50
196.5661293
51
227.7059371
0
ARC
8
DEFAULT_255_1_388
10
4.8177427
20
20.8770155
40
0.2287994
50
227.7653015
51
257.8763321
0
ARC
8
DEFAULT_255_1_388
10
4.843051
20
20.9830961
40
0.3378385
50
257.4583525
51
270.4267406
0
ARC
8
DEFAULT_255_1_388
10
4.848176
20
21.015723
40
0.3704652
50
269.5965319
51
280.8788143
0
ARC
8
DEFAULT_255_1_388
10
4.8739988
20
20.8867529
40
0.2389415
50
280.6347277
51
299.8594068
0
ARC
8
DEFAULT_255_1_388
10
4.8954757
20
20.8459736
40
0.19289
50
300.3575552
51
314.5515667
0
ARC
8
DEFAULT_255_1_388
10
4.8861433
20
20.8528025
40
0.204312
50
315.0730962
51
345.0429362
0
ARC
8
DEFAULT_255_1_388
10
4.7822941
20
20.8830539
40
0.31246
50
344.598526
51
357.9270698
0
ARC
8
DEFAULT_255_1_388
10
4.6813245
20
20.8899705
40
0.4136265
50
357.4755098
51
0.0224936
0
ARC
8
DEFAULT_255_1_388
10
4.7966123
20
20.8927099
40
0.2983498
50
359.5051035
51
13.4236939
0
ARC
8
DEFAULT_255_1_388
10
4.8941213
20
20.9176637
40
0.1977186
50
12.9497905
51
48.7550905
0
ARC
8
DEFAULT_255_1_388
10
4.8736135
20
20.8896373
40
0.2323321
50
49.509109
51
72.1832965
0
ARC
8
DEFAULT_255_1_388
10
4.8333603
20
20.7701632
40
0.358397
50
71.9008458
51
84.3555134
0
ARC
8
DEFAULT_255_1_388
10
4.8151998
20
20.6169712
40
0.512641
50
84.019632
51
89.3326067
0
LINE
8
DEFAULT_255_1_388
10
5.9876727
20
21.6165987
11
5.9876727
21
21.2325838
0
LINE
8
DEFAULT_255_1_388
10
5.9876727
20
21.2325838
11
6.3545199
21
21.2325838
0
LINE
8
DEFAULT_255_1_388
10
6.3545199
20
21.2325838
11
6.3545199
21
21.0744601
0
LINE
8
DEFAULT_255_1_388
10
6.3545199
20
21.0744601
11
5.9876727
21
21.0744601
0
LINE
8
DEFAULT_255_1_388
10
5.9876727
20
21.0744601
11
5.9876727
21
20.6588204
0
LINE
8
DEFAULT_255_1_388
10
5.9876727
20
20.6588204
11
5.8196097
21
20.6588204
0
LINE
8
DEFAULT_255_1_388
10
5.8196097
20
20.6588204
11
5.8196097
21
21.0744601
0
LINE
8
DEFAULT_255_1_388
10
5.8196097
20
21.0744601
11
5.4527625
21
21.0744601
0
LINE
8
DEFAULT_255_1_388
10
5.4527625
20
21.0744601
11
5.4527625
21
21.2325838
0
LINE
8
DEFAULT_255_1_388
10
5.4527625
20
21.2325838
11
5.8196097
21
21.2325838
0
LINE
8
DEFAULT_255_1_388
10
5.8196097
20
21.2325838
11
5.8196097
21
21.6165987
0
LINE
8
DEFAULT_255_1_388
10
5.8196097
20
21.6165987
11
5.9876727
21
21.6165987
0
LINE
8
DEFAULT_255_1_388
10
4.8122322
20
28.4644
11
4.5267058
21
28.9965995
0
LINE
8
DEFAULT_255_1_388
10
4.5267058
20
28.9965995
11
4.2176868
21
28.9965995
0
LINE
8
DEFAULT_255_1_388
10
4.2176868
20
28.9965995
11
4.2176868
21
28.4644
0
LINE
8
DEFAULT_255_1_388
10
4.2176868
20
28.4644
11
4.0432988
21
28.4644
0
LINE
8
DEFAULT_255_1_388
10
4.0432988
20
28.4644
11
4.0432988
21
29.7799898
0
LINE
8
DEFAULT_255_1_388
10
4.0432988
20
29.7799898
11
4.4788169
21
29.7799898
0
LINE
8
DEFAULT_255_1_388
10
4.6893474
20
29.0336456
11
4.9983665
21
28.4752428
0
LINE
8
DEFAULT_255_1_388
10
4.9983665
20
28.4752428
11
4.9983665
21
28.4644
0
LINE
8
DEFAULT_255_1_388
10
4.9983665
20
28.4644
11
4.8122322
21
28.4644
0
LINE
8
DEFAULT_255_1_388
10
4.2176868
20
29.6372267
11
4.2176868
21
29.1384591
0
LINE
8
DEFAULT_255_1_388
10
4.2176868
20
29.1384591
11
4.4842383
21
29.1384591
0
LINE
8
DEFAULT_255_1_388
10
4.4833347
20
29.6372267
11
4.2176868
21
29.6372267
0
ARC
8
DEFAULT_255_1_388
10
4.4835015
20
28.9968346
40
0.7831693
50
80.6535681
51
90.3427203
0
ARC
8
DEFAULT_255_1_388
10
4.5306925
20
29.2738722
40
0.5021479
50
65.6987674
51
80.8330164
0
ARC
8
DEFAULT_255_1_388
10
4.5844219
20
29.3970479
40
0.3677787
50
50.0019152
51
65.4304412
0
ARC
8
DEFAULT_255_1_388
10
4.6090035
20
29.4302603
40
0.3265454
50
11.6284215
51
49.5603681
0
ARC
8
DEFAULT_255_1_388
10
4.4362521
20
29.3880524
40
0.5043009
50
359.5655533
51
12.3693319
0
ARC
8
DEFAULT_255_1_388
10
4.5573858
20
29.3810038
40
0.3831661
50
341.998418
51
0.4822212
0
ARC
8
DEFAULT_255_1_388
10
4.6018044
20
29.3689479
40
0.3372036
50
323.8610842
51
341.6141514
0
ARC
8
DEFAULT_255_1_388
10
4.567859
20
29.3951615
40
0.3800784
50
296.7019299
51
323.6876213
0
ARC
8
DEFAULT_255_1_388
10
4.5182548
20
29.4838532
40
0.4816219
50
290.808313
51
297.2325929
0
ARC
8
DEFAULT_255_1_388
10
4.4871342
20
29.5427377
40
0.404289
50
269.5895908
51
281.8058892
0
ARC
8
DEFAULT_255_1_388
10
4.5153608
20
29.413636
40
0.2721459
50
281.5499321
51
303.9358954
0
ARC
8
DEFAULT_255_1_388
10
4.5308143
20
29.3868588
40
0.2413121
50
304.4410786
51
311.211123
0
ARC
8
DEFAULT_255_1_388
10
4.5456548
20
29.3712152
40
0.2197678
50
310.9874923
51
356.2715203
0
ARC
8
DEFAULT_255_1_388
10
4.4606294
20
29.3838992
40
0.3055212
50
354.9346315
51
0.0617816
0
ARC
8
DEFAULT_255_1_388
10
4.4395135
20
29.3869427
40
0.3266482
50
359.5239293
51
12.8808621
0
ARC
8
DEFAULT_255_1_388
10
4.5494898
20
29.4138638
40
0.2134449
50
12.417206
51
43.1023141
0
ARC
8
DEFAULT_255_1_388
10
4.5564228
20
29.4180253
40
0.2055463
50
43.575886
51
48.2047245
0
ARC
8
DEFAULT_255_1_388
10
4.5373489
20
29.3931151
40
0.2368418
50
48.7809155
51
72.6968768
0
ARC
8
DEFAULT_255_1_388
10
4.4974853
20
29.2721385
40
0.364206
50
72.3699892
51
84.8793749
0
ARC
8
DEFAULT_255_1_388
10
4.4808859
20
29.1211651
40
0.5160674
50
84.5398226
51
89.7281165
0
LINE
8
DEFAULT_255_1_388
10
6.0202979
20
29.7799898
11
6.0202979
21
29.6372267
0
LINE
8
DEFAULT_255_1_388
10
6.0202979
20
29.6372267
11
5.5974297
21
29.6372267
0
LINE
8
DEFAULT_255_1_388
10
5.5974297
20
29.6372267
11
5.5974297
21
28.4644
0
LINE
8
DEFAULT_255_1_388
10
5.5974297
20
28.4644
11
5.4248489
21
28.4644
0
LINE
8
DEFAULT_255_1_388
10
5.4248489
20
28.4644
11
5.4248489
21
29.6372267
0
LINE
8
DEFAULT_255_1_388
10
5.4248489
20
29.6372267
11
5.0028843
21
29.6372267
0
LINE
8
DEFAULT_255_1_388
10
5.0028843
20
29.6372267
11
5.0028843
21
29.7799898
0
LINE
8
DEFAULT_255_1_388
10
5.0028843
20
29.7799898
11
6.0202979
21
29.7799898
0
LINE
8
DEFAULT_255_1_388
10
6.5796042
20
28.4644
11
6.2154678
21
28.4644
0
LINE
8
DEFAULT_255_1_388
10
6.2154678
20
28.4644
11
6.2154678
21
29.7799898
0
LINE
8
DEFAULT_255_1_388
10
6.2154678
20
29.7799898
11
6.5868328
21
29.7799898
0
LINE
8
DEFAULT_255_1_388
10
7.1669211
20
29.1664696
11
7.1669211
21
29.0824381
0
LINE
8
DEFAULT_255_1_388
10
6.5913506
20
29.6372267
11
6.3889521
21
29.6372267
0
LINE
8
DEFAULT_255_1_388
10
6.3889521
20
29.6372267
11
6.3889521
21
28.6062596
0
LINE
8
DEFAULT_255_1_388
10
6.3889521
20
28.6062596
11
6.5714722
21
28.6062596
0
LINE
8
DEFAULT_255_1_388
10
6.9952439
20
29.0860523
11
6.9952439
21
29.1628553
0
ARC
8
DEFAULT_255_1_388
10
6.5912122
20
29.1201436
40
0.6598608
50
75.4100343
51
90.3802731
0
ARC
8
DEFAULT_255_1_388
10
6.6170368
20
29.2277691
40
0.5492049
50
60.1455157
51
75.1889627
0
ARC
8
DEFAULT_255_1_388
10
6.6348959
20
29.2588914
40
0.5133226
50
26.525419
51
60.1451222
0
ARC
8
DEFAULT_255_1_388
10
6.5088746
20
29.1920642
40
0.6559324
50
7.4029944
51
26.832209
0
ARC
8
DEFAULT_255_1_388
10
6.3295143
20
29.1641229
40
0.8374103
50
0.1605597
51
7.7176135
0
ARC
8
DEFAULT_255_1_388
10
6.3479543
20
29.0781321
40
0.8189782
50
348.7289744
51
0.30125
0
ARC
8
DEFAULT_255_1_388
10
6.5343007
20
29.0411156
40
0.628991
50
333.0706936
51
348.7181455
0
ARC
8
DEFAULT_255_1_388
10
6.6430635
20
28.9820449
40
0.5052808
50
299.2531435
51
333.4571133
0
ARC
8
DEFAULT_255_1_388
10
6.6024666
20
29.0591629
40
0.5924066
50
278.1072193
51
299.0340218
0
ARC
8
DEFAULT_255_1_388
10
6.5736715
20
29.2287979
40
0.7644209
50
270.4446841
51
278.4508355
0
ARC
8
DEFAULT_255_1_388
10
6.5760198
20
29.12423
40
0.5179903
50
269.4969684
51
284.0204874
0
ARC
8
DEFAULT_255_1_388
10
6.6159917
20
28.9706415
40
0.3592968
50
283.7699076
51
318.1557121
0
ARC
8
DEFAULT_255_1_388
10
6.5780462
20
28.9990399
40
0.4065308
50
318.7417595
51
343.687252
0
ARC
8
DEFAULT_255_1_388
10
6.3751041
20
29.0624275
40
0.6191194
50
343.3324891
51
355.8548594
0
ARC
8
DEFAULT_255_1_388
10
6.1390078
20
29.0848719
40
0.856237
50
355.4988754
51
0.0789913
0
ARC
8
DEFAULT_255_1_388
10
6.2270877
20
29.167608
40
0.7681709
50
359.6455047
51
9.8607559
0
ARC
8
DEFAULT_255_1_388
10
6.4926601
20
29.2155664
40
0.498312
50
9.6573037
51
26.1931522
0
ARC
8
DEFAULT_255_1_388
10
6.5970676
20
29.2640587
40
0.3832303
50
26.5777895
51
40.1533752
0
ARC
8
DEFAULT_255_1_388
10
6.6258341
20
29.286502
40
0.3467742
50
40.3839958
51
80.1430923
0
ARC
8
DEFAULT_255_1_388
10
6.5890596
20
29.1234486
40
0.5137832
50
79.2153636
51
89.7445174
0
LINE
8
DEFAULT_255_1_388
10
4.3177367
20
37.7174898
11
4.3177367
21
36.4019
0
LINE
8
DEFAULT_255_1_388
10
4.3177367
20
36.4019
11
4.1442523
21
36.4019
0
LINE
8
DEFAULT_255_1_388
10
4.1442523
20
36.4019
11
4.1442523
21
37.7174898
0
LINE
8
DEFAULT_255_1_388
10
4.1442523
20
37.7174898
11
4.3177367
21
37.7174898
0
LINE
8
DEFAULT_255_1_388
10
5.4535172
20
36.5383382
11
5.4535172
21
36.4019
0
LINE
8
DEFAULT_255_1_388
10
5.4535172
20
36.4019
11
4.5915167
21
36.4019
0
LINE
8
DEFAULT_255_1_388
10
4.5915167
20
36.4019
11
4.5915167
21
36.5220741
0
LINE
8
DEFAULT_255_1_388
10
4.5915167
20
36.5220741
11
5.0469132
21
37.0280702
0
LINE
8
DEFAULT_255_1_388
10
4.7333763
20
37.3298607
11
4.5662169
21
37.3298607
0
LINE
8
DEFAULT_255_1_388
10
5.1454017
20
36.920546
11
4.7930116
21
36.5383382
0
LINE
8
DEFAULT_255_1_388
10
4.7930116
20
36.5383382
11
5.4535172
21
36.5383382
0
ARC
8
DEFAULT_255_1_388
10
3.5293191
20
38.3700983
40
2.0258655
50
318.5132526
51
320.7829045
0
ARC
8
DEFAULT_255_1_388
10
4.1241148
20
37.8859929
40
1.2589638
50
320.7372878
51
323.9739031
0
ARC
8
DEFAULT_255_1_388
10
4.565008
20
37.5665554
40
0.7145141
50
323.8962701
51
328.64194
0
ARC
8
DEFAULT_255_1_388
10
4.7952338
20
37.4245545
40
0.4440242
50
328.8294576
51
331.7891185
0
ARC
8
DEFAULT_255_1_388
10
4.9074658
20
37.3666374
40
0.3177517
50
331.4254512
51
352.9365785
0
ARC
8
DEFAULT_255_1_388
10
4.9227658
20
37.363205
40
0.3021496
50
353.2257659
51
0.0166158
0
ARC
8
DEFAULT_255_1_388
10
4.9464418
20
37.3657894
40
0.2784847
50
359.486299
51
15.9343185
0
ARC
8
DEFAULT_255_1_388
10
5.0034685
20
37.3811269
40
0.2194403
50
16.1712913
51
43.5286088
0
ARC
8
DEFAULT_255_1_388
10
5.012163
20
37.3898191
40
0.2071504
50
43.4417391
51
83.1661095
0
ARC
8
DEFAULT_255_1_388
10
4.9970791
20
37.3069316
40
0.2912888
50
82.160179
51
90.1505708
0
ARC
8
DEFAULT_255_1_388
10
4.9935272
20
37.2465279
40
0.3517025
50
89.5460741
51
102.5418361
0
ARC
8
DEFAULT_255_1_388
10
4.9661992
20
37.3624933
40
0.2325748
50
102.1738499
51
129.206123
0
ARC
8
DEFAULT_255_1_388
10
4.9573446
20
37.3764664
40
0.2161591
50
129.72865
51
135.753947
0
ARC
8
DEFAULT_255_1_388
10
4.9709928
20
37.3655728
40
0.2335433
50
136.1757367
51
166.3673339
0
ARC
8
DEFAULT_255_1_388
10
5.0842616
20
37.3352148
40
0.3507873
50
165.9090694
51
178.8684636
0
ARC
8
DEFAULT_255_1_388
10
5.1818388
20
37.3299263
40
0.4484624
50
178.4391136
51
180.0083808
0
ARC
8
DEFAULT_255_1_388
10
5.0239089
20
37.3343197
40
0.4577138
50
163.2878482
51
180.5581842
0
ARC
8
DEFAULT_255_1_388
10
4.933713
20
37.3591393
40
0.3641968
50
133.4540601
51
162.947111
0
ARC
8
DEFAULT_255_1_388
10
4.9538012
20
37.3377789
40
0.3935189
50
100.7869829
51
133.4382499
0
ARC
8
DEFAULT_255_1_388
10
4.9929257
20
37.1635399
40
0.5720313
50
89.660664
51
101.3702276
0
ARC
8
DEFAULT_255_1_388
10
5.0003866
20
37.1704263
40
0.5651495
50
78.2172678
51
90.412935
0
ARC
8
DEFAULT_255_1_388
10
5.0403332
20
37.3531511
40
0.378122
50
55.9269121
51
78.4888449
0
ARC
8
DEFAULT_255_1_388
10
5.0624047
20
37.3912187
40
0.3342379
50
47.929771
51
55.4049217
0
ARC
8
DEFAULT_255_1_388
10
5.0738577
20
37.4028618
40
0.3179217
50
4.334829
51
48.0560205
0
ARC
8
DEFAULT_255_1_388
10
4.9506379
20
37.3837487
40
0.442341
50
359.9251713
51
5.5971671
0
ARC
8
DEFAULT_255_1_388
10
4.9988534
20
37.3900728
40
0.3941854
50
337.8914027
51
358.9967534
0
ARC
8
DEFAULT_255_1_388
10
4.6936104
20
37.5078295
40
0.7213271
50
326.9132501
51
338.3508308
0
ARC
8
DEFAULT_255_1_388
10
4.2452216
20
37.7952105
40
1.2538973
50
319.6471833
51
327.0959558
0
ARC
8
DEFAULT_255_1_388
10
3.8138874
20
38.151005
40
1.8129975
50
317.2588228
51
319.9045804
0
LINE
8
DEFAULT_255_1_388
10
5.9956559
20
37.0289737
11
5.9956559
21
36.8925355
0
LINE
8
DEFAULT_255_1_388
10
5.9956559
20
36.8925355
11
5.5547164
21
36.8925355
0
LINE
8
DEFAULT_255_1_388
10
5.5547164
20
36.8925355
11
5.5547164
21
37.0289737
0
LINE
8
DEFAULT_255_1_388
10
5.5547164
20
37.0289737
11
5.9956559
21
37.0289737
0
LINE
8
DEFAULT_255_1_388
10
4.1787367
20
45.6549898
11
4.1787367
21
44.3394
0
LINE
8
DEFAULT_255_1_388
10
4.1787367
20
44.3394
11
4.0052523
21
44.3394
0
LINE
8
DEFAULT_255_1_388
10
4.0052523
20
44.3394
11
4.0052523
21
45.6549898
0
LINE
8
DEFAULT_255_1_388
10
4.0052523
20
45.6549898
11
4.1787367
21
45.6549898
0
LINE
8
DEFAULT_255_1_388
10
5.3145172
20
44.4758382
11
5.3145172
21
44.3394
0
LINE
8
DEFAULT_255_1_388
10
5.3145172
20
44.3394
11
4.4525167
21
44.3394
0
LINE
8
DEFAULT_255_1_388
10
4.4525167
20
44.3394
11
4.4525167
21
44.4595741
0
LINE
8
DEFAULT_255_1_388
10
4.4525167
20
44.4595741
11
4.9079132
21
44.9655702
0
LINE
8
DEFAULT_255_1_388
10
4.5943763
20
45.2673607
11
4.4272169
21
45.2673607
0
LINE
8
DEFAULT_255_1_388
10
5.0064017
20
44.858046
11
4.6540116
21
44.4758382
0
LINE
8
DEFAULT_255_1_388
10
4.6540116
20
44.4758382
11
5.3145172
21
44.4758382
0
ARC
8
DEFAULT_255_1_388
10
3.3903191
20
46.3075983
40
2.0258655
50
318.5132526
51
320.7829045
0
ARC
8
DEFAULT_255_1_388
10
3.9851148
20
45.8234929
40
1.2589638
50
320.7372878
51
323.9739031
0
ARC
8
DEFAULT_255_1_388
10
4.426008
20
45.5040554
40
0.7145141
50
323.8962701
51
328.64194
0
ARC
8
DEFAULT_255_1_388
10
4.6562338
20
45.3620545
40
0.4440242
50
328.8294576
51
331.7891185
0
ARC
8
DEFAULT_255_1_388
10
4.7684658
20
45.3041374
40
0.3177517
50
331.4254512
51
352.9365785
0
ARC
8
DEFAULT_255_1_388
10
4.7837658
20
45.300705
40
0.3021496
50
353.2257659
51
0.0166158
0
ARC
8
DEFAULT_255_1_388
10
4.8074418
20
45.3032894
40
0.2784847
50
359.486299
51
15.9343185
0
ARC
8
DEFAULT_255_1_388
10
4.8644685
20
45.3186269
40
0.2194403
50
16.1712913
51
43.5286088
0
ARC
8
DEFAULT_255_1_388
10
4.873163
20
45.3273191
40
0.2071504
50
43.4417391
51
83.1661095
0
ARC
8
DEFAULT_255_1_388
10
4.8580791
20
45.2444316
40
0.2912888
50
82.160179
51
90.1505708
0
ARC
8
DEFAULT_255_1_388
10
4.8545272
20
45.1840279
40
0.3517025
50
89.5460741
51
102.5418361
0
ARC
8
DEFAULT_255_1_388
10
4.8271992
20
45.2999933
40
0.2325748
50
102.1738499
51
129.206123
0
ARC
8
DEFAULT_255_1_388
10
4.8183446
20
45.3139664
40
0.2161591
50
129.72865
51
135.753947
0
ARC
8
DEFAULT_255_1_388
10
4.8319928
20
45.3030728
40
0.2335433
50
136.1757367
51
166.3673339
0
ARC
8
DEFAULT_255_1_388
10
4.9452616
20
45.2727148
40
0.3507873
50
165.9090694
51
178.8684636
0
ARC
8
DEFAULT_255_1_388
10
5.0428388
20
45.2674263
40
0.4484624
50
178.4391136
51
180.0083808
0
ARC
8
DEFAULT_255_1_388
10
4.8849089
20
45.2718197
40
0.4577138
50
163.2878482
51
180.5581842
0
ARC
8
DEFAULT_255_1_388
10
4.794713
20
45.2966393
40
0.3641968
50
133.4540601
51
162.947111
0
ARC
8
DEFAULT_255_1_388
10
4.8148012
20
45.2752789
40
0.3935189
50
100.7869829
51
133.4382499
0
ARC
8
DEFAULT_255_1_388
10
4.8539257
20
45.1010399
40
0.5720313
50
89.660664
51
101.3702276
0
ARC
8
DEFAULT_255_1_388
10
4.8613866
20
45.1079263
40
0.5651495
50
78.2172678
51
90.412935
0
ARC
8
DEFAULT_255_1_388
10
4.9013332
20
45.2906511
40
0.378122
50
55.9269121
51
78.4888449
0
ARC
8
DEFAULT_255_1_388
10
4.9234047
20
45.3287187
40
0.3342379
50
47.929771
51
55.4049217
0
ARC
8
DEFAULT_255_1_388
10
4.9348577
20
45.3403618
40
0.3179217
50
4.334829
51
48.0560205
0
ARC
8
DEFAULT_255_1_388
10
4.8116379
20
45.3212487
40
0.442341
50
359.9251713
51
5.5971671
0
ARC
8
DEFAULT_255_1_388
10
4.8598534
20
45.3275728
40
0.3941854
50
337.8914027
51
358.9967534
0
ARC
8
DEFAULT_255_1_388
10
4.5546104
20
45.4453295
40
0.7213271
50
326.9132501
51
338.3508308
0
ARC
8
DEFAULT_255_1_388
10
4.1062216
20
45.7327105
40
1.2538973
50
319.6471833
51
327.0959558
0
ARC
8
DEFAULT_255_1_388
10
3.6748874
20
46.088505
40
1.8129975
50
317.2588228
51
319.9045804
0
LINE
8
DEFAULT_255_1_388
10
5.9876727
20
45.4290987
11
5.9876727
21
45.0450838
0
LINE
8
DEFAULT_255_1_388
10
5.9876727
20
45.0450838
11
6.3545199
21
45.0450838
0
LINE
8
DEFAULT_255_1_388
10
6.3545199
20
45.0450838
11
6.3545199
21
44.8869601
0
LINE
8
DEFAULT_255_1_388
10
6.3545199
20
44.8869601
11
5.9876727
21
44.8869601
0
LINE
8
DEFAULT_255_1_388
10
5.9876727
20
44.8869601
11
5.9876727
21
44.4713204
0
LINE
8
DEFAULT_255_1_388
10
5.9876727
20
44.4713204
11
5.8196097
21
44.4713204
0
LINE
8
DEFAULT_255_1_388
10
5.8196097
20
44.4713204
11
5.8196097
21
44.8869601
0
LINE
8
DEFAULT_255_1_388
10
5.8196097
20
44.8869601
11
5.4527625
21
44.8869601
0
LINE
8
DEFAULT_255_1_388
10
5.4527625
20
44.8869601
11
5.4527625
21
45.0450838
0
LINE
8
DEFAULT_255_1_388
10
5.4527625
20
45.0450838
11
5.8196097
21
45.0450838
0
LINE
8
DEFAULT_255_1_388
10
5.8196097
20
45.0450838
11
5.8196097
21
45.4290987
0
LINE
8
DEFAULT_255_1_388
10
5.8196097
20
45.4290987
11
5.9876727
21
45.4290987
0
LINE
8
DEFAULT_255_1_388
10
4.8122322
20
52.2769
11
4.5267058
21
52.8090995
0
LINE
8
DEFAULT_255_1_388
10
4.5267058
20
52.8090995
11
4.2176868
21
52.8090995
0
LINE
8
DEFAULT_255_1_388
10
4.2176868
20
52.8090995
11
4.2176868
21
52.2769
0
LINE
8
DEFAULT_255_1_388
10
4.2176868
20
52.2769
11
4.0432988
21
52.2769
0
LINE
8
DEFAULT_255_1_388
10
4.0432988
20
52.2769
11
4.0432988
21
53.5924898
0
LINE
8
DEFAULT_255_1_388
10
4.0432988
20
53.5924898
11
4.4788169
21
53.5924898
0
LINE
8
DEFAULT_255_1_388
10
4.6893474
20
52.8461456
11
4.9983665
21
52.2877428
0
LINE
8
DEFAULT_255_1_388
10
4.9983665
20
52.2877428
11
4.9983665
21
52.2769
0
LINE
8
DEFAULT_255_1_388
10
4.9983665
20
52.2769
11
4.8122322
21
52.2769
0
LINE
8
DEFAULT_255_1_388
10
4.2176868
20
53.4497267
11
4.2176868
21
52.9509591
0
LINE
8
DEFAULT_255_1_388
10
4.2176868
20
52.9509591
11
4.4842383
21
52.9509591
0
LINE
8
DEFAULT_255_1_388
10
4.4833347
20
53.4497267
11
4.2176868
21
53.4497267
0
ARC
8
DEFAULT_255_1_388
10
4.4835015
20
52.8093346
40
0.7831693
50
80.6535681
51
90.3427203
0
ARC
8
DEFAULT_255_1_388
10
4.5306925
20
53.0863722
40
0.5021479
50
65.6987674
51
80.8330164
0
ARC
8
DEFAULT_255_1_388
10
4.5844219
20
53.2095479
40
0.3677787
50
50.0019152
51
65.4304412
0
ARC
8
DEFAULT_255_1_388
10
4.6090035
20
53.2427603
40
0.3265454
50
11.6284215
51
49.5603681
0
ARC
8
DEFAULT_255_1_388
10
4.4362521
20
53.2005524
40
0.5043009
50
359.5655533
51
12.3693319
0
ARC
8
DEFAULT_255_1_388
10
4.5573858
20
53.1935038
40
0.3831661
50
341.998418
51
0.4822212
0
ARC
8
DEFAULT_255_1_388
10
4.6018044
20
53.1814479
40
0.3372036
50
323.8610842
51
341.6141514
0
ARC
8
DEFAULT_255_1_388
10
4.567859
20
53.2076615
40
0.3800784
50
296.7019299
51
323.6876213
0
ARC
8
DEFAULT_255_1_388
10
4.5182548
20
53.2963532
40
0.4816219
50
290.808313
51
297.2325929
0
ARC
8
DEFAULT_255_1_388
10
4.4871342
20
53.3552377
40
0.404289
50
269.5895908
51
281.8058892
0
ARC
8
DEFAULT_255_1_388
10
4.5153608
20
53.226136
40
0.2721459
50
281.5499321
51
303.9358954
0
ARC
8
DEFAULT_255_1_388
10
4.5308143
20
53.1993588
40
0.2413121
50
304.4410786
51
311.211123
0
ARC
8
DEFAULT_255_1_388
10
4.5456548
20
53.1837152
40
0.2197678
50
310.9874923
51
356.2715203
0
ARC
8
DEFAULT_255_1_388
10
4.4606294
20
53.1963992
40
0.3055212
50
354.9346315
51
0.0617816
0
ARC
8
DEFAULT_255_1_388
10
4.4395135
20
53.1994427
40
0.3266482
50
359.5239293
51
12.8808621
0
ARC
8
DEFAULT_255_1_388
10
4.5494898
20
53.2263638
40
0.2134449
50
12.417206
51
43.1023141
0
ARC
8
DEFAULT_255_1_388
10
4.5564228
20
53.2305253
40
0.2055463
50
43.575886
51
48.2047245
0
ARC
8
DEFAULT_255_1_388
10
4.5373489
20
53.2056151
40
0.2368418
50
48.7809155
51
72.6968768
0
ARC
8
DEFAULT_255_1_388
10
4.4974853
20
53.0846385
40
0.364206
50
72.3699892
51
84.8793749
0
ARC
8
DEFAULT_255_1_388
10
4.4808859
20
52.9336651
40
0.5160674
50
84.5398226
51
89.7281165
0
LINE
8
DEFAULT_255_1_388
10
6.0202979
20
53.5924898
11
6.0202979
21
53.4497267
0
LINE
8
DEFAULT_255_1_388
10
6.0202979
20
53.4497267
11
5.5974297
21
53.4497267
0
LINE
8
DEFAULT_255_1_388
10
5.5974297
20
53.4497267
11
5.5974297
21
52.2769
0
LINE
8
DEFAULT_255_1_388
10
5.5974297
20
52.2769
11
5.4248489
21
52.2769
0
LINE
8
DEFAULT_255_1_388
10
5.4248489
20
52.2769
11
5.4248489
21
53.4497267
0
LINE
8
DEFAULT_255_1_388
10
5.4248489
20
53.4497267
11
5.0028843
21
53.4497267
0
LINE
8
DEFAULT_255_1_388
10
5.0028843
20
53.4497267
11
5.0028843
21
53.5924898
0
LINE
8
DEFAULT_255_1_388
10
5.0028843
20
53.5924898
11
6.0202979
21
53.5924898
0
LINE
8
DEFAULT_255_1_388
10
6.5796042
20
52.2769
11
6.2154678
21
52.2769
0
LINE
8
DEFAULT_255_1_388
10
6.2154678
20
52.2769
11
6.2154678
21
53.5924898
0
LINE
8
DEFAULT_255_1_388
10
6.2154678
20
53.5924898
11
6.5868328
21
53.5924898
0
LINE
8
DEFAULT_255_1_388
10
7.1669211
20
52.9789696
11
7.1669211
21
52.8949381
0
LINE
8
DEFAULT_255_1_388
10
6.5913506
20
53.4497267
11
6.3889521
21
53.4497267
0
LINE
8
DEFAULT_255_1_388
10
6.3889521
20
53.4497267
11
6.3889521
21
52.4187596
0
LINE
8
DEFAULT_255_1_388
10
6.3889521
20
52.4187596
11
6.5714722
21
52.4187596
0
LINE
8
DEFAULT_255_1_388
10
6.9952439
20
52.8985523
11
6.9952439
21
52.9753553
0
ARC
8
DEFAULT_255_1_388
10
6.5912122
20
52.9326436
40
0.6598608
50
75.4100343
51
90.3802731
0
ARC
8
DEFAULT_255_1_388
10
6.6170368
20
53.0402691
40
0.5492049
50
60.1455157
51
75.1889627
0
ARC
8
DEFAULT_255_1_388
10
6.6348959
20
53.0713914
40
0.5133226
50
26.525419
51
60.1451222
0
ARC
8
DEFAULT_255_1_388
10
6.5088746
20
53.0045642
40
0.6559324
50
7.4029944
51
26.832209
0
ARC
8
DEFAULT_255_1_388
10
6.3295143
20
52.9766229
40
0.8374103
50
0.1605597
51
7.7176135
0
ARC
8
DEFAULT_255_1_388
10
6.3479543
20
52.8906321
40
0.8189782
50
348.7289744
51
0.30125
0
ARC
8
DEFAULT_255_1_388
10
6.5343007
20
52.8536156
40
0.628991
50
333.0706936
51
348.7181455
0
ARC
8
DEFAULT_255_1_388
10
6.6430635
20
52.7945449
40
0.5052808
50
299.2531435
51
333.4571133
0
ARC
8
DEFAULT_255_1_388
10
6.6024666
20
52.8716629
40
0.5924066
50
278.1072193
51
299.0340218
0
ARC
8
DEFAULT_255_1_388
10
6.5736715
20
53.0412979
40
0.7644209
50
270.4446841
51
278.4508355
0
ARC
8
DEFAULT_255_1_388
10
6.5760198
20
52.93673
40
0.5179903
50
269.4969684
51
284.0204874
0
ARC
8
DEFAULT_255_1_388
10
6.6159917
20
52.7831415
40
0.3592968
50
283.7699076
51
318.1557121
0
ARC
8
DEFAULT_255_1_388
10
6.5780462
20
52.8115399
40
0.4065308
50
318.7417595
51
343.687252
0
ARC
8
DEFAULT_255_1_388
10
6.3751041
20
52.8749275
40
0.6191194
50
343.3324891
51
355.8548594
0
ARC
8
DEFAULT_255_1_388
10
6.1390078
20
52.8973719
40
0.856237
50
355.4988754
51
0.0789913
0
ARC
8
DEFAULT_255_1_388
10
6.2270877
20
52.980108
40
0.7681709
50
359.6455047
51
9.8607559
0
ARC
8
DEFAULT_255_1_388
10
6.4926601
20
53.0280664
40
0.498312
50
9.6573037
51
26.1931522
0
ARC
8
DEFAULT_255_1_388
10
6.5970676
20
53.0765587
40
0.3832303
50
26.5777895
51
40.1533752
0
ARC
8
DEFAULT_255_1_388
10
6.6258341
20
53.099002
40
0.3467742
50
40.3839958
51
80.1430923
0
ARC
8
DEFAULT_255_1_388
10
6.5890596
20
52.9359486
40
0.5137832
50
79.2153636
51
89.7445174
0
LINE
8
DEFAULT_255_1_388
10
4.3177367
20
61.5299898
11
4.3177367
21
60.2144
0
LINE
8
DEFAULT_255_1_388
10
4.3177367
20
60.2144
11
4.1442523
21
60.2144
0
LINE
8
DEFAULT_255_1_388
10
4.1442523
20
60.2144
11
4.1442523
21
61.5299898
0
LINE
8
DEFAULT_255_1_388
10
4.1442523
20
61.5299898
11
4.3177367
21
61.5299898
0
LINE
8
DEFAULT_255_1_388
10
5.1408839
20
61.5363148
11
5.1408839
21
60.2144
0
LINE
8
DEFAULT_255_1_388
10
5.1408839
20
60.2144
11
4.9728209
21
60.2144
0
LINE
8
DEFAULT_255_1_388
10
4.9728209
20
60.2144
11
4.9728209
21
61.328495
0
LINE
8
DEFAULT_255_1_388
10
4.9728209
20
61.328495
11
4.6357914
21
61.2047066
0
LINE
8
DEFAULT_255_1_388
10
4.6357914
20
61.2047066
11
4.6357914
21
61.3565055
0
LINE
8
DEFAULT_255_1_388
10
4.6357914
20
61.3565055
11
5.1146805
21
61.5363148
0
LINE
8
DEFAULT_255_1_388
10
5.1146805
20
61.5363148
11
5.1408839
21
61.5363148
0
LINE
8
DEFAULT_255_1_388
10
5.9956559
20
60.8414737
11
5.9956559
21
60.7050355
0
LINE
8
DEFAULT_255_1_388
10
5.9956559
20
60.7050355
11
5.5547164
21
60.7050355
0
LINE
8
DEFAULT_255_1_388
10
5.5547164
20
60.7050355
11
5.5547164
21
60.8414737
0
LINE
8
DEFAULT_255_1_388
10
5.5547164
20
60.8414737
11
5.9956559
21
60.8414737
0
LINE
8
DEFAULT_255_1_388
10
4.1787367
20
69.4674898
11
4.1787367
21
68.1519
0
LINE
8
DEFAULT_255_1_388
10
4.1787367
20
68.1519
11
4.0052523
21
68.1519
0
LINE
8
DEFAULT_255_1_388
10
4.0052523
20
68.1519
11
4.0052523
21
69.4674898
0
LINE
8
DEFAULT_255_1_388
10
4.0052523
20
69.4674898
11
4.1787367
21
69.4674898
0
LINE
8
DEFAULT_255_1_388
10
5.0018839
20
69.4738148
11
5.0018839
21
68.1519
0
LINE
8
DEFAULT_255_1_388
10
5.0018839
20
68.1519
11
4.8338209
21
68.1519
0
LINE
8
DEFAULT_255_1_388
10
4.8338209
20
68.1519
11
4.8338209
21
69.265995
0
LINE
8
DEFAULT_255_1_388
10
4.8338209
20
69.265995
11
4.4967914
21
69.1422066
0
LINE
8
DEFAULT_255_1_388
10
4.4967914
20
69.1422066
11
4.4967914
21
69.2940055
0
LINE
8
DEFAULT_255_1_388
10
4.4967914
20
69.2940055
11
4.9756805
21
69.4738148
0
LINE
8
DEFAULT_255_1_388
10
4.9756805
20
69.4738148
11
5.0018839
21
69.4738148
0
LINE
8
DEFAULT_255_1_388
10
5.9876727
20
69.2415987
11
5.9876727
21
68.8575838
0
LINE
8
DEFAULT_255_1_388
10
5.9876727
20
68.8575838
11
6.3545199
21
68.8575838
0
LINE
8
DEFAULT_255_1_388
10
6.3545199
20
68.8575838
11
6.3545199
21
68.6994601
0
LINE
8
DEFAULT_255_1_388
10
6.3545199
20
68.6994601
11
5.9876727
21
68.6994601
0
LINE
8
DEFAULT_255_1_388
10
5.9876727
20
68.6994601
11
5.9876727
21
68.2838204
0
LINE
8
DEFAULT_255_1_388
10
5.9876727
20
68.2838204
11
5.8196097
21
68.2838204
0
LINE
8
DEFAULT_255_1_388
10
5.8196097
20
68.2838204
11
5.8196097
21
68.6994601
0
LINE
8
DEFAULT_255_1_388
10
5.8196097
20
68.6994601
11
5.4527625
21
68.6994601
0
LINE
8
DEFAULT_255_1_388
10
5.4527625
20
68.6994601
11
5.4527625
21
68.8575838
0
LINE
8
DEFAULT_255_1_388
10
5.4527625
20
68.8575838
11
5.8196097
21
68.8575838
0
LINE
8
DEFAULT_255_1_388
10
5.8196097
20
68.8575838
11
5.8196097
21
69.2415987
0
LINE
8
DEFAULT_255_1_388
10
5.8196097
20
69.2415987
11
5.9876727
21
69.2415987
0
LINE
8
DEFAULT_255_1_388
10
4.8122322
20
76.0894
11
4.5267058
21
76.6215995
0
LINE
8
DEFAULT_255_1_388
10
4.5267058
20
76.6215995
11
4.2176868
21
76.6215995
0
LINE
8
DEFAULT_255_1_388
10
4.2176868
20
76.6215995
11
4.2176868
21
76.0894
0
LINE
8
DEFAULT_255_1_388
10
4.2176868
20
76.0894
11
4.0432988
21
76.0894
0
LINE
8
DEFAULT_255_1_388
10
4.0432988
20
76.0894
11
4.0432988
21
77.4049898
0
LINE
8
DEFAULT_255_1_388
10
4.0432988
20
77.4049898
11
4.4788169
21
77.4049898
0
LINE
8
DEFAULT_255_1_388
10
4.6893474
20
76.6586456
11
4.9983665
21
76.1002428
0
LINE
8
DEFAULT_255_1_388
10
4.9983665
20
76.1002428
11
4.9983665
21
76.0894
0
LINE
8
DEFAULT_255_1_388
10
4.9983665
20
76.0894
11
4.8122322
21
76.0894
0
LINE
8
DEFAULT_255_1_388
10
4.2176868
20
77.2622267
11
4.2176868
21
76.7634591
0
LINE
8
DEFAULT_255_1_388
10
4.2176868
20
76.7634591
11
4.4842383
21
76.7634591
0
LINE
8
DEFAULT_255_1_388
10
4.4833347
20
77.2622267
11
4.2176868
21
77.2622267
0
ARC
8
DEFAULT_255_1_388
10
4.4835015
20
76.6218346
40
0.7831693
50
80.6535681
51
90.3427203
0
ARC
8
DEFAULT_255_1_388
10
4.5306925
20
76.8988722
40
0.5021479
50
65.6987674
51
80.8330164
0
ARC
8
DEFAULT_255_1_388
10
4.5844219
20
77.0220479
40
0.3677787
50
50.0019152
51
65.4304412
0
ARC
8
DEFAULT_255_1_388
10
4.6090035
20
77.0552603
40
0.3265454
50
11.6284215
51
49.5603681
0
ARC
8
DEFAULT_255_1_388
10
4.4362521
20
77.0130524
40
0.5043009
50
359.5655533
51
12.3693319
0
ARC
8
DEFAULT_255_1_388
10
4.5573858
20
77.0060038
40
0.3831661
50
341.998418
51
0.4822212
0
ARC
8
DEFAULT_255_1_388
10
4.6018044
20
76.9939479
40
0.3372036
50
323.8610842
51
341.6141514
0
ARC
8
DEFAULT_255_1_388
10
4.567859
20
77.0201615
40
0.3800784
50
296.7019299
51
323.6876213
0
ARC
8
DEFAULT_255_1_388
10
4.5182548
20
77.1088532
40
0.4816219
50
290.808313
51
297.2325929
0
ARC
8
DEFAULT_255_1_388
10
4.4871342
20
77.1677377
40
0.404289
50
269.5895908
51
281.8058892
0
ARC
8
DEFAULT_255_1_388
10
4.5153608
20
77.038636
40
0.2721459
50
281.5499321
51
303.9358954
0
ARC
8
DEFAULT_255_1_388
10
4.5308143
20
77.0118588
40
0.2413121
50
304.4410786
51
311.211123
0
ARC
8
DEFAULT_255_1_388
10
4.5456548
20
76.9962152
40
0.2197678
50
310.9874923
51
356.2715203
0
ARC
8
DEFAULT_255_1_388
10
4.4606294
20
77.0088992
40
0.3055212
50
354.9346315
51
0.0617816
0
ARC
8
DEFAULT_255_1_388
10
4.4395135
20
77.0119427
40
0.3266482
50
359.5239293
51
12.8808621
0
ARC
8
DEFAULT_255_1_388
10
4.5494898
20
77.0388638
40
0.2134449
50
12.417206
51
43.1023141
0
ARC
8
DEFAULT_255_1_388
10
4.5564228
20
77.0430253
40
0.2055463
50
43.575886
51
48.2047245
0
ARC
8
DEFAULT_255_1_388
10
4.5373489
20
77.0181151
40
0.2368418
50
48.7809155
51
72.6968768
0
ARC
8
DEFAULT_255_1_388
10
4.4974853
20
76.8971385
40
0.364206
50
72.3699892
51
84.8793749
0
ARC
8
DEFAULT_255_1_388
10
4.4808859
20
76.7461651
40
0.5160674
50
84.5398226
51
89.7281165
0
LINE
8
DEFAULT_255_1_388
10
6.0202979
20
77.4049898
11
6.0202979
21
77.2622267
0
LINE
8
DEFAULT_255_1_388
10
6.0202979
20
77.2622267
11
5.5974297
21
77.2622267
0
LINE
8
DEFAULT_255_1_388
10
5.5974297
20
77.2622267
11
5.5974297
21
76.0894
0
LINE
8
DEFAULT_255_1_388
10
5.5974297
20
76.0894
11
5.4248489
21
76.0894
0
LINE
8
DEFAULT_255_1_388
10
5.4248489
20
76.0894
11
5.4248489
21
77.2622267
0
LINE
8
DEFAULT_255_1_388
10
5.4248489
20
77.2622267
11
5.0028843
21
77.2622267
0
LINE
8
DEFAULT_255_1_388
10
5.0028843
20
77.2622267
11
5.0028843
21
77.4049898
0
LINE
8
DEFAULT_255_1_388
10
5.0028843
20
77.4049898
11
6.0202979
21
77.4049898
0
LINE
8
DEFAULT_255_1_388
10
6.5796042
20
76.0894
11
6.2154678
21
76.0894
0
LINE
8
DEFAULT_255_1_388
10
6.2154678
20
76.0894
11
6.2154678
21
77.4049898
0
LINE
8
DEFAULT_255_1_388
10
6.2154678
20
77.4049898
11
6.5868328
21
77.4049898
0
LINE
8
DEFAULT_255_1_388
10
7.1669211
20
76.7914696
11
7.1669211
21
76.7074381
0
LINE
8
DEFAULT_255_1_388
10
6.5913506
20
77.2622267
11
6.3889521
21
77.2622267
0
LINE
8
DEFAULT_255_1_388
10
6.3889521
20
77.2622267
11
6.3889521
21
76.2312596
0
LINE
8
DEFAULT_255_1_388
10
6.3889521
20
76.2312596
11
6.5714722
21
76.2312596
0
LINE
8
DEFAULT_255_1_388
10
6.9952439
20
76.7110523
11
6.9952439
21
76.7878553
0
ARC
8
DEFAULT_255_1_388
10
6.5912122
20
76.7451436
40
0.6598608
50
75.4100343
51
90.3802731
0
ARC
8
DEFAULT_255_1_388
10
6.6170368
20
76.8527691
40
0.5492049
50
60.1455157
51
75.1889627
0
ARC
8
DEFAULT_255_1_388
10
6.6348959
20
76.8838914
40
0.5133226
50
26.525419
51
60.1451222
0
ARC
8
DEFAULT_255_1_388
10
6.5088746
20
76.8170642
40
0.6559324
50
7.4029944
51
26.832209
0
ARC
8
DEFAULT_255_1_388
10
6.3295143
20
76.7891229
40
0.8374103
50
0.1605597
51
7.7176135
0
ARC
8
DEFAULT_255_1_388
10
6.3479543
20
76.7031321
40
0.8189782
50
348.7289744
51
0.30125
0
ARC
8
DEFAULT_255_1_388
10
6.5343007
20
76.6661156
40
0.628991
50
333.0706936
51
348.7181455
0
ARC
8
DEFAULT_255_1_388
10
6.6430635
20
76.6070449
40
0.5052808
50
299.2531435
51
333.4571133
0
ARC
8
DEFAULT_255_1_388
10
6.6024666
20
76.6841629
40
0.5924066
50
278.1072193
51
299.0340218
0
ARC
8
DEFAULT_255_1_388
10
6.5736715
20
76.8537979
40
0.7644209
50
270.4446841
51
278.4508355
0
ARC
8
DEFAULT_255_1_388
10
6.5760198
20
76.74923
40
0.5179903
50
269.4969684
51
284.0204874
0
ARC
8
DEFAULT_255_1_388
10
6.6159917
20
76.5956415
40
0.3592968
50
283.7699076
51
318.1557121
0
ARC
8
DEFAULT_255_1_388
10
6.5780462
20
76.6240399
40
0.4065308
50
318.7417595
51
343.687252
0
ARC
8
DEFAULT_255_1_388
10
6.3751041
20
76.6874275
40
0.6191194
50
343.3324891
51
355.8548594
0
ARC
8
DEFAULT_255_1_388
10
6.1390078
20
76.7098719
40
0.856237
50
355.4988754
51
0.0789913
0
ARC
8
DEFAULT_255_1_388
10
6.2270877
20
76.792608
40
0.7681709
50
359.6455047
51
9.8607559
0
ARC
8
DEFAULT_255_1_388
10
6.4926601
20
76.8405664
40
0.498312
50
9.6573037
51
26.1931522
0
ARC
8
DEFAULT_255_1_388
10
6.5970676
20
76.8890587
40
0.3832303
50
26.5777895
51
40.1533752
0
ARC
8
DEFAULT_255_1_388
10
6.6258341
20
76.911502
40
0.3467742
50
40.3839958
51
80.1430923
0
ARC
8
DEFAULT_255_1_388
10
6.5890596
20
76.7484486
40
0.5137832
50
79.2153636
51
89.7445174
0
LINE
8
DEFAULT_255_1_388
10
4.3177367
20
85.3424898
11
4.3177367
21
84.0269
0
LINE
8
DEFAULT_255_1_388
10
4.3177367
20
84.0269
11
4.1442523
21
84.0269
0
LINE
8
DEFAULT_255_1_388
10
4.1442523
20
84.0269
11
4.1442523
21
85.3424898
0
LINE
8
DEFAULT_255_1_388
10
4.1442523
20
85.3424898
11
4.3177367
21
85.3424898
0
LINE
8
DEFAULT_255_1_388
10
5.416471
20
84.804869
11
5.416471
21
84.5880135
0
LINE
8
DEFAULT_255_1_388
10
4.5860953
20
84.5654244
11
4.5860953
21
84.7886048
0
LINE
8
DEFAULT_255_1_388
10
5.2493116
20
84.5428353
11
5.2493116
21
84.8166153
0
LINE
8
DEFAULT_255_1_388
10
4.7532547
20
84.8292652
11
4.7532547
21
84.5618102
0
ARC
8
DEFAULT_255_1_388
10
4.0387044
20
84.5825118
40
1.3777776
50
353.8440855
51
0.2287917
0
ARC
8
DEFAULT_255_1_388
10
4.5606062
20
84.5242414
40
0.852639
50
344.4934746
51
353.9763743
0
ARC
8
DEFAULT_255_1_388
10
4.8972869
20
84.4285191
40
0.5026273
50
329.2803599
51
344.7473406
0
ARC
8
DEFAULT_255_1_388
10
5.0088365
20
84.3673038
40
0.3754848
50
324.9361395
51
328.6153007
0
ARC
8
DEFAULT_255_1_388
10
5.0514015
20
84.3375586
40
0.3235566
50
280.5801797
51
324.9173226
0
ARC
8
DEFAULT_255_1_388
10
5.0062643
20
84.5255236
40
0.5167077
50
269.5979457
51
281.6732777
0
ARC
8
DEFAULT_255_1_388
10
4.9981547
20
84.5120113
40
0.5032026
50
256.6228565
51
270.5105488
0
ARC
8
DEFAULT_255_1_388
10
4.9529289
20
84.3378345
40
0.3233092
50
215.8618351
51
257.2787793
0
ARC
8
DEFAULT_255_1_388
10
5.0677996
20
84.4149106
40
0.4615831
50
197.9695203
51
215.2622745
0
ARC
8
DEFAULT_255_1_388
10
5.3473672
20
84.5092641
40
0.7566307
50
187.8816486
51
198.2346584
0
ARC
8
DEFAULT_255_1_388
10
5.792691
20
84.5735453
40
1.2065653
50
180.8977266
51
188.0054894
0
ARC
8
DEFAULT_255_1_388
10
6.0977124
20
84.58504
40
1.5117443
50
180.7434591
51
181.152202
0
ARC
8
DEFAULT_255_1_388
10
5.930212
20
84.7940371
40
1.3441277
50
173.7674302
51
180.2315596
0
ARC
8
DEFAULT_255_1_388
10
5.4219989
20
84.8514779
40
0.8326847
50
164.3058537
51
173.9000553
0
ARC
8
DEFAULT_255_1_388
10
5.0943989
20
84.9458652
40
0.4917711
50
148.7922028
51
164.5682288
0
ARC
8
DEFAULT_255_1_388
10
4.9874726
20
85.0055457
40
0.3694204
50
144.5883979
51
148.1161588
0
ARC
8
DEFAULT_255_1_388
10
4.9487472
20
85.0325667
40
0.322202
50
101.6440149
51
144.5142619
0
ARC
8
DEFAULT_255_1_388
10
4.9965664
20
84.8425337
40
0.5180451
50
89.528284
51
102.5820197
0
ARC
8
DEFAULT_255_1_388
10
5.0054656
20
84.8381376
40
0.5224441
50
77.0437914
51
90.508231
0
ARC
8
DEFAULT_255_1_388
10
5.0506909
20
85.0229272
40
0.3322297
50
48.2777708
51
77.4996087
0
ARC
8
DEFAULT_255_1_388
10
5.0588649
20
85.0374557
40
0.315966
50
36.3141586
51
47.6307332
0
ARC
8
DEFAULT_255_1_388
10
4.9611372
20
84.9716159
40
0.4337313
50
18.2931065
51
35.6770203
0
ARC
8
DEFAULT_255_1_388
10
4.6750212
20
84.8734107
40
0.7362203
50
8.0246996
51
18.5605636
0
ARC
8
DEFAULT_255_1_388
10
4.2066568
20
84.8042432
40
1.2096583
50
1.127539
51
8.1718423
0
ARC
8
DEFAULT_255_1_388
10
3.8417701
20
84.7899374
40
1.5747719
50
0.5432713
51
1.38669
0
ARC
8
DEFAULT_255_1_388
10
4.047508
20
84.8206163
40
1.2018103
50
359.8092569
51
4.9408001
0
ARC
8
DEFAULT_255_1_388
10
4.5211661
20
84.86289
40
0.7262727
50
4.8364937
51
12.2906017
0
ARC
8
DEFAULT_255_1_388
10
4.8311126
20
84.9319485
40
0.4087324
50
12.0806994
51
23.8171225
0
ARC
8
DEFAULT_255_1_388
10
4.9631522
20
84.9878508
40
0.2653719
50
24.2874621
51
31.3934353
0
ARC
8
DEFAULT_255_1_388
10
5.0221958
20
85.0264822
40
0.1948607
50
30.7407708
51
82.4658033
0
ARC
8
DEFAULT_255_1_388
10
5.0019619
20
84.9271017
40
0.2961198
50
81.1057101
51
90.2187368
0
ARC
8
DEFAULT_255_1_388
10
4.9979431
20
84.9561421
40
0.2670929
50
89.380395
51
105.6763916
0
ARC
8
DEFAULT_255_1_388
10
4.9773153
20
85.031132
40
0.1893189
50
105.7980655
51
149.7387869
0
ARC
8
DEFAULT_255_1_388
10
5.0970293
20
84.9591719
40
0.3289892
50
149.4208441
51
163.628295
0
ARC
8
DEFAULT_255_1_388
10
5.3322522
20
84.8874345
40
0.5749004
50
163.3764549
51
172.141138
0
ARC
8
DEFAULT_255_1_388
10
5.7035244
20
84.8342582
40
0.9499585
50
172.0258462
51
178.0705453
0
ARC
8
DEFAULT_255_1_388
10
6.0456797
20
84.8180682
40
1.2924734
50
177.8639301
51
179.5036263
0
ARC
8
DEFAULT_255_1_388
10
5.9237815
20
84.5577151
40
1.170534
50
179.7995545
51
185.246089
0
ARC
8
DEFAULT_255_1_388
10
5.4689408
20
84.5146404
40
0.7136613
50
185.1411911
51
193.0082205
0
ARC
8
DEFAULT_255_1_388
10
5.1715669
20
84.4443441
40
0.4080987
50
192.7897338
51
205.2507384
0
ARC
8
DEFAULT_255_1_388
10
5.0537879
20
84.3917538
40
0.2791522
50
205.8001921
51
211.2545876
0
ARC
8
DEFAULT_255_1_388
10
4.9949418
20
84.3523132
40
0.2084074
50
210.3789935
51
238.4007996
0
ARC
8
DEFAULT_255_1_388
10
4.9927504
20
84.3575786
40
0.2117943
50
239.6521916
51
265.9793852
0
ARC
8
DEFAULT_255_1_388
10
5.0023353
20
84.4332358
40
0.2879689
50
265.1324455
51
270.0603288
0
ARC
8
DEFAULT_255_1_388
10
5.005573
20
84.3967418
40
0.2514919
50
269.3314378
51
287.2180039
0
ARC
8
DEFAULT_255_1_388
10
5.0210812
20
84.3401291
40
0.1928357
50
287.7957942
51
329.0808983
0
ARC
8
DEFAULT_255_1_388
10
4.9133569
20
84.4073651
40
0.319808
50
328.6635261
51
343.3325043
0
ARC
8
DEFAULT_255_1_388
10
4.6689028
20
84.4835195
40
0.5758408
50
343.0498092
51
351.9392499
0
ARC
8
DEFAULT_255_1_388
10
4.278835
20
84.5410205
40
0.9701202
50
351.8071632
51
357.7957897
0
ARC
8
DEFAULT_255_1_388
10
3.9153827
20
84.5598724
40
1.3340376
50
357.5870923
51
359.2682493
0
LINE
8
DEFAULT_255_1_388
10
5.9956559
20
84.6539737
11
5.9956559
21
84.5175355
0
LINE
8
DEFAULT_255_1_388
10
5.9956559
20
84.5175355
11
5.5547164
21
84.5175355
0
LINE
8
DEFAULT_255_1_388
10
5.5547164
20
84.5175355
11
5.5547164
21
84.6539737
0
LINE
8
DEFAULT_255_1_388
10
5.5547164
20
84.6539737
11
5.9956559
21
84.6539737
0
LINE
8
DEFAULT_255_1_388
10
4.1787367
20
93.2799898
11
4.1787367
21
91.9644
0
LINE
8
DEFAULT_255_1_388
10
4.1787367
20
91.9644
11
4.0052523
21
91.9644
0
LINE
8
DEFAULT_255_1_388
10
4.0052523
20
91.9644
11
4.0052523
21
93.2799898
0
LINE
8
DEFAULT_255_1_388
10
4.0052523
20
93.2799898
11
4.1787367
21
93.2799898
0
LINE
8
DEFAULT_255_1_388
10
5.277471
20
92.742369
11
5.277471
21
92.5255135
0
LINE
8
DEFAULT_255_1_388
10
4.4470953
20
92.5029244
11
4.4470953
21
92.7261048
0
LINE
8
DEFAULT_255_1_388
10
5.1103116
20
92.4803353
11
5.1103116
21
92.7541153
0
LINE
8
DEFAULT_255_1_388
10
4.6142547
20
92.7667652
11
4.6142547
21
92.4993102
0
ARC
8
DEFAULT_255_1_388
10
3.8997044
20
92.5200118
40
1.3777776
50
353.8440855
51
0.2287917
0
ARC
8
DEFAULT_255_1_388
10
4.4216062
20
92.4617414
40
0.852639
50
344.4934746
51
353.9763743
0
ARC
8
DEFAULT_255_1_388
10
4.7582869
20
92.3660191
40
0.5026273
50
329.2803599
51
344.7473406
0
ARC
8
DEFAULT_255_1_388
10
4.8698365
20
92.3048038
40
0.3754848
50
324.9361395
51
328.6153007
0
ARC
8
DEFAULT_255_1_388
10
4.9124015
20
92.2750586
40
0.3235566
50
280.5801797
51
324.9173226
0
ARC
8
DEFAULT_255_1_388
10
4.8672643
20
92.4630236
40
0.5167077
50
269.5979457
51
281.6732777
0
ARC
8
DEFAULT_255_1_388
10
4.8591547
20
92.4495113
40
0.5032026
50
256.6228565
51
270.5105488
0
ARC
8
DEFAULT_255_1_388
10
4.8139289
20
92.2753345
40
0.3233092
50
215.8618351
51
257.2787793
0
ARC
8
DEFAULT_255_1_388
10
4.9287996
20
92.3524106
40
0.4615831
50
197.9695203
51
215.2622745
0
ARC
8
DEFAULT_255_1_388
10
5.2083672
20
92.4467641
40
0.7566307
50
187.8816486
51
198.2346584
0
ARC
8
DEFAULT_255_1_388
10
5.653691
20
92.5110453
40
1.2065653
50
180.8977266
51
188.0054894
0
ARC
8
DEFAULT_255_1_388
10
5.9587124
20
92.52254
40
1.5117443
50
180.7434591
51
181.152202
0
ARC
8
DEFAULT_255_1_388
10
5.791212
20
92.7315371
40
1.3441277
50
173.7674302
51
180.2315596
0
ARC
8
DEFAULT_255_1_388
10
5.2829989
20
92.7889779
40
0.8326847
50
164.3058537
51
173.9000553
0
ARC
8
DEFAULT_255_1_388
10
4.9553989
20
92.8833652
40
0.4917711
50
148.7922028
51
164.5682288
0
ARC
8
DEFAULT_255_1_388
10
4.8484726
20
92.9430457
40
0.3694204
50
144.5883979
51
148.1161588
0
ARC
8
DEFAULT_255_1_388
10
4.8097472
20
92.9700667
40
0.322202
50
101.6440149
51
144.5142619
0
ARC
8
DEFAULT_255_1_388
10
4.8575664
20
92.7800337
40
0.5180451
50
89.528284
51
102.5820197
0
ARC
8
DEFAULT_255_1_388
10
4.8664656
20
92.7756376
40
0.5224441
50
77.0437914
51
90.508231
0
ARC
8
DEFAULT_255_1_388
10
4.9116909
20
92.9604272
40
0.3322297
50
48.2777708
51
77.4996087
0
ARC
8
DEFAULT_255_1_388
10
4.9198649
20
92.9749557
40
0.315966
50
36.3141586
51
47.6307332
0
ARC
8
DEFAULT_255_1_388
10
4.8221372
20
92.9091159
40
0.4337313
50
18.2931065
51
35.6770203
0
ARC
8
DEFAULT_255_1_388
10
4.5360212
20
92.8109107
40
0.7362203
50
8.0246996
51
18.5605636
0
ARC
8
DEFAULT_255_1_388
10
4.0676568
20
92.7417432
40
1.2096583
50
1.127539
51
8.1718423
0
ARC
8
DEFAULT_255_1_388
10
3.7027701
20
92.7274374
40
1.5747719
50
0.5432713
51
1.38669
0
ARC
8
DEFAULT_255_1_388
10
3.908508
20
92.7581163
40
1.2018103
50
359.8092569
51
4.9408001
0
ARC
8
DEFAULT_255_1_388
10
4.3821661
20
92.80039
40
0.7262727
50
4.8364937
51
12.2906017
0
ARC
8
DEFAULT_255_1_388
10
4.6921126
20
92.8694485
40
0.4087324
50
12.0806994
51
23.8171225
0
ARC
8
DEFAULT_255_1_388
10
4.8241522
20
92.9253508
40
0.2653719
50
24.2874621
51
31.3934353
0
ARC
8
DEFAULT_255_1_388
10
4.8831958
20
92.9639822
40
0.1948607
50
30.7407708
51
82.4658033
0
ARC
8
DEFAULT_255_1_388
10
4.8629619
20
92.8646017
40
0.2961198
50
81.1057101
51
90.2187368
0
ARC
8
DEFAULT_255_1_388
10
4.8589431
20
92.8936421
40
0.2670929
50
89.380395
51
105.6763916
0
ARC
8
DEFAULT_255_1_388
10
4.8383153
20
92.968632
40
0.1893189
50
105.7980655
51
149.7387869
0
ARC
8
DEFAULT_255_1_388
10
4.9580293
20
92.8966719
40
0.3289892
50
149.4208441
51
163.628295
0
ARC
8
DEFAULT_255_1_388
10
5.1932522
20
92.8249345
40
0.5749004
50
163.3764549
51
172.141138
0
ARC
8
DEFAULT_255_1_388
10
5.5645244
20
92.7717582
40
0.9499585
50
172.0258462
51
178.0705453
0
ARC
8
DEFAULT_255_1_388
10
5.9066797
20
92.7555682
40
1.2924734
50
177.8639301
51
179.5036263
0
ARC
8
DEFAULT_255_1_388
10
5.7847815
20
92.4952151
40
1.170534
50
179.7995545
51
185.246089
0
ARC
8
DEFAULT_255_1_388
10
5.3299408
20
92.4521404
40
0.7136613
50
185.1411911
51
193.0082205
0
ARC
8
DEFAULT_255_1_388
10
5.0325669
20
92.3818441
40
0.4080987
50
192.7897338
51
205.2507384
0
ARC
8
DEFAULT_255_1_388
10
4.9147879
20
92.3292538
40
0.2791522
50
205.8001921
51
211.2545876
0
ARC
8
DEFAULT_255_1_388
10
4.8559418
20
92.2898132
40
0.2084074
50
210.3789935
51
238.4007996
0
ARC
8
DEFAULT_255_1_388
10
4.8537504
20
92.2950786
40
0.2117943
50
239.6521916
51
265.9793852
0
ARC
8
DEFAULT_255_1_388
10
4.8633353
20
92.3707358
40
0.2879689
50
265.1324455
51
270.0603288
0
ARC
8
DEFAULT_255_1_388
10
4.866573
20
92.3342418
40
0.2514919
50
269.3314378
51
287.2180039
0
ARC
8
DEFAULT_255_1_388
10
4.8820812
20
92.2776291
40
0.1928357
50
287.7957942
51
329.0808983
0
ARC
8
DEFAULT_255_1_388
10
4.7743569
20
92.3448651
40
0.319808
50
328.6635261
51
343.3325043
0
ARC
8
DEFAULT_255_1_388
10
4.5299028
20
92.4210195
40
0.5758408
50
343.0498092
51
351.9392499
0
ARC
8
DEFAULT_255_1_388
10
4.139835
20
92.4785205
40
0.9701202
50
351.8071632
51
357.7957897
0
ARC
8
DEFAULT_255_1_388
10
3.7763827
20
92.4973724
40
1.3340376
50
357.5870923
51
359.2682493
0
LINE
8
DEFAULT_255_1_388
10
5.9876727
20
93.0540987
11
5.9876727
21
92.6700838
0
LINE
8
DEFAULT_255_1_388
10
5.9876727
20
92.6700838
11
6.3545199
21
92.6700838
0
LINE
8
DEFAULT_255_1_388
10
6.3545199
20
92.6700838
11
6.3545199
21
92.5119601
0
LINE
8
DEFAULT_255_1_388
10
6.3545199
20
92.5119601
11
5.9876727
21
92.5119601
0
LINE
8
DEFAULT_255_1_388
10
5.9876727
20
92.5119601
11
5.9876727
21
92.0963204
0
LINE
8
DEFAULT_255_1_388
10
5.9876727
20
92.0963204
11
5.8196097
21
92.0963204
0
LINE
8
DEFAULT_255_1_388
10
5.8196097
20
92.0963204
11
5.8196097
21
92.5119601
0
LINE
8
DEFAULT_255_1_388
10
5.8196097
20
92.5119601
11
5.4527625
21
92.5119601
0
LINE
8
DEFAULT_255_1_388
10
5.4527625
20
92.5119601
11
5.4527625
21
92.6700838
0
LINE
8
DEFAULT_255_1_388
10
5.4527625
20
92.6700838
11
5.8196097
21
92.6700838
0
LINE
8
DEFAULT_255_1_388
10
5.8196097
20
92.6700838
11
5.8196097
21
93.0540987
0
LINE
8
DEFAULT_255_1_388
10
5.8196097
20
93.0540987
11
5.9876727
21
93.0540987
0
LINE
8
DEFAULT_255_1_388
10
23.1198856
20
100.679869
11
23.1198856
21
100.4630135
0
LINE
8
DEFAULT_255_1_388
10
22.2895099
20
100.4404244
11
22.2895099
21
100.6636048
0
LINE
8
DEFAULT_255_1_388
10
22.9527262
20
100.4178353
11
22.9527262
21
100.6916153
0
LINE
8
DEFAULT_255_1_388
10
22.4566693
20
100.7042652
11
22.4566693
21
100.4368102
0
ARC
8
DEFAULT_255_1_388
10
21.742119
20
100.4575118
40
1.3777776
50
353.8440855
51
0.2287917
0
ARC
8
DEFAULT_255_1_388
10
22.2640208
20
100.3992414
40
0.852639
50
344.4934746
51
353.9763743
0
ARC
8
DEFAULT_255_1_388
10
22.6007015
20
100.3035191
40
0.5026273
50
329.2803599
51
344.7473406
0
ARC
8
DEFAULT_255_1_388
10
22.7122511
20
100.2423038
40
0.3754848
50
324.9361395
51
328.6153007
0
ARC
8
DEFAULT_255_1_388
10
22.7548161
20
100.2125586
40
0.3235566
50
280.5801797
51
324.9173226
0
ARC
8
DEFAULT_255_1_388
10
22.7096789
20
100.4005236
40
0.5167077
50
269.5979457
51
281.6732777
0
ARC
8
DEFAULT_255_1_388
10
22.7015693
20
100.3870113
40
0.5032026
50
256.6228565
51
270.5105488
0
ARC
8
DEFAULT_255_1_388
10
22.6563435
20
100.2128345
40
0.3233092
50
215.8618351
51
257.2787793
0
ARC
8
DEFAULT_255_1_388
10
22.7712142
20
100.2899106
40
0.4615831
50
197.9695203
51
215.2622745
0
ARC
8
DEFAULT_255_1_388
10
23.0507818
20
100.3842641
40
0.7566307
50
187.8816486
51
198.2346584
0
ARC
8
DEFAULT_255_1_388
10
23.4961056
20
100.4485453
40
1.2065653
50
180.8977266
51
188.0054894
0
ARC
8
DEFAULT_255_1_388
10
23.801127
20
100.46004
40
1.5117443
50
180.7434591
51
181.152202
0
ARC
8
DEFAULT_255_1_388
10
23.6336266
20
100.6690371
40
1.3441277
50
173.7674302
51
180.2315596
0
ARC
8
DEFAULT_255_1_388
10
23.1254135
20
100.7264779
40
0.8326847
50
164.3058537
51
173.9000553
0
ARC
8
DEFAULT_255_1_388
10
22.7978135
20
100.8208652
40
0.4917711
50
148.7922028
51
164.5682288
0
ARC
8
DEFAULT_255_1_388
10
22.6908872
20
100.8805457
40
0.3694204
50
144.5883979
51
148.1161588
0
ARC
8
DEFAULT_255_1_388
10
22.6521618
20
100.9075667
40
0.322202
50
101.6440149
51
144.5142619
0
ARC
8
DEFAULT_255_1_388
10
22.699981
20
100.7175337
40
0.5180451
50
89.528284
51
102.5820197
0
ARC
8
DEFAULT_255_1_388
10
22.7088802
20
100.7131376
40
0.5224441
50
77.0437914
51
90.508231
0
ARC
8
DEFAULT_255_1_388
10
22.7541055
20
100.8979272
40
0.3322297
50
48.2777708
51
77.4996087
0
ARC
8
DEFAULT_255_1_388
10
22.7622795
20
100.9124557
40
0.315966
50
36.3141586
51
47.6307332
0
ARC
8
DEFAULT_255_1_388
10
22.6645518
20
100.8466159
40
0.4337313
50
18.2931065
51
35.6770203
0
ARC
8
DEFAULT_255_1_388
10
22.3784358
20
100.7484107
40
0.7362203
50
8.0246996
51
18.5605636
0
ARC
8
DEFAULT_255_1_388
10
21.9100714
20
100.6792432
40
1.2096583
50
1.127539
51
8.1718423
0
ARC
8
DEFAULT_255_1_388
10
21.5451847
20
100.6649374
40
1.5747719
50
0.5432713
51
1.38669
0
ARC
8
DEFAULT_255_1_388
10
21.7509226
20
100.6956163
40
1.2018103
50
359.8092569
51
4.9408001
0
ARC
8
DEFAULT_255_1_388
10
22.2245807
20
100.73789
40
0.7262727
50
4.8364937
51
12.2906017
0
ARC
8
DEFAULT_255_1_388
10
22.5345272
20
100.8069485
40
0.4087324
50
12.0806994
51
23.8171225
0
ARC
8
DEFAULT_255_1_388
10
22.6665668
20
100.8628508
40
0.2653719
50
24.2874621
51
31.3934353
0
ARC
8
DEFAULT_255_1_388
10
22.7256104
20
100.9014822
40
0.1948607
50
30.7407708
51
82.4658033
0
ARC
8
DEFAULT_255_1_388
10
22.7053765
20
100.8021017
40
0.2961198
50
81.1057101
51
90.2187368
0
ARC
8
DEFAULT_255_1_388
10
22.7013577
20
100.8311421
40
0.2670929
50
89.380395
51
105.6763916
0
ARC
8
DEFAULT_255_1_388
10
22.6807299
20
100.906132
40
0.1893189
50
105.7980655
51
149.7387869
0
ARC
8
DEFAULT_255_1_388
10
22.8004439
20
100.8341719
40
0.3289892
50
149.4208441
51
163.628295
0
ARC
8
DEFAULT_255_1_388
10
23.0356668
20
100.7624345
40
0.5749004
50
163.3764549
51
172.141138
0
ARC
8
DEFAULT_255_1_388
10
23.406939
20
100.7092582
40
0.9499585
50
172.0258462
51
178.0705453
0
ARC
8
DEFAULT_255_1_388
10
23.7490943
20
100.6930682
40
1.2924734
50
177.8639301
51
179.5036263
0
ARC
8
DEFAULT_255_1_388
10
23.6271961
20
100.4327151
40
1.170534
50
179.7995545
51
185.246089
0
ARC
8
DEFAULT_255_1_388
10
23.1723554
20
100.3896404
40
0.7136613
50
185.1411911
51
193.0082205
0
ARC
8
DEFAULT_255_1_388
10
22.8749815
20
100.3193441
40
0.4080987
50
192.7897338
51
205.2507384
0
ARC
8
DEFAULT_255_1_388
10
22.7572025
20
100.2667538
40
0.2791522
50
205.8001921
51
211.2545876
0
ARC
8
DEFAULT_255_1_388
10
22.6983564
20
100.2273132
40
0.2084074
50
210.3789935
51
238.4007996
0
ARC
8
DEFAULT_255_1_388
10
22.696165
20
100.2325786
40
0.2117943
50
239.6521916
51
265.9793852
0
ARC
8
DEFAULT_255_1_388
10
22.7057499
20
100.3082358
40
0.2879689
50
265.1324455
51
270.0603288
0
ARC
8
DEFAULT_255_1_388
10
22.7089876
20
100.2717418
40
0.2514919
50
269.3314378
51
287.2180039
0
ARC
8
DEFAULT_255_1_388
10
22.7244958
20
100.2151291
40
0.1928357
50
287.7957942
51
329.0808983
0
ARC
8
DEFAULT_255_1_388
10
22.6167715
20
100.2823651
40
0.319808
50
328.6635261
51
343.3325043
0
ARC
8
DEFAULT_255_1_388
10
22.3723174
20
100.3585195
40
0.5758408
50
343.0498092
51
351.9392499
0
ARC
8
DEFAULT_255_1_388
10
21.9822496
20
100.4160205
40
0.9701202
50
351.8071632
51
357.7957897
0
ARC
8
DEFAULT_255_1_388
10
21.6187973
20
100.4348724
40
1.3340376
50
357.5870923
51
359.2682493
0
LINE
8
DEFAULT_255_1_388
10
23.4388439
20
101.2174898
11
23.8129196
21
100.1323089
0
LINE
8
DEFAULT_255_1_388
10
23.8129196
20
100.1323089
11
24.1888024
21
101.2174898
0
LINE
8
DEFAULT_255_1_388
10
24.1888024
20
101.2174898
11
24.3785509
21
101.2174898
0
LINE
8
DEFAULT_255_1_388
10
24.3785509
20
101.2174898
11
23.8906261
21
99.9019
0
LINE
8
DEFAULT_255_1_388
10
23.8906261
20
99.9019
11
23.7370202
21
99.9019
0
LINE
8
DEFAULT_255_1_388
10
23.7370202
20
99.9019
11
23.2499989
21
101.2174898
0
LINE
8
DEFAULT_255_1_388
10
23.2499989
20
101.2174898
11
23.4388439
21
101.2174898
0
ENDSEC
0
EOF