0
SECTION
2
HEADER
9
$MEASUREMENT
70
1
0
ENDSEC
0
SECTION
2
TABLES
0
TABLE
2
LTYPE
0
LTYPE
72
65
70
64
2
CONTINUOUS
3
______
73
0
40
0
0
ENDTAB
0
TABLE
2
LAYER
0
LAYER
2
DEFAULT_255_2_778
70
0
62
255
6
CONTINUOUS
0
ENDTAB
0
ENDSEC
0
SECTION
2
ENTITIES
0
LINE
8
DEFAULT_255_2_778
10
59.8117497
20
-0.1006858
11
59.8117497
21
102.7624142
0
ARC
8
DEFAULT_255_2_778
10
64.986645
20
103.1909933
40
5.1926122
50
183.2570114
51
184.7343691
0
ARC
8
DEFAULT_255_2_778
10
64.3228161
20
103.1532301
40
4.5277102
50
181.7120783
51
183.2571777
0
ARC
8
DEFAULT_255_2_778
10
63.7400743
20
103.1359275
40
3.9447114
50
180.0199335
51
181.7137587
0
ARC
8
DEFAULT_255_2_778
10
62.7591326
20
103.1455782
40
2.9637901
50
174.1088524
51
180.2130979
0
ARC
8
DEFAULT_255_2_778
10
61.6698523
20
103.2613443
40
1.8683835
50
165.4879752
51
174.211652
0
ARC
8
DEFAULT_255_2_778
10
60.953551
20
103.4510486
40
1.1274066
50
151.8941334
51
165.6993253
0
ARC
8
DEFAULT_255_2_778
10
60.5588441
20
103.669033
40
0.6765807
50
122.5884621
51
152.4303753
0
ARC
8
DEFAULT_255_2_778
10
60.551436
20
103.6472278
40
0.691197
50
93.5076287
51
121.0973583
0
ARC
8
DEFAULT_255_2_778
10
60.5849296
20
103.3765454
40
0.9635692
50
89.9452869
51
94.510813
0
LINE
8
DEFAULT_255_2_778
10
60.5858497
20
104.3401142
11
72.3524497
21
104.3401142
0
LINE
8
DEFAULT_255_2_778
10
74.3481698
20
134.7670012
11
74.3479448
21
121.8513075
0
LINE
8
DEFAULT_255_2_778
10
74.3479448
20
121.8513075
11
74.3478885
21
116.7694903
0
LINE
8
DEFAULT_255_2_778
10
74.3478885
20
116.7694903
11
74.3478698
21
112.6050262
0
LINE
8
DEFAULT_255_2_778
10
74.3478698
20
112.6050262
11
74.3478745
21
110.8668016
0
LINE
8
DEFAULT_255_2_778
10
74.3478745
20
110.8668016
11
74.3478863
21
109.5339842
0
LINE
8
DEFAULT_255_2_778
10
74.3478863
20
109.5339842
11
74.3479025
21
108.5118052
0
LINE
8
DEFAULT_255_2_778
10
74.3479025
20
108.5118052
11
74.3479212
21
107.7276764
0
LINE
8
DEFAULT_255_2_778
10
74.3479212
20
107.7276764
11
74.3479307
21
107.4169854
0
LINE
8
DEFAULT_255_2_778
10
74.3479307
20
107.4169854
11
74.3479403
21
107.1436048
0
LINE
8
DEFAULT_255_2_778
10
74.3479403
20
107.1436048
11
74.34795
21
106.9030361
0
LINE
8
DEFAULT_255_2_778
10
74.34795
20
106.9030361
11
74.3479596
21
106.6913243
0
LINE
8
DEFAULT_255_2_778
10
74.3479596
20
106.6913243
11
74.3479691
21
106.504992
0
LINE
8
DEFAULT_255_2_778
10
74.3479691
20
106.504992
11
74.3479785
21
106.3409822
0
LINE
8
DEFAULT_255_2_778
10
74.3479785
20
106.3409822
11
74.3479877
21
106.1966067
0
ARC
8
DEFAULT_255_2_778
10
18357.4850645
20
107.4180273
40
18283.1371176
50
180.0038277
51
180.0045083
0
ARC
8
DEFAULT_255_2_778
10
10110.8099654
20
106.7623021
40
10036.4619924
50
180.0044693
51
180.0055881
0
ARC
8
DEFAULT_255_2_778
10
8083.3234281
20
106.5477708
40
8008.9754439
50
180.005468
51
180.0065461
0
ARC
8
DEFAULT_255_2_778
10
5107.3840364
20
106.2084454
40
5033.0360328
50
180.0065538
51
180.0078739
0
ARC
8
DEFAULT_255_2_778
10
3099.813447
20
105.918585
40
3025.4654226
50
180.0076094
51
180.010065
0
ARC
8
DEFAULT_255_2_778
10
1877.9816874
20
105.7001279
40
1803.6336435
50
180.0099437
51
180.0132957
0
ARC
8
DEFAULT_255_2_778
10
862.2278701
20
105.4635585
40
787.8797987
50
180.0132333
51
180.0180772
0
ARC
8
DEFAULT_255_2_778
10
372.6308914
20
105.3064347
40
298.2827947
50
180.0175677
51
180.0279225
0
ARC
8
DEFAULT_255_2_778
10
143.1910133
20
105.1929826
40
68.8428886
50
180.0265602
51
180.0497931
0
ARC
8
DEFAULT_255_2_778
10
80.0942594
20
105.1356946
40
5.7461093
50
180.0253279
51
180.1495026
0
LINE
8
DEFAULT_255_2_778
10
74.3481698
20
105.1207012
11
72.4838698
21
105.1207012
0
LINE
8
DEFAULT_255_2_778
10
72.4838698
20
105.1207012
11
72.483749
21
76.4561373
0
LINE
8
DEFAULT_255_2_778
10
72.483749
20
76.4561373
11
72.4838087
21
59.1042924
0
LINE
8
DEFAULT_255_2_778
10
72.4838087
20
59.1042924
11
72.4839589
21
45.8192862
0
LINE
8
DEFAULT_255_2_778
10
72.4839589
20
45.8192862
11
72.4841653
21
35.6479534
0
LINE
8
DEFAULT_255_2_778
10
72.4841653
20
35.6479534
11
72.4842776
21
31.6244496
0
LINE
8
DEFAULT_255_2_778
10
72.4842776
20
31.6244496
11
72.484395
21
28.088167
0
LINE
8
DEFAULT_255_2_778
10
72.484395
20
28.088167
11
72.4845158
21
24.9801062
0
LINE
8
DEFAULT_255_2_778
10
72.4845158
20
24.9801062
11
72.4846385
21
22.248412
0
LINE
8
DEFAULT_255_2_778
10
72.4846385
20
22.248412
11
72.4847617
21
19.847509
0
LINE
8
DEFAULT_255_2_778
10
72.4847617
20
19.847509
11
72.4848845
21
17.7373404
0
LINE
8
DEFAULT_255_2_778
10
72.4848845
20
17.7373404
11
72.485006
21
15.8827
0
LINE
8
DEFAULT_255_2_778
10
72.485006
20
15.8827
11
72.4851255
21
14.2526449
0
LINE
8
DEFAULT_255_2_778
10
72.4851255
20
14.2526449
11
72.4852425
21
12.8199793
0
LINE
8
DEFAULT_255_2_778
10
72.4852425
20
12.8199793
11
72.4853565
21
11.5608006
0
LINE
8
DEFAULT_255_2_778
10
72.4853565
20
11.5608006
11
72.4854114
21
10.9985256
0
LINE
8
DEFAULT_255_2_778
10
72.4854114
20
10.9985256
11
72.4854654
21
10.4708437
0
LINE
8
DEFAULT_255_2_778
10
72.4854654
20
10.4708437
11
72.4855186
21
9.9756266
0
LINE
8
DEFAULT_255_2_778
10
72.4855186
20
9.9756266
11
72.4855709
21
9.5108769
0
LINE
8
DEFAULT_255_2_778
10
72.4855709
20
9.5108769
11
72.4856222
21
9.0747203
0
LINE
8
DEFAULT_255_2_778
10
72.4856222
20
9.0747203
11
72.4856727
21
8.6653975
0
LINE
8
DEFAULT_255_2_778
10
72.4856727
20
8.6653975
11
72.4857222
21
8.2812576
0
LINE
8
DEFAULT_255_2_778
10
72.4857222
20
8.2812576
11
72.4857708
21
7.9207514
0
ARC
8
DEFAULT_255_2_778
10
51738.5709404
20
15.0206164
40
51666.0856575
50
180.0078735
51
180.008612
0
ARC
8
DEFAULT_255_2_778
10
41220.2262642
20
13.4161994
40
41147.7408589
50
180.0085793
51
180.0093943
0
ARC
8
DEFAULT_255_2_778
10
36423.3205792
20
12.6309932
40
36350.8351096
50
180.0093963
51
180.0102071
0
ARC
8
DEFAULT_255_2_778
10
29184.7444883
20
11.3380209
40
29112.2589034
50
180.0102004
51
180.0110902
0
ARC
8
DEFAULT_255_2_778
10
23419.2466793
20
10.2047061
40
23346.7609832
50
180.0110476
51
180.0120228
0
ARC
8
DEFAULT_255_2_778
10
21405.1080826
20
9.7855222
40
21332.6223428
50
180.0120321
51
180.0129701
0
ARC
8
DEFAULT_255_2_778
10
15702.4931199
20
8.4907703
40
15630.007233
50
180.012956
51
180.0146166
0
ARC
8
DEFAULT_255_2_778
10
12086.1310513
20
7.5723125
40
12013.6450477
50
180.0146361
51
180.0164105
0
ARC
8
DEFAULT_255_2_778
10
8875.5859625
20
6.6635428
40
8803.0998302
50
180.0164807
51
180.0187819
0
ARC
8
DEFAULT_255_2_778
10
5850.691599
20
5.6730231
40
5778.2053045
50
180.0187924
51
180.0219444
0
ARC
8
DEFAULT_255_2_778
10
4020.0846131
20
4.9668496
40
3947.5981826
50
180.0218711
51
180.0254033
0
ARC
8
DEFAULT_255_2_778
10
2798.8872743
20
4.4315632
40
2726.4007264
50
180.0255327
51
180.0294484
0
ARC
8
DEFAULT_255_2_778
10
1697.4031963
20
3.8632118
40
1624.9165017
50
180.0293702
51
180.0366639
0
ARC
8
DEFAULT_255_2_778
10
855.3691764
20
3.3212752
40
782.8823074
50
180.0364361
51
180.0486053
0
ARC
8
DEFAULT_255_2_778
10
414.8662072
20
2.9458419
40
342.3791783
50
180.0483134
51
180.065558
0
ARC
8
DEFAULT_255_2_778
10
186.5226143
20
2.6789791
40
114.0354296
50
180.0627487
51
180.1033136
0
ARC
8
DEFAULT_255_2_778
10
94.4153227
20
2.5098753
40
21.927983
50
180.0954247
51
180.1968459
0
ARC
8
DEFAULT_255_2_778
10
73.1078838
20
2.4328842
40
0.6204169
50
179.8471343
51
181.0420594
0
LINE
8
DEFAULT_255_2_778
10
72.4875698
20
2.4216012
11
63.6160698
21
2.4153012
0
LINE
8
DEFAULT_255_2_778
10
63.6160698
20
2.4153012
11
63.6160698
21
-0.2331988
0
LINE
8
DEFAULT_255_2_778
10
63.6160698
20
-0.2331988
11
0.2642698
21
-0.2331988
0
LINE
8
DEFAULT_255_2_778
10
0.2642698
20
-0.2331988
11
0.2642698
21
57.7391012
0
LINE
8
DEFAULT_255_2_778
10
0.2642698
20
57.7391012
11
5.4527698
21
57.7391012
0
LINE
8
DEFAULT_255_2_778
10
5.4527698
20
57.7391012
11
5.4527698
21
93.7381012
0
LINE
8
DEFAULT_255_2_778
10
5.4527698
20
93.7381012
11
0.2642698
21
93.7381012
0
LINE
8
DEFAULT_255_2_778
10
0.2642698
20
93.7381012
11
0.2642698
21
105.1204012
0
ARC
8
DEFAULT_255_2_778
10
-1348.1692215
20
367.5430711
40
1373.7316107
50
348.9871545
51
349.1371889
0
ARC
8
DEFAULT_255_2_778
10
-1400.260802
20
377.5424551
40
1426.774239
50
349.1370632
51
349.2650705
0
ARC
8
DEFAULT_255_2_778
10
-1447.046354
20
386.4146297
40
1474.3935981
50
349.2649785
51
349.374559
0
ARC
8
DEFAULT_255_2_778
10
-1498.682405
20
396.0967042
40
1526.9295316
50
349.3747464
51
349.5152528
0
ARC
8
DEFAULT_255_2_778
10
-1559.2382961
20
407.3034432
40
1588.5136769
50
349.5152513
51
349.6542425
0
ARC
8
DEFAULT_255_2_778
10
-1616.1882012
20
417.7047636
40
1646.4056377
50
349.6540789
51
349.7649115
0
ARC
8
DEFAULT_255_2_778
10
-1672.0610292
20
427.7909424
40
1703.1815471
50
349.7649863
51
349.8868827
0
ARC
8
DEFAULT_255_2_778
10
-1727.2065857
20
437.6304606
40
1759.1980491
50
349.8867681
51
349.9861841
0
ARC
8
DEFAULT_255_2_778
10
-1778.5808563
20
446.702113
40
1811.3671065
50
349.9861776
51
350.0836754
0
LINE
8
DEFAULT_255_2_778
10
5.7249698
20
134.7670012
11
74.3123698
21
134.7670012
0
LINE
8
DEFAULT_255_2_778
10
14.8166334
20
130.7018644
11
14.8166334
21
115.3851644
0
LINE
8
DEFAULT_255_2_778
10
14.8166334
20
115.3851644
11
7.4083334
21
115.3851644
0
LINE
8
DEFAULT_255_2_778
10
14.8166334
20
129.764
11
7.4083334
21
129.764
0
LINE
8
DEFAULT_255_2_778
10
14.8166334
20
116.5589
11
7.4083334
21
116.5589
0
ARC
8
DEFAULT_255_2_778
10
9.52011
20
129.7220682
40
2.113719
50
180.6419298
51
182.4496964
0
ARC
8
DEFAULT_255_2_778
10
9.3920223
20
129.7202168
40
1.9856187
50
180.0016293
51
180.6299198
0
ARC
8
DEFAULT_255_2_778
10
8.9409636
20
129.7324595
40
1.5346092
50
168.5739549
51
180.4592009
0
ARC
8
DEFAULT_255_2_778
10
8.3717485
20
129.8526725
40
0.9528741
50
147.8213165
51
168.8786565
0
ARC
8
DEFAULT_255_2_778
10
8.2432493
20
129.9151687
40
0.8109794
50
109.8353918
51
146.7235187
0
ARC
8
DEFAULT_255_2_778
10
8.4182439
20
129.4847059
40
1.2754173
50
98.2503779
51
110.668667
0
LINE
8
DEFAULT_255_2_778
10
22.7542226
20
-0.2328769
11
22.7542226
21
81.8260231
0
LINE
8
DEFAULT_255_2_778
10
22.7542226
20
81.8260231
11
18.7854226
21
81.8260231
0
LINE
8
DEFAULT_255_2_778
10
18.7854226
20
81.8260231
11
18.7854226
21
113.5905231
0
LINE
8
DEFAULT_255_2_778
10
18.7854226
20
113.5905231
11
7.4083226
21
113.6244231
0
LINE
8
DEFAULT_255_2_778
10
7.4083226
20
113.6244231
11
7.4083226
21
129.6317231
0
LINE
8
DEFAULT_255_2_778
10
8.2352226
20
130.7469231
11
18.7830226
21
130.7517231
0
LINE
8
DEFAULT_255_2_778
10
18.7830226
20
130.7517231
11
18.7854226
21
134.6347231
0
ENDSEC
0
EOF